ISO-10303-21;
HEADER;
FILE_DESCRIPTION (( 'STEP AP214' ),
    '1' );
FILE_NAME ('145021.STEP',
    '2019-05-10T06:46:57',
    ( 'user' ),
    ( 'Î¢ÈíÖÐ¹ú' ),
    'SwSTEP 2.0',
    'SolidWorks 2016',
    '' );
FILE_SCHEMA (( 'AUTOMOTIVE_DESIGN' ));
ENDSEC;

DATA;
#1 = EDGE_CURVE ( 'NONE', #93, #10, #74, .T. ) ;
#2 =( NAMED_UNIT ( * ) PLANE_ANGLE_UNIT ( ) SI_UNIT ( $, .RADIAN. ) );
#3 = LINE ( 'NONE', #319, #167 ) ;
#4 = CARTESIAN_POINT ( 'NONE',  ( 7.443164068732355300, 0.0000000000000000000, 0.0000000000000000000 ) ) ;
#5 = DIRECTION ( 'NONE',  ( 0.0000000000000000000, -1.000000000000000000, 0.0000000000000000000 ) ) ;
#6 = DIRECTION ( 'NONE',  ( 0.0000000000000000000, 0.0000000000000000000, 1.000000000000000000 ) ) ;
#7 = CARTESIAN_POINT ( 'NONE',  ( 3.401763458254145200, 0.0000000000000000000, -4.508859147182234800E-016 ) ) ;
#8 = AXIS2_PLACEMENT_3D ( 'NONE', #185, #13, #295 ) ;
#9 = SPHERICAL_SURFACE ( 'NONE', #279, 25.10900000000000500 ) ;
#10 = VERTEX_POINT ( 'NONE', #152 ) ;
#11 = MANIFOLD_SOLID_BREP ( 'Ðý×ª3', #181 ) ;
#12 = CARTESIAN_POINT ( 'NONE',  ( -9.995236541745852000, 0.0000000000000000000, 2.740691471630466300E-016 ) ) ;
#13 = DIRECTION ( 'NONE',  ( -1.000000000000000000, -0.0000000000000000000, -0.0000000000000000000 ) ) ;
#14 = FACE_OUTER_BOUND ( 'NONE', #233, .T. ) ;
#15 = CARTESIAN_POINT ( 'NONE',  ( 6.191763458254147400, 0.0000000000000000000, 1.265237034052957100E-015 ) ) ;
#16 = SURFACE_STYLE_USAGE ( .BOTH. , #327 ) ;
#17 = CARTESIAN_POINT ( 'NONE',  ( -42.71423654174585500, 0.0000000000000000000, 0.0000000000000000000 ) ) ;
#18 = FILL_AREA_STYLE ('',( #88 ) ) ;
#19 = CARTESIAN_POINT ( 'NONE',  ( -42.71423654174585500, 0.0000000000000000000, 0.0000000000000000000 ) ) ;
#20 = CIRCLE ( 'NONE', #276, 16.18700000000000100 ) ;
#21 = FACE_OUTER_BOUND ( 'NONE', #122, .T. ) ;
#22 = DIRECTION ( 'NONE',  ( -1.000000000000000000, -0.0000000000000000000, -0.0000000000000000000 ) ) ;
#23 = CIRCLE ( 'NONE', #8, 5.000000000000001800 ) ;
#24 = CARTESIAN_POINT ( 'NONE',  ( 3.904628430582694600, 0.0000000000000000000, 0.0000000000000000000 ) ) ;
#25 = EDGE_LOOP ( 'NONE', ( #277, #159, #292, #268 ) ) ;
#26 = EDGE_CURVE ( 'NONE', #339, #149, #47, .T. ) ;
#27 = SHAPE_DEFINITION_REPRESENTATION ( #323, #151 ) ;
#28 = VECTOR ( 'NONE', #182, 1000.000000000000000 ) ;
#29 = CIRCLE ( 'NONE', #48, 4.999999999999999100 ) ;
#30 = FILL_AREA_STYLE_COLOUR ( '', #76 ) ;
#31 = AXIS2_PLACEMENT_3D ( 'NONE', #229, #125, #230 ) ;
#32 = CYLINDRICAL_SURFACE ( 'NONE', #115, 4.999999999999999100 ) ;
#33 = EDGE_CURVE ( 'NONE', #10, #93, #69, .T. ) ;
#34 =( LENGTH_UNIT ( ) NAMED_UNIT ( * ) SI_UNIT ( .MILLI., .METRE. ) );
#35 = FACE_OUTER_BOUND ( 'NONE', #238, .T. ) ;
#36 = CARTESIAN_POINT ( 'NONE',  ( 5.400183848746900500, 0.0000000000000000000, 0.0000000000000000000 ) ) ;
#37 = CARTESIAN_POINT ( 'NONE',  ( 6.191763458254147400, 0.0000000000000000000, 1.265237034052957100E-015 ) ) ;
#38 = LINE ( 'NONE', #112, #28 ) ;
#39 = CIRCLE ( 'NONE', #165, 50.40599999999999200 ) ;
#40 = DIRECTION ( 'NONE',  ( 0.0000000000000000000, 1.000000000000000000, 0.0000000000000000000 ) ) ;
#41 = AXIS2_PLACEMENT_3D ( 'NONE', #234, #183, #207 ) ;
#42 = CARTESIAN_POINT ( 'NONE',  ( 5.400183848746900500, 6.123233995736765300E-016, -4.999999999999999100 ) ) ;
#43 = CIRCLE ( 'NONE', #108, 25.10900000000000500 ) ;
#44 = DIRECTION ( 'NONE',  ( 0.0000000000000000000, -1.224646799147353200E-016, 1.000000000000000000 ) ) ;
#45 = VERTEX_POINT ( 'NONE', #55 ) ;
#46 = CARTESIAN_POINT ( 'NONE',  ( -9.995236541745852000, 0.0000000000000000000, 2.740691471630466300E-016 ) ) ;
#47 = CIRCLE ( 'NONE', #347, 16.18700000000000100 ) ;
#48 = AXIS2_PLACEMENT_3D ( 'NONE', #36, #22, #269 ) ;
#49 = ORIENTED_EDGE ( 'NONE', *, *, #117, .T. ) ;
#50 = EDGE_LOOP ( 'NONE', ( #134, #49, #223, #158 ) ) ;
#51 = CARTESIAN_POINT ( 'NONE',  ( -42.71423654174585500, 0.0000000000000000000, 0.0000000000000000000 ) ) ;
#52 = PRESENTATION_LAYER_ASSIGNMENT (  '', '', ( #345 ) ) ;
#53 = DIRECTION ( 'NONE',  ( 0.0000000000000000000, 0.0000000000000000000, 1.000000000000000000 ) ) ;
#54 = APPLICATION_CONTEXT ( 'automotive_design' ) ;
#55 = CARTESIAN_POINT ( 'NONE',  ( 3.904628430582694600, 6.123233995736768300E-016, -5.000000000000003600 ) ) ;
#56 = DIRECTION ( 'NONE',  ( 0.0000000000000000000, 0.0000000000000000000, 1.000000000000000000 ) ) ;
#57 = ADVANCED_FACE ( 'NONE', ( #188 ), #204, .T. ) ;
#58 = DIRECTION ( 'NONE',  ( 0.0000000000000000000, -1.224646799147353500E-016, 1.000000000000000000 ) ) ;
#59 = PRESENTATION_STYLE_ASSIGNMENT (( #330 ) ) ;
#60 = EDGE_CURVE ( 'NONE', #110, #226, #43, .T. ) ;
#61 = CARTESIAN_POINT ( 'NONE',  ( 28.51076345825415000, 0.0000000000000000000, -1.988368738707768400E-015 ) ) ;
#62 = EDGE_CURVE ( 'NONE', #110, #45, #78, .T. ) ;
#63 = DIRECTION ( 'NONE',  ( -1.000000000000000000, -0.0000000000000000000, -0.0000000000000000000 ) ) ;
#64 = LINE ( 'NONE', #288, #91 ) ;
#65 = APPLICATION_PROTOCOL_DEFINITION ( 'draft international standard', 'automotive_design', 1998, #54 ) ;
#66 = EDGE_CURVE ( 'NONE', #192, #93, #39, .T. ) ;
#67 = CYLINDRICAL_SURFACE ( 'NONE', #31, 4.999999999999997300 ) ;
#68 = SURFACE_STYLE_FILL_AREA ( #99 ) ;
#69 = CIRCLE ( 'NONE', #281, 4.999999999999992000 ) ;
#70 = MECHANICAL_DESIGN_GEOMETRIC_PRESENTATION_REPRESENTATION (  '', ( #175 ), #302 ) ;
#71 = SURFACE_STYLE_FILL_AREA ( #18 ) ;
#72 = CARTESIAN_POINT ( 'NONE',  ( 5.400183848746898700, 0.0000000000000000000, 5.000000000000002700 ) ) ;
#73 =( GEOMETRIC_REPRESENTATION_CONTEXT ( 3 ) GLOBAL_UNCERTAINTY_ASSIGNED_CONTEXT ( ( #208 ) ) GLOBAL_UNIT_ASSIGNED_CONTEXT ( ( #322, #305, #271 ) ) REPRESENTATION_CONTEXT ( 'NONE', 'WORKASPACE' ) );
#74 = CIRCLE ( 'NONE', #329, 4.999999999999992000 ) ;
#75 = DIRECTION ( 'NONE',  ( 0.0000000000000000000, 0.0000000000000000000, 1.000000000000000000 ) ) ;
#76 = COLOUR_RGB ( '',1.000000000000000000, 1.000000000000000000, 1.000000000000000000 ) ;
#77 = COLOUR_RGB ( '',1.000000000000000000, 1.000000000000000000, 1.000000000000000000 ) ;
#78 = CIRCLE ( 'NONE', #304, 4.999999999999999100 ) ;
#79 = PRESENTATION_LAYER_ASSIGNMENT (  '', '', ( #175 ) ) ;
#80 = CARTESIAN_POINT ( 'NONE',  ( -9.995236541745852000, 0.0000000000000000000, 2.740691471630466300E-016 ) ) ;
#81 = CIRCLE ( 'NONE', #90, 16.18700000000000100 ) ;
#82 = EDGE_LOOP ( 'NONE', ( #195, #274, #217 ) ) ;
#83 = CARTESIAN_POINT ( 'NONE',  ( 0.0000000000000000000, 0.0000000000000000000, 0.0000000000000000000 ) ) ;
#84 = DIRECTION ( 'NONE',  ( -1.000000000000000000, -0.0000000000000000000, -0.0000000000000000000 ) ) ;
#85 = DIRECTION ( 'NONE',  ( -0.0000000000000000000, 1.000000000000000000, 1.224646799147353200E-016 ) ) ;
#86 = ORIENTED_EDGE ( 'NONE', *, *, #199, .F. ) ;
#87 = EDGE_CURVE ( 'NONE', #111, #45, #38, .T. ) ;
#88 = FILL_AREA_STYLE_COLOUR ( '', #341 ) ;
#89 = DIRECTION ( 'NONE',  ( 0.0000000000000000000, 0.0000000000000000000, 1.000000000000000000 ) ) ;
#90 = AXIS2_PLACEMENT_3D ( 'NONE', #135, #5, #239 ) ;
#91 = VECTOR ( 'NONE', #84, 1000.000000000000000 ) ;
#92 = CARTESIAN_POINT ( 'NONE',  ( 28.51076345825415000, 0.0000000000000000000, -1.988368738707768400E-015 ) ) ;
#93 = VERTEX_POINT ( 'NONE', #102 ) ;
#94 = DIRECTION ( 'NONE',  ( 0.0000000000000000000, 1.000000000000000000, 0.0000000000000000000 ) ) ;
#95 = PRODUCT_CONTEXT ( 'NONE', #338, 'mechanical' ) ;
#96 = CARTESIAN_POINT ( 'NONE',  ( 5.400183848746900500, 0.0000000000000000000, 4.999999999999999100 ) ) ;
#97 = AXIS2_PLACEMENT_3D ( 'NONE', #227, #254, #56 ) ;
#98 = CARTESIAN_POINT ( 'NONE',  ( 5.400183848746900500, 0.0000000000000000000, 0.0000000000000000000 ) ) ;
#99 = FILL_AREA_STYLE ('',( #315 ) ) ;
#100 = ORIENTED_EDGE ( 'NONE', *, *, #259, .T. ) ;
#101 = ORIENTED_EDGE ( 'NONE', *, *, #66, .F. ) ;
#102 = CARTESIAN_POINT ( 'NONE',  ( 7.443164068732355300, 0.0000000000000000000, 4.999999999999992000 ) ) ;
#103 = SURFACE_STYLE_FILL_AREA ( #176 ) ;
#104 = AXIS2_PLACEMENT_3D ( 'NONE', #289, #325, #245 ) ;
#105 = AXIS2_PLACEMENT_3D ( 'NONE', #252, #260, #310 ) ;
#106 = ORIENTED_EDGE ( 'NONE', *, *, #117, .F. ) ;
#107 = ORIENTED_EDGE ( 'NONE', *, *, #296, .F. ) ;
#108 = AXIS2_PLACEMENT_3D ( 'NONE', #147, #136, #324 ) ;
#109 = DIRECTION ( 'NONE',  ( -1.000000000000000000, -0.0000000000000000000, -0.0000000000000000000 ) ) ;
#110 = VERTEX_POINT ( 'NONE', #146 ) ;
#111 = VERTEX_POINT ( 'NONE', #42 ) ;
#112 = CARTESIAN_POINT ( 'NONE',  ( -9.702612178336682500, 6.123233995736765300E-016, -4.999999999999999100 ) ) ;
#113 = FACE_OUTER_BOUND ( 'NONE', #133, .T. ) ;
#114 = EDGE_LOOP ( 'NONE', ( #168, #129, #251, #143 ) ) ;
#115 = AXIS2_PLACEMENT_3D ( 'NONE', #215, #266, #283 ) ;
#116 =( LENGTH_UNIT ( ) NAMED_UNIT ( * ) SI_UNIT ( .MILLI., .METRE. ) );
#117 = EDGE_CURVE ( 'NONE', #111, #273, #29, .T. ) ;
#118 = DIRECTION ( 'NONE',  ( 1.000000000000000000, 0.0000000000000000000, 0.0000000000000000000 ) ) ;
#119 = DIRECTION ( 'NONE',  ( -1.000000000000000000, -0.0000000000000000000, -0.0000000000000000000 ) ) ;
#120 = AXIS2_PLACEMENT_3D ( 'NONE', #83, #263, #118 ) ;
#121 = DIRECTION ( 'NONE',  ( 0.0000000000000000000, 0.0000000000000000000, 1.000000000000000000 ) ) ;
#122 = EDGE_LOOP ( 'NONE', ( #280, #164, #203 ) ) ;
#123 = ORIENTED_EDGE ( 'NONE', *, *, #26, .T. ) ;
#124 = AXIS2_PLACEMENT_3D ( 'NONE', #232, #155, #121 ) ;
#125 = DIRECTION ( 'NONE',  ( -1.000000000000000000, -0.0000000000000000000, -0.0000000000000000000 ) ) ;
#126 = DIRECTION ( 'NONE',  ( 0.0000000000000000000, -1.000000000000000000, 0.0000000000000000000 ) ) ;
#127 = CYLINDRICAL_SURFACE ( 'NONE', #198, 4.999999999999999100 ) ;
#128 = ORIENTED_EDGE ( 'NONE', *, *, #139, .T. ) ;
#129 = ORIENTED_EDGE ( 'NONE', *, *, #87, .T. ) ;
#130 = DIRECTION ( 'NONE',  ( -0.0000000000000000000, 1.000000000000000000, 1.224646799147353200E-016 ) ) ;
#131 = CARTESIAN_POINT ( 'NONE',  ( -9.702612178336682500, 0.0000000000000000000, 0.0000000000000000000 ) ) ;
#132 = ADVANCED_FACE ( 'NONE', ( #21 ), #9, .T. ) ;
#133 = EDGE_LOOP ( 'NONE', ( #214, #211, #100 ) ) ;
#134 = ORIENTED_EDGE ( 'NONE', *, *, #87, .F. ) ;
#135 = CARTESIAN_POINT ( 'NONE',  ( -9.995236541745852000, 0.0000000000000000000, 2.740691471630466300E-016 ) ) ;
#136 = DIRECTION ( 'NONE',  ( 0.0000000000000000000, -1.000000000000000000, 0.0000000000000000000 ) ) ;
#137 = PRESENTATION_STYLE_ASSIGNMENT (( #16 ) ) ;
#138 = VERTEX_POINT ( 'NONE', #15 ) ;
#139 = EDGE_CURVE ( 'NONE', #10, #293, #328, .T. ) ;
#140 = FACE_OUTER_BOUND ( 'NONE', #82, .T. ) ;
#141 = ADVANCED_FACE ( 'NONE', ( #35 ), #334, .T. ) ;
#142 = ORIENTED_EDGE ( 'NONE', *, *, #66, .T. ) ;
#143 = ORIENTED_EDGE ( 'NONE', *, *, #144, .F. ) ;
#144 = EDGE_CURVE ( 'NONE', #273, #110, #3, .T. ) ;
#145 = MANIFOLD_SOLID_BREP ( 'Ðý×ª1', #301 ) ;
#146 = CARTESIAN_POINT ( 'NONE',  ( 3.904628430582694600, 0.0000000000000000000, 5.000000000000001800 ) ) ;
#147 = CARTESIAN_POINT ( 'NONE',  ( 28.51076345825415000, 0.0000000000000000000, -1.988368738707768400E-015 ) ) ;
#148 = ORIENTED_EDGE ( 'NONE', *, *, #213, .F. ) ;
#149 = VERTEX_POINT ( 'NONE', #72 ) ;
#150 = DIRECTION ( 'NONE',  ( 0.0000000000000000000, 0.0000000000000000000, 1.000000000000000000 ) ) ;
#151 = ADVANCED_BREP_SHAPE_REPRESENTATION ( '145021', ( #145, #11, #120 ), #236 ) ;
#152 = CARTESIAN_POINT ( 'NONE',  ( 7.443164068732355300, 6.123233995736759400E-016, -4.999999999999992000 ) ) ;
#153 = CARTESIAN_POINT ( 'NONE',  ( 7.443164068732355300, 0.0000000000000000000, 0.0000000000000000000 ) ) ;
#154 = EDGE_CURVE ( 'NONE', #339, #293, #184, .T. ) ;
#155 = DIRECTION ( 'NONE',  ( -1.000000000000000000, -0.0000000000000000000, -0.0000000000000000000 ) ) ;
#156 = PRESENTATION_STYLE_ASSIGNMENT (( #290 ) ) ;
#157 = PRODUCT_RELATED_PRODUCT_CATEGORY ( 'part', '', ( #312 ) ) ;
#158 = ORIENTED_EDGE ( 'NONE', *, *, #193, .F. ) ;
#159 = ORIENTED_EDGE ( 'NONE', *, *, #33, .T. ) ;
#160 = DIRECTION ( 'NONE',  ( -0.0000000000000000000, 1.000000000000000000, 1.224646799147353200E-016 ) ) ;
#161 = DIRECTION ( 'NONE',  ( 0.0000000000000000000, 0.0000000000000000000, 1.000000000000000000 ) ) ;
#162 = DIRECTION ( 'NONE',  ( -1.000000000000000000, -0.0000000000000000000, -0.0000000000000000000 ) ) ;
#163 = ADVANCED_FACE ( 'NONE', ( #140 ), #224, .T. ) ;
#164 = ORIENTED_EDGE ( 'NONE', *, *, #321, .T. ) ;
#165 = AXIS2_PLACEMENT_3D ( 'NONE', #51, #126, #179 ) ;
#166 = DIRECTION ( 'NONE',  ( 0.0000000000000000000, 0.0000000000000000000, 1.000000000000000000 ) ) ;
#167 = VECTOR ( 'NONE', #196, 1000.000000000000000 ) ;
#168 = ORIENTED_EDGE ( 'NONE', *, *, #296, .T. ) ;
#169 = CARTESIAN_POINT ( 'NONE',  ( -9.995236541745852000, 0.0000000000000000000, 2.740691471630466300E-016 ) ) ;
#170 = EDGE_LOOP ( 'NONE', ( #225, #261, #107 ) ) ;
#171 = PRODUCT_DEFINITION_FORMATION_WITH_SPECIFIED_SOURCE ( 'ÈÎºÎ', '', #312, .NOT_KNOWN. ) ;
#172 = FACE_OUTER_BOUND ( 'NONE', #25, .T. ) ;
#173 = DIRECTION ( 'NONE',  ( 0.0000000000000000000, 0.0000000000000000000, -1.000000000000000000 ) ) ;
#174 = SPHERICAL_SURFACE ( 'NONE', #97, 16.18700000000000100 ) ;
#175 = STYLED_ITEM ( 'NONE', ( #156 ), #151 ) ;
#176 = FILL_AREA_STYLE ('',( #30 ) ) ;
#177 = ORIENTED_EDGE ( 'NONE', *, *, #206, .T. ) ;
#178 = DIRECTION ( 'NONE',  ( 0.0000000000000000000, 0.0000000000000000000, 1.000000000000000000 ) ) ;
#179 = DIRECTION ( 'NONE',  ( 0.0000000000000000000, 0.0000000000000000000, -1.000000000000000000 ) ) ;
#180 = DIRECTION ( 'NONE',  ( -1.000000000000000000, -0.0000000000000000000, -0.0000000000000000000 ) ) ;
#181 = CLOSED_SHELL ( 'NONE', ( #221, #244, #340, #187, #267, #326 ) ) ;
#182 = DIRECTION ( 'NONE',  ( -1.000000000000000000, -0.0000000000000000000, -0.0000000000000000000 ) ) ;
#183 = DIRECTION ( 'NONE',  ( 0.0000000000000000000, 1.000000000000000000, 0.0000000000000000000 ) ) ;
#184 = CIRCLE ( 'NONE', #246, 16.18700000000000100 ) ;
#185 = CARTESIAN_POINT ( 'NONE',  ( 5.400183848746898700, 0.0000000000000000000, 0.0000000000000000000 ) ) ;
#186 = EDGE_LOOP ( 'NONE', ( #101, #278, #255 ) ) ;
#187 = ADVANCED_FACE ( 'NONE', ( #209 ), #174, .F. ) ;
#188 = FACE_OUTER_BOUND ( 'NONE', #170, .T. ) ;
#189 = ORIENTED_EDGE ( 'NONE', *, *, #309, .F. ) ;
#190 = PRODUCT_DEFINITION ( 'Î´Öª', '', #171, #212 ) ;
#191 = SPHERICAL_SURFACE ( 'NONE', #41, 50.40599999999999200 ) ;
#192 = VERTEX_POINT ( 'NONE', #307 ) ;
#193 = EDGE_CURVE ( 'NONE', #45, #110, #243, .T. ) ;
#194 = SPHERICAL_SURFACE ( 'NONE', #249, 50.40599999999999200 ) ;
#195 = ORIENTED_EDGE ( 'NONE', *, *, #321, .F. ) ;
#196 = DIRECTION ( 'NONE',  ( -1.000000000000000000, -0.0000000000000000000, -0.0000000000000000000 ) ) ;
#197 =( NAMED_UNIT ( * ) SI_UNIT ( $, .STERADIAN. ) SOLID_ANGLE_UNIT ( ) );
#198 = AXIS2_PLACEMENT_3D ( 'NONE', #131, #63, #161 ) ;
#199 = EDGE_CURVE ( 'NONE', #149, #293, #222, .T. ) ;
#200 = SURFACE_SIDE_STYLE ('',( #68 ) ) ;
#201 = SURFACE_SIDE_STYLE ('',( #103 ) ) ;
#202 = FACE_OUTER_BOUND ( 'NONE', #50, .T. ) ;
#203 = ORIENTED_EDGE ( 'NONE', *, *, #60, .F. ) ;
#204 = SPHERICAL_SURFACE ( 'NONE', #104, 16.18700000000000100 ) ;
#205 = MECHANICAL_DESIGN_GEOMETRIC_PRESENTATION_REPRESENTATION (  '', ( #303 ), #73 ) ;
#206 = EDGE_CURVE ( 'NONE', #138, #273, #81, .T. ) ;
#207 = DIRECTION ( 'NONE',  ( 0.0000000000000000000, 0.0000000000000000000, 1.000000000000000000 ) ) ;
#208 = UNCERTAINTY_MEASURE_WITH_UNIT (LENGTH_MEASURE( 1.000000000000000100E-005 ), #322, 'distance_accuracy_value', 'NONE');
#209 = FACE_OUTER_BOUND ( 'NONE', #346, .T. ) ;
#210 = AXIS2_PLACEMENT_3D ( 'NONE', #169, #342, #89 ) ;
#211 = ORIENTED_EDGE ( 'NONE', *, *, #154, .T. ) ;
#212 = PRODUCT_DEFINITION_CONTEXT ( 'detailed design', #54, 'design' ) ;
#213 = EDGE_CURVE ( 'NONE', #93, #149, #64, .T. ) ;
#214 = ORIENTED_EDGE ( 'NONE', *, *, #26, .F. ) ;
#215 = CARTESIAN_POINT ( 'NONE',  ( -9.702612178336682500, 0.0000000000000000000, 0.0000000000000000000 ) ) ;
#216 = FACE_OUTER_BOUND ( 'NONE', #114, .T. ) ;
#217 = ORIENTED_EDGE ( 'NONE', *, *, #60, .T. ) ;
#218 = VECTOR ( 'NONE', #119, 1000.000000000000000 ) ;
#219 = ORIENTED_EDGE ( 'NONE', *, *, #343, .F. ) ;
#220 = AXIS2_PLACEMENT_3D ( 'NONE', #333, #282, #178 ) ;
#221 = ADVANCED_FACE ( 'NONE', ( #306 ), #194, .T. ) ;
#222 = CIRCLE ( 'NONE', #124, 5.000000000000001800 ) ;
#223 = ORIENTED_EDGE ( 'NONE', *, *, #144, .T. ) ;
#224 = SPHERICAL_SURFACE ( 'NONE', #228, 25.10900000000000500 ) ;
#225 = ORIENTED_EDGE ( 'NONE', *, *, #206, .F. ) ;
#226 = VERTEX_POINT ( 'NONE', #7 ) ;
#227 = CARTESIAN_POINT ( 'NONE',  ( -9.995236541745852000, 0.0000000000000000000, 2.740691471630466300E-016 ) ) ;
#228 = AXIS2_PLACEMENT_3D ( 'NONE', #61, #40, #53 ) ;
#229 = CARTESIAN_POINT ( 'NONE',  ( -0.5519199926577972300, 0.0000000000000000000, 0.0000000000000000000 ) ) ;
#230 = DIRECTION ( 'NONE',  ( 0.0000000000000000000, 0.0000000000000000000, 1.000000000000000000 ) ) ;
#231 =( GEOMETRIC_REPRESENTATION_CONTEXT ( 3 ) GLOBAL_UNCERTAINTY_ASSIGNED_CONTEXT ( ( #237 ) ) GLOBAL_UNIT_ASSIGNED_CONTEXT ( ( #34, #2, #197 ) ) REPRESENTATION_CONTEXT ( 'NONE', 'WORKASPACE' ) );
#232 = CARTESIAN_POINT ( 'NONE',  ( 5.400183848746898700, 0.0000000000000000000, 0.0000000000000000000 ) ) ;
#233 = EDGE_LOOP ( 'NONE', ( #219, #142, #262 ) ) ;
#234 = CARTESIAN_POINT ( 'NONE',  ( -42.71423654174585500, 0.0000000000000000000, 0.0000000000000000000 ) ) ;
#235 = CYLINDRICAL_SURFACE ( 'NONE', #220, 4.999999999999997300 ) ;
#236 =( GEOMETRIC_REPRESENTATION_CONTEXT ( 3 ) GLOBAL_UNCERTAINTY_ASSIGNED_CONTEXT ( ( #332 ) ) GLOBAL_UNIT_ASSIGNED_CONTEXT ( ( #317, #300, #285 ) ) REPRESENTATION_CONTEXT ( 'NONE', 'WORKASPACE' ) );
#237 = UNCERTAINTY_MEASURE_WITH_UNIT (LENGTH_MEASURE( 1.000000000000000100E-005 ), #34, 'distance_accuracy_value', 'NONE');
#238 = EDGE_LOOP ( 'NONE', ( #189, #177, #106 ) ) ;
#239 = DIRECTION ( 'NONE',  ( 0.0000000000000000000, 0.0000000000000000000, -1.000000000000000000 ) ) ;
#240 =( NAMED_UNIT ( * ) SI_UNIT ( $, .STERADIAN. ) SOLID_ANGLE_UNIT ( ) );
#241 =( NAMED_UNIT ( * ) PLANE_ANGLE_UNIT ( ) SI_UNIT ( $, .RADIAN. ) );
#242 = ORIENTED_EDGE ( 'NONE', *, *, #199, .T. ) ;
#243 = CIRCLE ( 'NONE', #105, 4.999999999999999100 ) ;
#244 = ADVANCED_FACE ( 'NONE', ( #311 ), #235, .T. ) ;
#245 = DIRECTION ( 'NONE',  ( 0.0000000000000000000, 0.0000000000000000000, 1.000000000000000000 ) ) ;
#246 = AXIS2_PLACEMENT_3D ( 'NONE', #80, #130, #44 ) ;
#247 = ORIENTED_EDGE ( 'NONE', *, *, #1, .T. ) ;
#248 = ADVANCED_FACE ( 'NONE', ( #216 ), #32, .T. ) ;
#249 = AXIS2_PLACEMENT_3D ( 'NONE', #19, #250, #308 ) ;
#250 = DIRECTION ( 'NONE',  ( 0.0000000000000000000, 1.000000000000000000, 0.0000000000000000000 ) ) ;
#251 = ORIENTED_EDGE ( 'NONE', *, *, #62, .F. ) ;
#252 = CARTESIAN_POINT ( 'NONE',  ( 3.904628430582694600, 0.0000000000000000000, 0.0000000000000000000 ) ) ;
#253 = DIRECTION ( 'NONE',  ( -1.000000000000000000, -0.0000000000000000000, -0.0000000000000000000 ) ) ;
#254 = DIRECTION ( 'NONE',  ( 0.0000000000000000000, 1.000000000000000000, 0.0000000000000000000 ) ) ;
#255 = ORIENTED_EDGE ( 'NONE', *, *, #1, .F. ) ;
#256 = DIRECTION ( 'NONE',  ( 0.0000000000000000000, -1.224646799147353200E-016, 1.000000000000000000 ) ) ;
#257 = UNCERTAINTY_MEASURE_WITH_UNIT (LENGTH_MEASURE( 1.000000000000000100E-005 ), #116, 'distance_accuracy_value', 'NONE');
#258 = SPHERICAL_SURFACE ( 'NONE', #318, 16.18700000000000100 ) ;
#259 = EDGE_CURVE ( 'NONE', #293, #149, #23, .T. ) ;
#260 = DIRECTION ( 'NONE',  ( -1.000000000000000000, -0.0000000000000000000, -0.0000000000000000000 ) ) ;
#261 = ORIENTED_EDGE ( 'NONE', *, *, #309, .T. ) ;
#262 = ORIENTED_EDGE ( 'NONE', *, *, #33, .F. ) ;
#263 = DIRECTION ( 'NONE',  ( 0.0000000000000000000, 0.0000000000000000000, 1.000000000000000000 ) ) ;
#264 = CARTESIAN_POINT ( 'NONE',  ( 5.400183848746898700, 6.123233995736770200E-016, -5.000000000000002700 ) ) ;
#265 = CIRCLE ( 'NONE', #275, 4.999999999999999100 ) ;
#266 = DIRECTION ( 'NONE',  ( -1.000000000000000000, -0.0000000000000000000, -0.0000000000000000000 ) ) ;
#267 = ADVANCED_FACE ( 'NONE', ( #172 ), #67, .T. ) ;
#268 = ORIENTED_EDGE ( 'NONE', *, *, #259, .F. ) ;
#269 = DIRECTION ( 'NONE',  ( 0.0000000000000000000, 0.0000000000000000000, 1.000000000000000000 ) ) ;
#270 = ADVANCED_FACE ( 'NONE', ( #202 ), #127, .T. ) ;
#271 =( NAMED_UNIT ( * ) SI_UNIT ( $, .STERADIAN. ) SOLID_ANGLE_UNIT ( ) );
#272 = CIRCLE ( 'NONE', #331, 50.40599999999999200 ) ;
#273 = VERTEX_POINT ( 'NONE', #96 ) ;
#274 = ORIENTED_EDGE ( 'NONE', *, *, #193, .T. ) ;
#275 = AXIS2_PLACEMENT_3D ( 'NONE', #98, #162, #166 ) ;
#276 = AXIS2_PLACEMENT_3D ( 'NONE', #294, #85, #256 ) ;
#277 = ORIENTED_EDGE ( 'NONE', *, *, #139, .F. ) ;
#278 = ORIENTED_EDGE ( 'NONE', *, *, #343, .T. ) ;
#279 = AXIS2_PLACEMENT_3D ( 'NONE', #92, #94, #6 ) ;
#280 = ORIENTED_EDGE ( 'NONE', *, *, #62, .T. ) ;
#281 = AXIS2_PLACEMENT_3D ( 'NONE', #153, #109, #75 ) ;
#282 = DIRECTION ( 'NONE',  ( -1.000000000000000000, -0.0000000000000000000, -0.0000000000000000000 ) ) ;
#283 = DIRECTION ( 'NONE',  ( 0.0000000000000000000, 0.0000000000000000000, 1.000000000000000000 ) ) ;
#284 = DIRECTION ( 'NONE',  ( 0.0000000000000000000, 0.0000000000000000000, 1.000000000000000000 ) ) ;
#285 =( NAMED_UNIT ( * ) SI_UNIT ( $, .STERADIAN. ) SOLID_ANGLE_UNIT ( ) );
#286 = CARTESIAN_POINT ( 'NONE',  ( -0.5519199926577972300, 6.123233995736763300E-016, -4.999999999999997300 ) ) ;
#287 = MECHANICAL_DESIGN_GEOMETRIC_PRESENTATION_REPRESENTATION (  '', ( #345 ), #231 ) ;
#288 = CARTESIAN_POINT ( 'NONE',  ( -0.5519199926577972300, 0.0000000000000000000, 4.999999999999997300 ) ) ;
#289 = CARTESIAN_POINT ( 'NONE',  ( -9.995236541745852000, 0.0000000000000000000, 2.740691471630466300E-016 ) ) ;
#290 = SURFACE_STYLE_USAGE ( .BOTH. , #201 ) ;
#291 = DIRECTION ( 'NONE',  ( 0.0000000000000000000, 0.0000000000000000000, 1.000000000000000000 ) ) ;
#292 = ORIENTED_EDGE ( 'NONE', *, *, #213, .T. ) ;
#293 = VERTEX_POINT ( 'NONE', #264 ) ;
#294 = CARTESIAN_POINT ( 'NONE',  ( -9.995236541745852000, 0.0000000000000000000, 2.740691471630466300E-016 ) ) ;
#295 = DIRECTION ( 'NONE',  ( 0.0000000000000000000, 0.0000000000000000000, 1.000000000000000000 ) ) ;
#296 = EDGE_CURVE ( 'NONE', #273, #111, #265, .T. ) ;
#297 = CARTESIAN_POINT ( 'NONE',  ( 28.51076345825415000, 0.0000000000000000000, -1.988368738707768400E-015 ) ) ;
#298 = PRESENTATION_LAYER_ASSIGNMENT (  '', '', ( #303 ) ) ;
#299 = CIRCLE ( 'NONE', #313, 25.10900000000000500 ) ;
#300 =( NAMED_UNIT ( * ) PLANE_ANGLE_UNIT ( ) SI_UNIT ( $, .RADIAN. ) );
#301 = CLOSED_SHELL ( 'NONE', ( #57, #248, #132, #163, #270, #141 ) ) ;
#302 =( GEOMETRIC_REPRESENTATION_CONTEXT ( 3 ) GLOBAL_UNCERTAINTY_ASSIGNED_CONTEXT ( ( #257 ) ) GLOBAL_UNIT_ASSIGNED_CONTEXT ( ( #116, #241, #240 ) ) REPRESENTATION_CONTEXT ( 'NONE', 'WORKASPACE' ) );
#303 = STYLED_ITEM ( 'NONE', ( #59 ), #11 ) ;
#304 = AXIS2_PLACEMENT_3D ( 'NONE', #24, #253, #284 ) ;
#305 =( NAMED_UNIT ( * ) PLANE_ANGLE_UNIT ( ) SI_UNIT ( $, .RADIAN. ) );
#306 = FACE_OUTER_BOUND ( 'NONE', #186, .T. ) ;
#307 = CARTESIAN_POINT ( 'NONE',  ( 7.691763458254140300, 0.0000000000000000000, 3.086477327891073900E-015 ) ) ;
#308 = DIRECTION ( 'NONE',  ( 0.0000000000000000000, 0.0000000000000000000, 1.000000000000000000 ) ) ;
#309 = EDGE_CURVE ( 'NONE', #138, #111, #20, .T. ) ;
#310 = DIRECTION ( 'NONE',  ( 0.0000000000000000000, 0.0000000000000000000, 1.000000000000000000 ) ) ;
#311 = FACE_OUTER_BOUND ( 'NONE', #337, .T. ) ;
#312 = PRODUCT ( '145021', '145021', '', ( #95 ) ) ;
#313 = AXIS2_PLACEMENT_3D ( 'NONE', #297, #160, #58 ) ;
#314 = DIRECTION ( 'NONE',  ( -0.0000000000000000000, 1.000000000000000000, 1.224646799147353200E-016 ) ) ;
#315 = FILL_AREA_STYLE_COLOUR ( '', #77 ) ;
#316 = ORIENTED_EDGE ( 'NONE', *, *, #154, .F. ) ;
#317 =( LENGTH_UNIT ( ) NAMED_UNIT ( * ) SI_UNIT ( .MILLI., .METRE. ) );
#318 = AXIS2_PLACEMENT_3D ( 'NONE', #12, #335, #150 ) ;
#319 = CARTESIAN_POINT ( 'NONE',  ( -9.702612178336682500, 0.0000000000000000000, 4.999999999999999100 ) ) ;
#320 = APPLICATION_PROTOCOL_DEFINITION ( 'draft international standard', 'automotive_design', 1998, #338 ) ;
#321 = EDGE_CURVE ( 'NONE', #45, #226, #299, .T. ) ;
#322 =( LENGTH_UNIT ( ) NAMED_UNIT ( * ) SI_UNIT ( .MILLI., .METRE. ) );
#323 = PRODUCT_DEFINITION_SHAPE ( 'NONE', 'NONE',  #190 ) ;
#324 = DIRECTION ( 'NONE',  ( 0.0000000000000000000, 0.0000000000000000000, -1.000000000000000000 ) ) ;
#325 = DIRECTION ( 'NONE',  ( 0.0000000000000000000, 1.000000000000000000, 0.0000000000000000000 ) ) ;
#326 = ADVANCED_FACE ( 'NONE', ( #14 ), #191, .T. ) ;
#327 = SURFACE_SIDE_STYLE ('',( #71 ) ) ;
#328 = LINE ( 'NONE', #286, #218 ) ;
#329 = AXIS2_PLACEMENT_3D ( 'NONE', #4, #180, #291 ) ;
#330 = SURFACE_STYLE_USAGE ( .BOTH. , #200 ) ;
#331 = AXIS2_PLACEMENT_3D ( 'NONE', #17, #314, #336 ) ;
#332 = UNCERTAINTY_MEASURE_WITH_UNIT (LENGTH_MEASURE( 1.000000000000000100E-005 ), #317, 'distance_accuracy_value', 'NONE');
#333 = CARTESIAN_POINT ( 'NONE',  ( -0.5519199926577972300, 0.0000000000000000000, 0.0000000000000000000 ) ) ;
#334 = SPHERICAL_SURFACE ( 'NONE', #210, 16.18700000000000100 ) ;
#335 = DIRECTION ( 'NONE',  ( 0.0000000000000000000, 1.000000000000000000, 0.0000000000000000000 ) ) ;
#336 = DIRECTION ( 'NONE',  ( 0.0000000000000000000, -1.224646799147353200E-016, 1.000000000000000000 ) ) ;
#337 = EDGE_LOOP ( 'NONE', ( #247, #128, #86, #148 ) ) ;
#338 = APPLICATION_CONTEXT ( 'automotive_design' ) ;
#339 = VERTEX_POINT ( 'NONE', #37 ) ;
#340 = ADVANCED_FACE ( 'NONE', ( #113 ), #258, .F. ) ;
#341 = COLOUR_RGB ( '',1.000000000000000000, 1.000000000000000000, 1.000000000000000000 ) ;
#342 = DIRECTION ( 'NONE',  ( 0.0000000000000000000, 1.000000000000000000, 0.0000000000000000000 ) ) ;
#343 = EDGE_CURVE ( 'NONE', #192, #10, #272, .T. ) ;
#344 = DIRECTION ( 'NONE',  ( 0.0000000000000000000, -1.000000000000000000, 0.0000000000000000000 ) ) ;
#345 = STYLED_ITEM ( 'NONE', ( #137 ), #145 ) ;
#346 = EDGE_LOOP ( 'NONE', ( #316, #123, #242 ) ) ;
#347 = AXIS2_PLACEMENT_3D ( 'NONE', #46, #344, #173 ) ;
ENDSEC;
END-ISO-10303-21;
