ISO-10303-21;
HEADER;
FILE_DESCRIPTION (( 'STEP AP214' ),
    '1' );
FILE_NAME ('145022.STEP',
    '2019-05-10T07:03:53',
    ( 'user' ),
    ( 'Î¢ÈíÖÐ¹ú' ),
    'SwSTEP 2.0',
    'SolidWorks 2016',
    '' );
FILE_SCHEMA (( 'AUTOMOTIVE_DESIGN' ));
ENDSEC;

DATA;
#1 = ORIENTED_EDGE ( 'NONE', *, *, #275, .T. ) ;
#2 = CARTESIAN_POINT ( 'NONE',  ( -16.31255122929513100, 0.0000000000000000000, 5.644990011716036800E-016 ) ) ;
#3 = CARTESIAN_POINT ( 'NONE',  ( 10.50317113291975000, 0.0000000000000000000, 4.999999999999995600 ) ) ;
#4 = CARTESIAN_POINT ( 'NONE',  ( 10.50317113291975000, 0.0000000000000000000, 0.0000000000000000000 ) ) ;
#5 = MANIFOLD_SOLID_BREP ( 'Ðý×ª1', #317 ) ;
#6 = DIRECTION ( 'NONE',  ( 0.0000000000000000000, 0.0000000000000000000, 1.000000000000000000 ) ) ;
#7 = ORIENTED_EDGE ( 'NONE', *, *, #331, .T. ) ;
#8 = DIRECTION ( 'NONE',  ( -1.000000000000000000, -0.0000000000000000000, -0.0000000000000000000 ) ) ;
#9 = VERTEX_POINT ( 'NONE', #139 ) ;
#10 = AXIS2_PLACEMENT_3D ( 'NONE', #319, #110, #21 ) ;
#11 = DIRECTION ( 'NONE',  ( -1.000000000000000000, -0.0000000000000000000, -0.0000000000000000000 ) ) ;
#12 = EDGE_LOOP ( 'NONE', ( #311, #17, #252, #284 ) ) ;
#13 = ORIENTED_EDGE ( 'NONE', *, *, #163, .T. ) ;
#14 = SURFACE_STYLE_USAGE ( .BOTH. , #68 ) ;
#15 = STYLED_ITEM ( 'NONE', ( #239 ), #61 ) ;
#16 = COLOUR_RGB ( '',1.000000000000000000, 1.000000000000000000, 1.000000000000000000 ) ;
#17 = ORIENTED_EDGE ( 'NONE', *, *, #145, .T. ) ;
#18 = AXIS2_PLACEMENT_3D ( 'NONE', #30, #188, #316 ) ;
#19 = SURFACE_STYLE_FILL_AREA ( #46 ) ;
#20 = SPHERICAL_SURFACE ( 'NONE', #60, 39.08400000000000300 ) ;
#21 = DIRECTION ( 'NONE',  ( 0.0000000000000000000, 0.0000000000000000000, 1.000000000000000000 ) ) ;
#22 = APPLICATION_PROTOCOL_DEFINITION ( 'draft international standard', 'automotive_design', 1998, #236 ) ;
#23 = CARTESIAN_POINT ( 'NONE',  ( 10.50317113291975000, 0.0000000000000000000, 0.0000000000000000000 ) ) ;
#24 =( LENGTH_UNIT ( ) NAMED_UNIT ( * ) SI_UNIT ( .MILLI., .METRE. ) );
#25 = EDGE_CURVE ( 'NONE', #109, #335, #74, .T. ) ;
#26 = EDGE_CURVE ( 'NONE', #227, #109, #230, .T. ) ;
#27 = FACE_OUTER_BOUND ( 'NONE', #81, .T. ) ;
#28 = VERTEX_POINT ( 'NONE', #76 ) ;
#29 = ORIENTED_EDGE ( 'NONE', *, *, #128, .T. ) ;
#30 = CARTESIAN_POINT ( 'NONE',  ( -16.31255122929513100, 0.0000000000000000000, 5.644990011716036800E-016 ) ) ;
#31 = VECTOR ( 'NONE', #8, 1000.000000000000000 ) ;
#32 = ORIENTED_EDGE ( 'NONE', *, *, #273, .F. ) ;
#33 = STYLED_ITEM ( 'NONE', ( #148 ), #5 ) ;
#34 = DIRECTION ( 'NONE',  ( 0.0000000000000000000, 1.000000000000000000, 0.0000000000000000000 ) ) ;
#35 = EDGE_LOOP ( 'NONE', ( #168, #7, #146 ) ) ;
#36 = UNCERTAINTY_MEASURE_WITH_UNIT (LENGTH_MEASURE( 1.000000000000000100E-005 ), #131, 'distance_accuracy_value', 'NONE');
#37 =( NAMED_UNIT ( * ) PLANE_ANGLE_UNIT ( ) SI_UNIT ( $, .RADIAN. ) );
#38 = DIRECTION ( 'NONE',  ( 0.0000000000000000000, 0.0000000000000000000, 1.000000000000000000 ) ) ;
#39 = FACE_OUTER_BOUND ( 'NONE', #231, .T. ) ;
#40 = SPHERICAL_SURFACE ( 'NONE', #10, 25.36899999999999600 ) ;
#41 = ORIENTED_EDGE ( 'NONE', *, *, #234, .F. ) ;
#42 = DIRECTION ( 'NONE',  ( 0.0000000000000000000, 1.000000000000000000, 0.0000000000000000000 ) ) ;
#43 = CARTESIAN_POINT ( 'NONE',  ( 8.558841192521534000, 0.0000000000000000000, 0.0000000000000000000 ) ) ;
#44 = CIRCLE ( 'NONE', #256, 4.999999999999995600 ) ;
#45 = DIRECTION ( 'NONE',  ( 0.0000000000000000000, 0.0000000000000000000, -1.000000000000000000 ) ) ;
#46 = FILL_AREA_STYLE ('',( #164 ) ) ;
#47 = CARTESIAN_POINT ( 'NONE',  ( -9.702612178336682500, 0.0000000000000000000, 0.0000000000000000000 ) ) ;
#48 = AXIS2_PLACEMENT_3D ( 'NONE', #225, #347, #52 ) ;
#49 = ORIENTED_EDGE ( 'NONE', *, *, #205, .T. ) ;
#50 = EDGE_CURVE ( 'NONE', #130, #92, #172, .T. ) ;
#51 = PRODUCT_DEFINITION ( 'Î´Öª', '', #69, #314 ) ;
#52 = DIRECTION ( 'NONE',  ( 0.0000000000000000000, 0.0000000000000000000, -1.000000000000000000 ) ) ;
#53 = FACE_OUTER_BOUND ( 'NONE', #255, .T. ) ;
#54 = ORIENTED_EDGE ( 'NONE', *, *, #303, .F. ) ;
#55 = CARTESIAN_POINT ( 'NONE',  ( -70.97155122929514400, 0.0000000000000000000, 0.0000000000000000000 ) ) ;
#56 = CARTESIAN_POINT ( 'NONE',  ( -0.5519199926577972300, 0.0000000000000000000, 0.0000000000000000000 ) ) ;
#57 = CARTESIAN_POINT ( 'NONE',  ( -16.31255122929513100, 0.0000000000000000000, 5.644990011716036800E-016 ) ) ;
#58 = AXIS2_PLACEMENT_3D ( 'NONE', #129, #326, #244 ) ;
#59 = CYLINDRICAL_SURFACE ( 'NONE', #154, 4.999999999999999100 ) ;
#60 = AXIS2_PLACEMENT_3D ( 'NONE', #147, #114, #126 ) ;
#61 = MANIFOLD_SOLID_BREP ( 'Ðý×ª3', #167 ) ;
#62 = CIRCLE ( 'NONE', #133, 4.999999999999995600 ) ;
#63 = VECTOR ( 'NONE', #186, 1000.000000000000000 ) ;
#64 = SURFACE_STYLE_FILL_AREA ( #103 ) ;
#65 = AXIS2_PLACEMENT_3D ( 'NONE', #95, #88, #100 ) ;
#66 = LINE ( 'NONE', #158, #63 ) ;
#67 = DIRECTION ( 'NONE',  ( -1.000000000000000000, -0.0000000000000000000, -0.0000000000000000000 ) ) ;
#68 = SURFACE_SIDE_STYLE ('',( #86 ) ) ;
#69 = PRODUCT_DEFINITION_FORMATION_WITH_SPECIFIED_SOURCE ( 'ÈÎºÎ', '', #325, .NOT_KNOWN. ) ;
#70 = SPHERICAL_SURFACE ( 'NONE', #107, 81.62800000000000000 ) ;
#71 = ORIENTED_EDGE ( 'NONE', *, *, #199, .T. ) ;
#72 = DIRECTION ( 'NONE',  ( 0.0000000000000000000, 1.000000000000000000, 0.0000000000000000000 ) ) ;
#73 =( NAMED_UNIT ( * ) PLANE_ANGLE_UNIT ( ) SI_UNIT ( $, .RADIAN. ) );
#74 = LINE ( 'NONE', #202, #31 ) ;
#75 =( NAMED_UNIT ( * ) PLANE_ANGLE_UNIT ( ) SI_UNIT ( $, .RADIAN. ) );
#76 = CARTESIAN_POINT ( 'NONE',  ( 6.636448770704856900, 0.0000000000000000000, -3.471288176182425600E-016 ) ) ;
#77 = AXIS2_PLACEMENT_3D ( 'NONE', #237, #104, #334 ) ;
#78 = EDGE_CURVE ( 'NONE', #290, #130, #138, .T. ) ;
#79 = FACE_OUTER_BOUND ( 'NONE', #210, .T. ) ;
#80 = VERTEX_POINT ( 'NONE', #111 ) ;
#81 = EDGE_LOOP ( 'NONE', ( #178, #98, #99 ) ) ;
#82 = DIRECTION ( 'NONE',  ( -1.000000000000000000, -0.0000000000000000000, -0.0000000000000000000 ) ) ;
#83 = FILL_AREA_STYLE ('',( #218 ) ) ;
#84 = ADVANCED_FACE ( 'NONE', ( #124 ), #40, .T. ) ;
#85 = PRODUCT_CONTEXT ( 'NONE', #272, 'mechanical' ) ;
#86 = SURFACE_STYLE_FILL_AREA ( #83 ) ;
#87 = AXIS2_PLACEMENT_3D ( 'NONE', #328, #34, #149 ) ;
#88 = DIRECTION ( 'NONE',  ( 0.0000000000000000000, -1.000000000000000000, 0.0000000000000000000 ) ) ;
#89 = ADVANCED_FACE ( 'NONE', ( #315 ), #305, .T. ) ;
#90 = DIRECTION ( 'NONE',  ( 0.0000000000000000000, 0.0000000000000000000, 1.000000000000000000 ) ) ;
#91 = CYLINDRICAL_SURFACE ( 'NONE', #161, 4.999999999999999100 ) ;
#92 = VERTEX_POINT ( 'NONE', #308 ) ;
#93 = PRODUCT_RELATED_PRODUCT_CATEGORY ( 'part', '', ( #325 ) ) ;
#94 = CARTESIAN_POINT ( 'NONE',  ( -70.97155122929514400, 0.0000000000000000000, 0.0000000000000000000 ) ) ;
#95 = CARTESIAN_POINT ( 'NONE',  ( -16.31255122929513100, 0.0000000000000000000, 5.644990011716036800E-016 ) ) ;
#96 =( GEOMETRIC_REPRESENTATION_CONTEXT ( 3 ) GLOBAL_UNCERTAINTY_ASSIGNED_CONTEXT ( ( #228 ) ) GLOBAL_UNIT_ASSIGNED_CONTEXT ( ( #336, #170, #206 ) ) REPRESENTATION_CONTEXT ( 'NONE', 'WORKASPACE' ) );
#97 = FACE_OUTER_BOUND ( 'NONE', #12, .T. ) ;
#98 = ORIENTED_EDGE ( 'NONE', *, *, #303, .T. ) ;
#99 = ORIENTED_EDGE ( 'NONE', *, *, #163, .F. ) ;
#100 = DIRECTION ( 'NONE',  ( 0.0000000000000000000, 0.0000000000000000000, -1.000000000000000000 ) ) ;
#101 = ORIENTED_EDGE ( 'NONE', *, *, #234, .T. ) ;
#102 = ADVANCED_BREP_SHAPE_REPRESENTATION ( '145022', ( #5, #61, #318 ), #176 ) ;
#103 = FILL_AREA_STYLE ('',( #195 ) ) ;
#104 = DIRECTION ( 'NONE',  ( -1.000000000000000000, -0.0000000000000000000, -0.0000000000000000000 ) ) ;
#105 = ORIENTED_EDGE ( 'NONE', *, *, #304, .F. ) ;
#106 = DIRECTION ( 'NONE',  ( 0.0000000000000000000, -1.224646799147353000E-016, 1.000000000000000000 ) ) ;
#107 = AXIS2_PLACEMENT_3D ( 'NONE', #279, #42, #296 ) ;
#108 = DIRECTION ( 'NONE',  ( 0.0000000000000000000, -1.000000000000000000, 0.0000000000000000000 ) ) ;
#109 = VERTEX_POINT ( 'NONE', #229 ) ;
#110 = DIRECTION ( 'NONE',  ( 0.0000000000000000000, 1.000000000000000000, 0.0000000000000000000 ) ) ;
#111 = CARTESIAN_POINT ( 'NONE',  ( 10.50317113291975000, 6.123233995736766300E-016, -4.999999999999995600 ) ) ;
#112 = DIRECTION ( 'NONE',  ( -1.000000000000000000, -0.0000000000000000000, -0.0000000000000000000 ) ) ;
#113 = SURFACE_STYLE_USAGE ( .BOTH. , #285 ) ;
#114 = DIRECTION ( 'NONE',  ( 0.0000000000000000000, 1.000000000000000000, 0.0000000000000000000 ) ) ;
#115 = ORIENTED_EDGE ( 'NONE', *, *, #240, .F. ) ;
#116 = DIRECTION ( 'NONE',  ( 0.0000000000000000000, 0.0000000000000000000, 1.000000000000000000 ) ) ;
#117 = CARTESIAN_POINT ( 'NONE',  ( 8.558841192521534000, 0.0000000000000000000, 0.0000000000000000000 ) ) ;
#118 = AXIS2_PLACEMENT_3D ( 'NONE', #251, #127, #106 ) ;
#119 = CARTESIAN_POINT ( 'NONE',  ( -0.5519199926577972300, 0.0000000000000000000, 0.0000000000000000000 ) ) ;
#120 = CIRCLE ( 'NONE', #135, 4.999999999999998200 ) ;
#121 = MECHANICAL_DESIGN_GEOMETRIC_PRESENTATION_REPRESENTATION (  '', ( #15 ), #96 ) ;
#122 = EDGE_LOOP ( 'NONE', ( #184, #1, #115, #182 ) ) ;
#123 = CIRCLE ( 'NONE', #48, 81.62800000000000000 ) ;
#124 = FACE_OUTER_BOUND ( 'NONE', #241, .T. ) ;
#125 = ORIENTED_EDGE ( 'NONE', *, *, #145, .F. ) ;
#126 = DIRECTION ( 'NONE',  ( 0.0000000000000000000, 0.0000000000000000000, 1.000000000000000000 ) ) ;
#127 = DIRECTION ( 'NONE',  ( -0.0000000000000000000, 1.000000000000000000, 1.224646799147353200E-016 ) ) ;
#128 = EDGE_CURVE ( 'NONE', #259, #109, #345, .T. ) ;
#129 = CARTESIAN_POINT ( 'NONE',  ( -16.31255122929513100, 0.0000000000000000000, 5.644990011716036800E-016 ) ) ;
#130 = VERTEX_POINT ( 'NONE', #344 ) ;
#131 =( LENGTH_UNIT ( ) NAMED_UNIT ( * ) SI_UNIT ( .MILLI., .METRE. ) );
#132 = ADVANCED_FACE ( 'NONE', ( #192 ), #181, .F. ) ;
#133 = AXIS2_PLACEMENT_3D ( 'NONE', #4, #269, #169 ) ;
#134 = FACE_OUTER_BOUND ( 'NONE', #301, .T. ) ;
#135 = AXIS2_PLACEMENT_3D ( 'NONE', #213, #11, #6 ) ;
#136 = CARTESIAN_POINT ( 'NONE',  ( 6.957592116428208400, 0.0000000000000000000, 5.000000000000023100 ) ) ;
#137 = ADVANCED_FACE ( 'NONE', ( #277 ), #70, .T. ) ;
#138 = CIRCLE ( 'NONE', #264, 25.36899999999999600 ) ;
#139 = CARTESIAN_POINT ( 'NONE',  ( 10.65644877070485900, 0.0000000000000000000, 4.998273446040008200E-015 ) ) ;
#140 = COLOUR_RGB ( '',1.000000000000000000, 1.000000000000000000, 1.000000000000000000 ) ;
#141 = SURFACE_SIDE_STYLE ('',( #64 ) ) ;
#142 = DIRECTION ( 'NONE',  ( -1.000000000000000000, -0.0000000000000000000, -0.0000000000000000000 ) ) ;
#143 = ADVANCED_FACE ( 'NONE', ( #134 ), #339, .F. ) ;
#144 = AXIS2_PLACEMENT_3D ( 'NONE', #57, #72, #313 ) ;
#145 = EDGE_CURVE ( 'NONE', #80, #306, #44, .T. ) ;
#146 = ORIENTED_EDGE ( 'NONE', *, *, #342, .F. ) ;
#147 = CARTESIAN_POINT ( 'NONE',  ( 45.72044877070485600, 0.0000000000000000000, -2.740333592512000400E-015 ) ) ;
#148 = PRESENTATION_STYLE_ASSIGNMENT (( #321 ) ) ;
#149 = DIRECTION ( 'NONE',  ( 0.0000000000000000000, 0.0000000000000000000, 1.000000000000000000 ) ) ;
#150 = DIRECTION ( 'NONE',  ( -1.000000000000000000, -0.0000000000000000000, -0.0000000000000000000 ) ) ;
#151 = AXIS2_PLACEMENT_3D ( 'NONE', #94, #309, #242 ) ;
#152 = ORIENTED_EDGE ( 'NONE', *, *, #78, .F. ) ;
#153 = CARTESIAN_POINT ( 'NONE',  ( 8.558841192521539300, 0.0000000000000000000, 0.0000000000000000000 ) ) ;
#154 = AXIS2_PLACEMENT_3D ( 'NONE', #47, #112, #288 ) ;
#155 = DIRECTION ( 'NONE',  ( -1.000000000000000000, -0.0000000000000000000, -0.0000000000000000000 ) ) ;
#156 = VERTEX_POINT ( 'NONE', #243 ) ;
#157 = CARTESIAN_POINT ( 'NONE',  ( 9.056448770704863100, 0.0000000000000000000, 2.117902233550063700E-015 ) ) ;
#158 = CARTESIAN_POINT ( 'NONE',  ( -0.5519199926577972300, 6.123233995736770200E-016, -5.000000000000002700 ) ) ;
#159 = ADVANCED_FACE ( 'NONE', ( #265 ), #226, .T. ) ;
#160 = ORIENTED_EDGE ( 'NONE', *, *, #223, .T. ) ;
#161 = AXIS2_PLACEMENT_3D ( 'NONE', #257, #232, #38 ) ;
#162 =( NAMED_UNIT ( * ) SI_UNIT ( $, .STERADIAN. ) SOLID_ANGLE_UNIT ( ) );
#163 = EDGE_CURVE ( 'NONE', #335, #28, #207, .T. ) ;
#164 = FILL_AREA_STYLE_COLOUR ( '', #16 ) ;
#165 = VECTOR ( 'NONE', #67, 1000.000000000000000 ) ;
#166 = ORIENTED_EDGE ( 'NONE', *, *, #233, .F. ) ;
#167 = CLOSED_SHELL ( 'NONE', ( #137, #276, #132, #143, #329, #159 ) ) ;
#168 = ORIENTED_EDGE ( 'NONE', *, *, #205, .F. ) ;
#169 = DIRECTION ( 'NONE',  ( 0.0000000000000000000, 0.0000000000000000000, 1.000000000000000000 ) ) ;
#170 =( NAMED_UNIT ( * ) PLANE_ANGLE_UNIT ( ) SI_UNIT ( $, .RADIAN. ) );
#171 = UNCERTAINTY_MEASURE_WITH_UNIT (LENGTH_MEASURE( 1.000000000000000100E-005 ), #24, 'distance_accuracy_value', 'NONE');
#172 = CIRCLE ( 'NONE', #291, 5.000000000000010700 ) ;
#173 = ORIENTED_EDGE ( 'NONE', *, *, #304, .T. ) ;
#174 = ADVANCED_FACE ( 'NONE', ( #79 ), #91, .T. ) ;
#175 = DIRECTION ( 'NONE',  ( -1.000000000000000000, -0.0000000000000000000, -0.0000000000000000000 ) ) ;
#176 =( GEOMETRIC_REPRESENTATION_CONTEXT ( 3 ) GLOBAL_UNCERTAINTY_ASSIGNED_CONTEXT ( ( #171 ) ) GLOBAL_UNIT_ASSIGNED_CONTEXT ( ( #24, #37, #162 ) ) REPRESENTATION_CONTEXT ( 'NONE', 'WORKASPACE' ) );
#177 = CYLINDRICAL_SURFACE ( 'NONE', #190, 5.000000000000002700 ) ;
#178 = ORIENTED_EDGE ( 'NONE', *, *, #240, .T. ) ;
#179 = ORIENTED_EDGE ( 'NONE', *, *, #128, .F. ) ;
#180 = DIRECTION ( 'NONE',  ( -0.0000000000000000000, 1.000000000000000000, 1.224646799147353200E-016 ) ) ;
#181 = SPHERICAL_SURFACE ( 'NONE', #87, 25.36899999999999600 ) ;
#182 = ORIENTED_EDGE ( 'NONE', *, *, #25, .F. ) ;
#183 = AXIS2_PLACEMENT_3D ( 'NONE', #55, #268, #90 ) ;
#184 = ORIENTED_EDGE ( 'NONE', *, *, #293, .T. ) ;
#185 = ORIENTED_EDGE ( 'NONE', *, *, #25, .T. ) ;
#186 = DIRECTION ( 'NONE',  ( -1.000000000000000000, -0.0000000000000000000, -0.0000000000000000000 ) ) ;
#187 = LINE ( 'NONE', #261, #294 ) ;
#188 = DIRECTION ( 'NONE',  ( 0.0000000000000000000, -1.000000000000000000, 0.0000000000000000000 ) ) ;
#189 = ADVANCED_FACE ( 'NONE', ( #39 ), #258, .T. ) ;
#190 = AXIS2_PLACEMENT_3D ( 'NONE', #56, #155, #116 ) ;
#191 = CARTESIAN_POINT ( 'NONE',  ( 8.558841192521539300, 6.123233995736765300E-016, -4.999999999999999100 ) ) ;
#192 = FACE_OUTER_BOUND ( 'NONE', #262, .T. ) ;
#193 =( NAMED_UNIT ( * ) SI_UNIT ( $, .STERADIAN. ) SOLID_ANGLE_UNIT ( ) );
#194 = DIRECTION ( 'NONE',  ( -1.000000000000000000, -0.0000000000000000000, -0.0000000000000000000 ) ) ;
#195 = FILL_AREA_STYLE_COLOUR ( '', #140 ) ;
#196 = PRESENTATION_STYLE_ASSIGNMENT (( #113 ) ) ;
#197 = CARTESIAN_POINT ( 'NONE',  ( 45.72044877070485600, 0.0000000000000000000, -2.740333592512000400E-015 ) ) ;
#198 = CARTESIAN_POINT ( 'NONE',  ( 45.72044877070485600, 0.0000000000000000000, -2.740333592512000400E-015 ) ) ;
#199 = EDGE_CURVE ( 'NONE', #156, #335, #282, .T. ) ;
#200 = PRODUCT_DEFINITION_SHAPE ( 'NONE', 'NONE',  #51 ) ;
#201 = DIRECTION ( 'NONE',  ( 0.0000000000000000000, -1.224646799147353200E-016, 1.000000000000000000 ) ) ;
#202 = CARTESIAN_POINT ( 'NONE',  ( -9.702612178336682500, 0.0000000000000000000, 4.999999999999999100 ) ) ;
#203 = DIRECTION ( 'NONE',  ( 0.0000000000000000000, 0.0000000000000000000, 1.000000000000000000 ) ) ;
#204 = DIRECTION ( 'NONE',  ( 0.0000000000000000000, 0.0000000000000000000, 1.000000000000000000 ) ) ;
#205 = EDGE_CURVE ( 'NONE', #9, #306, #123, .T. ) ;
#206 =( NAMED_UNIT ( * ) SI_UNIT ( $, .STERADIAN. ) SOLID_ANGLE_UNIT ( ) );
#207 = CIRCLE ( 'NONE', #300, 39.08400000000000300 ) ;
#208 = ORIENTED_EDGE ( 'NONE', *, *, #50, .T. ) ;
#209 = STYLED_ITEM ( 'NONE', ( #196 ), #102 ) ;
#210 = EDGE_LOOP ( 'NONE', ( #324, #271, #185, #341 ) ) ;
#211 = ORIENTED_EDGE ( 'NONE', *, *, #293, .F. ) ;
#212 = DIRECTION ( 'NONE',  ( -0.0000000000000000000, 1.000000000000000000, 1.224646799147353200E-016 ) ) ;
#213 = CARTESIAN_POINT ( 'NONE',  ( 6.957592116428204000, 0.0000000000000000000, 0.0000000000000000000 ) ) ;
#214 = PRESENTATION_LAYER_ASSIGNMENT (  '', '', ( #33 ) ) ;
#215 = FACE_OUTER_BOUND ( 'NONE', #122, .T. ) ;
#216 = EDGE_LOOP ( 'NONE', ( #54, #71, #13 ) ) ;
#217 = DIRECTION ( 'NONE',  ( 0.0000000000000000000, 0.0000000000000000000, 1.000000000000000000 ) ) ;
#218 = FILL_AREA_STYLE_COLOUR ( '', #298 ) ;
#219 = DIRECTION ( 'NONE',  ( 0.0000000000000000000, 0.0000000000000000000, 1.000000000000000000 ) ) ;
#220 = DIRECTION ( 'NONE',  ( -1.000000000000000000, -0.0000000000000000000, -0.0000000000000000000 ) ) ;
#221 = CIRCLE ( 'NONE', #337, 39.08400000000000300 ) ;
#222 = ORIENTED_EDGE ( 'NONE', *, *, #233, .T. ) ;
#223 = EDGE_CURVE ( 'NONE', #80, #130, #66, .T. ) ;
#224 = PRESENTATION_LAYER_ASSIGNMENT (  '', '', ( #209 ) ) ;
#225 = CARTESIAN_POINT ( 'NONE',  ( -70.97155122929514400, 0.0000000000000000000, 0.0000000000000000000 ) ) ;
#226 = SPHERICAL_SURFACE ( 'NONE', #183, 81.62800000000000000 ) ;
#227 = VERTEX_POINT ( 'NONE', #191 ) ;
#228 = UNCERTAINTY_MEASURE_WITH_UNIT (LENGTH_MEASURE( 1.000000000000000100E-005 ), #336, 'distance_accuracy_value', 'NONE');
#229 = CARTESIAN_POINT ( 'NONE',  ( 8.558841192521539300, 0.0000000000000000000, 4.999999999999999100 ) ) ;
#230 = CIRCLE ( 'NONE', #330, 4.999999999999999100 ) ;
#231 = EDGE_LOOP ( 'NONE', ( #105, #29, #266 ) ) ;
#232 = DIRECTION ( 'NONE',  ( -1.000000000000000000, -0.0000000000000000000, -0.0000000000000000000 ) ) ;
#233 = EDGE_CURVE ( 'NONE', #290, #92, #320, .T. ) ;
#234 = EDGE_CURVE ( 'NONE', #92, #130, #287, .T. ) ;
#235 = CIRCLE ( 'NONE', #77, 4.999999999999999100 ) ;
#236 = APPLICATION_CONTEXT ( 'automotive_design' ) ;
#237 = CARTESIAN_POINT ( 'NONE',  ( 8.558841192521539300, 0.0000000000000000000, 0.0000000000000000000 ) ) ;
#238 = MECHANICAL_DESIGN_GEOMETRIC_PRESENTATION_REPRESENTATION (  '', ( #33 ), #250 ) ;
#239 = PRESENTATION_STYLE_ASSIGNMENT (( #14 ) ) ;
#240 = EDGE_CURVE ( 'NONE', #335, #156, #120, .T. ) ;
#241 = EDGE_LOOP ( 'NONE', ( #179, #173, #211 ) ) ;
#242 = DIRECTION ( 'NONE',  ( 0.0000000000000000000, -1.224646799147353500E-016, 1.000000000000000000 ) ) ;
#243 = CARTESIAN_POINT ( 'NONE',  ( 6.957592116428208400, 6.123233995736793900E-016, -5.000000000000024900 ) ) ;
#244 = DIRECTION ( 'NONE',  ( 0.0000000000000000000, 0.0000000000000000000, 1.000000000000000000 ) ) ;
#245 = MECHANICAL_DESIGN_GEOMETRIC_PRESENTATION_REPRESENTATION (  '', ( #209 ), #260 ) ;
#246 = ORIENTED_EDGE ( 'NONE', *, *, #342, .T. ) ;
#247 = ORIENTED_EDGE ( 'NONE', *, *, #78, .T. ) ;
#248 = DIRECTION ( 'NONE',  ( 0.0000000000000000000, 0.0000000000000000000, 1.000000000000000000 ) ) ;
#249 = CYLINDRICAL_SURFACE ( 'NONE', #333, 5.000000000000002700 ) ;
#250 =( GEOMETRIC_REPRESENTATION_CONTEXT ( 3 ) GLOBAL_UNCERTAINTY_ASSIGNED_CONTEXT ( ( #286 ) ) GLOBAL_UNIT_ASSIGNED_CONTEXT ( ( #267, #75, #338 ) ) REPRESENTATION_CONTEXT ( 'NONE', 'WORKASPACE' ) );
#251 = CARTESIAN_POINT ( 'NONE',  ( -16.31255122929513100, 0.0000000000000000000, 5.644990011716036800E-016 ) ) ;
#252 = ORIENTED_EDGE ( 'NONE', *, *, #273, .T. ) ;
#253 = SHAPE_DEFINITION_REPRESENTATION ( #200, #102 ) ;
#254 = LINE ( 'NONE', #263, #165 ) ;
#255 = EDGE_LOOP ( 'NONE', ( #246, #160, #41, #32 ) ) ;
#256 = AXIS2_PLACEMENT_3D ( 'NONE', #23, #150, #327 ) ;
#257 = CARTESIAN_POINT ( 'NONE',  ( -9.702612178336682500, 0.0000000000000000000, 0.0000000000000000000 ) ) ;
#258 = SPHERICAL_SURFACE ( 'NONE', #58, 25.36899999999999600 ) ;
#259 = VERTEX_POINT ( 'NONE', #157 ) ;
#260 =( GEOMETRIC_REPRESENTATION_CONTEXT ( 3 ) GLOBAL_UNCERTAINTY_ASSIGNED_CONTEXT ( ( #36 ) ) GLOBAL_UNIT_ASSIGNED_CONTEXT ( ( #131, #73, #193 ) ) REPRESENTATION_CONTEXT ( 'NONE', 'WORKASPACE' ) );
#261 = CARTESIAN_POINT ( 'NONE',  ( -9.702612178336682500, 6.123233995736765300E-016, -4.999999999999999100 ) ) ;
#262 = EDGE_LOOP ( 'NONE', ( #166, #247, #208 ) ) ;
#263 = CARTESIAN_POINT ( 'NONE',  ( -0.5519199926577972300, 0.0000000000000000000, 5.000000000000002700 ) ) ;
#264 = AXIS2_PLACEMENT_3D ( 'NONE', #2, #212, #280 ) ;
#265 = FACE_OUTER_BOUND ( 'NONE', #346, .T. ) ;
#266 = ORIENTED_EDGE ( 'NONE', *, *, #26, .F. ) ;
#267 =( LENGTH_UNIT ( ) NAMED_UNIT ( * ) SI_UNIT ( .MILLI., .METRE. ) );
#268 = DIRECTION ( 'NONE',  ( 0.0000000000000000000, 1.000000000000000000, 0.0000000000000000000 ) ) ;
#269 = DIRECTION ( 'NONE',  ( -1.000000000000000000, -0.0000000000000000000, -0.0000000000000000000 ) ) ;
#270 = CIRCLE ( 'NONE', #118, 25.36899999999999600 ) ;
#271 = ORIENTED_EDGE ( 'NONE', *, *, #26, .T. ) ;
#272 = APPLICATION_CONTEXT ( 'automotive_design' ) ;
#273 = EDGE_CURVE ( 'NONE', #306, #92, #254, .T. ) ;
#274 = CARTESIAN_POINT ( 'NONE',  ( 6.957592116428204000, 0.0000000000000000000, 0.0000000000000000000 ) ) ;
#275 = EDGE_CURVE ( 'NONE', #227, #156, #187, .T. ) ;
#276 = ADVANCED_FACE ( 'NONE', ( #53 ), #177, .T. ) ;
#277 = FACE_OUTER_BOUND ( 'NONE', #35, .T. ) ;
#278 = DIRECTION ( 'NONE',  ( -1.000000000000000000, -0.0000000000000000000, -0.0000000000000000000 ) ) ;
#279 = CARTESIAN_POINT ( 'NONE',  ( -70.97155122929514400, 0.0000000000000000000, 0.0000000000000000000 ) ) ;
#280 = DIRECTION ( 'NONE',  ( 0.0000000000000000000, -1.224646799147353000E-016, 1.000000000000000000 ) ) ;
#281 = AXIS2_PLACEMENT_3D ( 'NONE', #198, #323, #203 ) ;
#282 = CIRCLE ( 'NONE', #340, 4.999999999999998200 ) ;
#283 = DIRECTION ( 'NONE',  ( 1.000000000000000000, 0.0000000000000000000, 0.0000000000000000000 ) ) ;
#284 = ORIENTED_EDGE ( 'NONE', *, *, #50, .F. ) ;
#285 = SURFACE_SIDE_STYLE ('',( #19 ) ) ;
#286 = UNCERTAINTY_MEASURE_WITH_UNIT (LENGTH_MEASURE( 1.000000000000000100E-005 ), #267, 'distance_accuracy_value', 'NONE');
#287 = CIRCLE ( 'NONE', #289, 5.000000000000010700 ) ;
#288 = DIRECTION ( 'NONE',  ( 0.0000000000000000000, 0.0000000000000000000, 1.000000000000000000 ) ) ;
#289 = AXIS2_PLACEMENT_3D ( 'NONE', #43, #194, #292 ) ;
#290 = VERTEX_POINT ( 'NONE', #312 ) ;
#291 = AXIS2_PLACEMENT_3D ( 'NONE', #117, #220, #248 ) ;
#292 = DIRECTION ( 'NONE',  ( 0.0000000000000000000, 0.0000000000000000000, 1.000000000000000000 ) ) ;
#293 = EDGE_CURVE ( 'NONE', #109, #227, #235, .T. ) ;
#294 = VECTOR ( 'NONE', #82, 1000.000000000000000 ) ;
#295 = DIRECTION ( 'NONE',  ( 0.0000000000000000000, 0.0000000000000000000, 1.000000000000000000 ) ) ;
#296 = DIRECTION ( 'NONE',  ( 0.0000000000000000000, 0.0000000000000000000, 1.000000000000000000 ) ) ;
#297 = ADVANCED_FACE ( 'NONE', ( #215 ), #59, .T. ) ;
#298 = COLOUR_RGB ( '',1.000000000000000000, 1.000000000000000000, 1.000000000000000000 ) ;
#299 = CARTESIAN_POINT ( 'NONE',  ( 45.72044877070485600, 0.0000000000000000000, -2.740333592512000400E-015 ) ) ;
#300 = AXIS2_PLACEMENT_3D ( 'NONE', #197, #108, #45 ) ;
#301 = EDGE_LOOP ( 'NONE', ( #152, #222, #101 ) ) ;
#302 = ADVANCED_FACE ( 'NONE', ( #27 ), #20, .T. ) ;
#303 = EDGE_CURVE ( 'NONE', #156, #28, #221, .T. ) ;
#304 = EDGE_CURVE ( 'NONE', #259, #227, #270, .T. ) ;
#305 = SPHERICAL_SURFACE ( 'NONE', #281, 39.08400000000000300 ) ;
#306 = VERTEX_POINT ( 'NONE', #3 ) ;
#307 = APPLICATION_PROTOCOL_DEFINITION ( 'draft international standard', 'automotive_design', 1998, #272 ) ;
#308 = CARTESIAN_POINT ( 'NONE',  ( 8.558841192521534000, 0.0000000000000000000, 5.000000000000020400 ) ) ;
#309 = DIRECTION ( 'NONE',  ( -0.0000000000000000000, 1.000000000000000000, 1.224646799147353200E-016 ) ) ;
#310 = PRESENTATION_LAYER_ASSIGNMENT (  '', '', ( #15 ) ) ;
#311 = ORIENTED_EDGE ( 'NONE', *, *, #223, .F. ) ;
#312 = CARTESIAN_POINT ( 'NONE',  ( 9.056448770704863100, 0.0000000000000000000, 2.117902233550063700E-015 ) ) ;
#313 = DIRECTION ( 'NONE',  ( 0.0000000000000000000, 0.0000000000000000000, 1.000000000000000000 ) ) ;
#314 = PRODUCT_DEFINITION_CONTEXT ( 'detailed design', #236, 'design' ) ;
#315 = FACE_OUTER_BOUND ( 'NONE', #216, .T. ) ;
#316 = DIRECTION ( 'NONE',  ( 0.0000000000000000000, 0.0000000000000000000, -1.000000000000000000 ) ) ;
#317 = CLOSED_SHELL ( 'NONE', ( #84, #297, #302, #89, #174, #189 ) ) ;
#318 = AXIS2_PLACEMENT_3D ( 'NONE', #343, #219, #283 ) ;
#319 = CARTESIAN_POINT ( 'NONE',  ( -16.31255122929513100, 0.0000000000000000000, 5.644990011716036800E-016 ) ) ;
#320 = CIRCLE ( 'NONE', #18, 25.36899999999999600 ) ;
#321 = SURFACE_STYLE_USAGE ( .BOTH. , #141 ) ;
#322 = CIRCLE ( 'NONE', #151, 81.62800000000000000 ) ;
#323 = DIRECTION ( 'NONE',  ( 0.0000000000000000000, 1.000000000000000000, 0.0000000000000000000 ) ) ;
#324 = ORIENTED_EDGE ( 'NONE', *, *, #275, .F. ) ;
#325 = PRODUCT ( '145022', '145022', '', ( #85 ) ) ;
#326 = DIRECTION ( 'NONE',  ( 0.0000000000000000000, 1.000000000000000000, 0.0000000000000000000 ) ) ;
#327 = DIRECTION ( 'NONE',  ( 0.0000000000000000000, 0.0000000000000000000, 1.000000000000000000 ) ) ;
#328 = CARTESIAN_POINT ( 'NONE',  ( -16.31255122929513100, 0.0000000000000000000, 5.644990011716036800E-016 ) ) ;
#329 = ADVANCED_FACE ( 'NONE', ( #97 ), #249, .T. ) ;
#330 = AXIS2_PLACEMENT_3D ( 'NONE', #153, #175, #217 ) ;
#331 = EDGE_CURVE ( 'NONE', #9, #80, #322, .T. ) ;
#332 = ORIENTED_EDGE ( 'NONE', *, *, #331, .F. ) ;
#333 = AXIS2_PLACEMENT_3D ( 'NONE', #119, #278, #295 ) ;
#334 = DIRECTION ( 'NONE',  ( 0.0000000000000000000, 0.0000000000000000000, 1.000000000000000000 ) ) ;
#335 = VERTEX_POINT ( 'NONE', #136 ) ;
#336 =( LENGTH_UNIT ( ) NAMED_UNIT ( * ) SI_UNIT ( .MILLI., .METRE. ) );
#337 = AXIS2_PLACEMENT_3D ( 'NONE', #299, #180, #201 ) ;
#338 =( NAMED_UNIT ( * ) SI_UNIT ( $, .STERADIAN. ) SOLID_ANGLE_UNIT ( ) );
#339 = SPHERICAL_SURFACE ( 'NONE', #144, 25.36899999999999600 ) ;
#340 = AXIS2_PLACEMENT_3D ( 'NONE', #274, #142, #204 ) ;
#341 = ORIENTED_EDGE ( 'NONE', *, *, #199, .F. ) ;
#342 = EDGE_CURVE ( 'NONE', #306, #80, #62, .T. ) ;
#343 = CARTESIAN_POINT ( 'NONE',  ( 0.0000000000000000000, 0.0000000000000000000, 0.0000000000000000000 ) ) ;
#344 = CARTESIAN_POINT ( 'NONE',  ( 8.558841192521534000, 6.123233995736789000E-016, -5.000000000000018700 ) ) ;
#345 = CIRCLE ( 'NONE', #65, 25.36899999999999600 ) ;
#346 = EDGE_LOOP ( 'NONE', ( #332, #49, #125 ) ) ;
#347 = DIRECTION ( 'NONE',  ( 0.0000000000000000000, -1.000000000000000000, 0.0000000000000000000 ) ) ;
ENDSEC;
END-ISO-10303-21;
