ISO-10303-21;
HEADER;
FILE_DESCRIPTION (( 'STEP AP214' ),
    '1' );
FILE_NAME ('145027.STEP',
    '2019-05-11T01:44:47',
    ( 'user' ),
    ( 'Î¢ÈíÖÐ¹ú' ),
    'SwSTEP 2.0',
    'SolidWorks 2016',
    '' );
FILE_SCHEMA (( 'AUTOMOTIVE_DESIGN' ));
ENDSEC;

DATA;
#1 = AXIS2_PLACEMENT_3D ( 'NONE', #284, #74, #260 ) ;
#2 = PRESENTATION_LAYER_ASSIGNMENT (  '', '', ( #327 ) ) ;
#3 = AXIS2_PLACEMENT_3D ( 'NONE', #197, #303, #334 ) ;
#4 = FACE_OUTER_BOUND ( 'NONE', #59, .T. ) ;
#5 = EDGE_CURVE ( 'NONE', #157, #245, #39, .T. ) ;
#6 = DIRECTION ( 'NONE',  ( 0.0000000000000000000, -1.000000000000000000, 0.0000000000000000000 ) ) ;
#7 = CARTESIAN_POINT ( 'NONE',  ( 6.015169007899280600, 7.776507174585692200E-016, -6.349999999999999600 ) ) ;
#8 = DIRECTION ( 'NONE',  ( 0.0000000000000000000, 0.0000000000000000000, 1.000000000000000000 ) ) ;
#9 = SHAPE_DEFINITION_REPRESENTATION ( #143, #76 ) ;
#10 = FILL_AREA_STYLE ('',( #141 ) ) ;
#11 =( NAMED_UNIT ( * ) SI_UNIT ( $, .STERADIAN. ) SOLID_ANGLE_UNIT ( ) );
#12 = AXIS2_PLACEMENT_3D ( 'NONE', #346, #279, #254 ) ;
#13 =( NAMED_UNIT ( * ) SI_UNIT ( $, .STERADIAN. ) SOLID_ANGLE_UNIT ( ) );
#14 = CARTESIAN_POINT ( 'NONE',  ( 6.015169007899282300, 0.0000000000000000000, 0.0000000000000000000 ) ) ;
#15 = DIRECTION ( 'NONE',  ( 1.000000000000000000, 0.0000000000000000000, 0.0000000000000000000 ) ) ;
#16 = CARTESIAN_POINT ( 'NONE',  ( -9.702612178336682500, 0.0000000000000000000, 6.349999999999999600 ) ) ;
#17 = DIRECTION ( 'NONE',  ( 0.0000000000000000000, 0.0000000000000000000, -1.000000000000000000 ) ) ;
#18 = MECHANICAL_DESIGN_GEOMETRIC_PRESENTATION_REPRESENTATION (  '', ( #327 ), #37 ) ;
#19 = EDGE_LOOP ( 'NONE', ( #325, #221, #33 ) ) ;
#20 = UNCERTAINTY_MEASURE_WITH_UNIT (LENGTH_MEASURE( 1.000000000000000100E-005 ), #336, 'distance_accuracy_value', 'NONE');
#21 = CARTESIAN_POINT ( 'NONE',  ( 30.82981517711855400, 0.0000000000000000000, 6.954762905640236300E-017 ) ) ;
#22 = CARTESIAN_POINT ( 'NONE',  ( -0.5519199926577972300, 0.0000000000000000000, 0.0000000000000000000 ) ) ;
#23 = AXIS2_PLACEMENT_3D ( 'NONE', #138, #117, #212 ) ;
#24 = CARTESIAN_POINT ( 'NONE',  ( 8.209930376871399800, 0.0000000000000000000, 0.0000000000000000000 ) ) ;
#25 = FACE_OUTER_BOUND ( 'NONE', #121, .T. ) ;
#26 = CIRCLE ( 'NONE', #256, 6.349999999999999600 ) ;
#27 = ADVANCED_FACE ( 'NONE', ( #178 ), #234, .F. ) ;
#28 = ORIENTED_EDGE ( 'NONE', *, *, #113, .F. ) ;
#29 = ORIENTED_EDGE ( 'NONE', *, *, #156, .F. ) ;
#30 = EDGE_CURVE ( 'NONE', #223, #245, #107, .T. ) ;
#31 = FACE_OUTER_BOUND ( 'NONE', #115, .T. ) ;
#32 = ORIENTED_EDGE ( 'NONE', *, *, #267, .F. ) ;
#33 = ORIENTED_EDGE ( 'NONE', *, *, #285, .T. ) ;
#34 = AXIS2_PLACEMENT_3D ( 'NONE', #24, #203, #127 ) ;
#35 = FACE_OUTER_BOUND ( 'NONE', #112, .T. ) ;
#36 = ORIENTED_EDGE ( 'NONE', *, *, #181, .F. ) ;
#37 =( GEOMETRIC_REPRESENTATION_CONTEXT ( 3 ) GLOBAL_UNCERTAINTY_ASSIGNED_CONTEXT ( ( #270 ) ) GLOBAL_UNIT_ASSIGNED_CONTEXT ( ( #281, #123, #306 ) ) REPRESENTATION_CONTEXT ( 'NONE', 'WORKASPACE' ) );
#38 = ORIENTED_EDGE ( 'NONE', *, *, #139, .T. ) ;
#39 = LINE ( 'NONE', #16, #313 ) ;
#40 = AXIS2_PLACEMENT_3D ( 'NONE', #82, #273, #116 ) ;
#41 = DIRECTION ( 'NONE',  ( 0.0000000000000000000, 0.0000000000000000000, 1.000000000000000000 ) ) ;
#42 = CARTESIAN_POINT ( 'NONE',  ( 6.929815177118562100, 0.0000000000000000000, 1.106317052420878600E-015 ) ) ;
#43 = EDGE_LOOP ( 'NONE', ( #319, #84, #257 ) ) ;
#44 = LINE ( 'NONE', #134, #315 ) ;
#45 = CARTESIAN_POINT ( 'NONE',  ( 8.209930376871399800, 0.0000000000000000000, 6.349999999999996100 ) ) ;
#46 =( NAMED_UNIT ( * ) PLANE_ANGLE_UNIT ( ) SI_UNIT ( $, .RADIAN. ) );
#47 = DIRECTION ( 'NONE',  ( -1.000000000000000000, -0.0000000000000000000, -0.0000000000000000000 ) ) ;
#48 =( LENGTH_UNIT ( ) NAMED_UNIT ( * ) SI_UNIT ( .MILLI., .METRE. ) );
#49 = EDGE_LOOP ( 'NONE', ( #28, #230, #237 ) ) ;
#50 = APPLICATION_PROTOCOL_DEFINITION ( 'draft international standard', 'automotive_design', 1998, #69 ) ;
#51 = EDGE_LOOP ( 'NONE', ( #93, #180, #36, #98 ) ) ;
#52 = DIRECTION ( 'NONE',  ( 0.0000000000000000000, -1.224646799147353200E-016, 1.000000000000000000 ) ) ;
#53 = DIRECTION ( 'NONE',  ( -1.000000000000000000, -0.0000000000000000000, -0.0000000000000000000 ) ) ;
#54 = CARTESIAN_POINT ( 'NONE',  ( -83.37018482288142700, 0.0000000000000000000, 0.0000000000000000000 ) ) ;
#55 = EDGE_CURVE ( 'NONE', #307, #161, #97, .T. ) ;
#56 = DIRECTION ( 'NONE',  ( 0.0000000000000000000, 1.000000000000000000, 0.0000000000000000000 ) ) ;
#57 = ORIENTED_EDGE ( 'NONE', *, *, #5, .T. ) ;
#58 = ADVANCED_FACE ( 'NONE', ( #159 ), #297, .T. ) ;
#59 = EDGE_LOOP ( 'NONE', ( #309, #154, #241 ) ) ;
#60 = VERTEX_POINT ( 'NONE', #179 ) ;
#61 = APPLICATION_PROTOCOL_DEFINITION ( 'draft international standard', 'automotive_design', 1998, #225 ) ;
#62 = AXIS2_PLACEMENT_3D ( 'NONE', #296, #114, #331 ) ;
#63 = COLOUR_RGB ( '',1.000000000000000000, 1.000000000000000000, 1.000000000000000000 ) ;
#64 = EDGE_CURVE ( 'NONE', #223, #293, #81, .T. ) ;
#65 = CYLINDRICAL_SURFACE ( 'NONE', #263, 6.350000000000001400 ) ;
#66 = CARTESIAN_POINT ( 'NONE',  ( 8.209930376871399800, 0.0000000000000000000, 0.0000000000000000000 ) ) ;
#67 = SURFACE_STYLE_USAGE ( .BOTH. , #247 ) ;
#68 = SURFACE_SIDE_STYLE ('',( #261 ) ) ;
#69 = APPLICATION_CONTEXT ( 'automotive_design' ) ;
#70 = CARTESIAN_POINT ( 'NONE',  ( -83.37018482288142700, 0.0000000000000000000, 0.0000000000000000000 ) ) ;
#71 = CARTESIAN_POINT ( 'NONE',  ( -83.37018482288142700, 0.0000000000000000000, 0.0000000000000000000 ) ) ;
#72 = AXIS2_PLACEMENT_3D ( 'NONE', #333, #163, #8 ) ;
#73 = CIRCLE ( 'NONE', #164, 27.39999999999999900 ) ;
#74 = DIRECTION ( 'NONE',  ( -1.000000000000000000, -0.0000000000000000000, -0.0000000000000000000 ) ) ;
#75 = ADVANCED_FACE ( 'NONE', ( #31 ), #211, .T. ) ;
#76 = ADVANCED_BREP_SHAPE_REPRESENTATION ( '145027', ( #188, #200, #79 ), #268 ) ;
#77 = EDGE_CURVE ( 'NONE', #60, #161, #289, .T. ) ;
#78 = AXIS2_PLACEMENT_3D ( 'NONE', #21, #259, #145 ) ;
#79 = AXIS2_PLACEMENT_3D ( 'NONE', #338, #173, #15 ) ;
#80 = AXIS2_PLACEMENT_3D ( 'NONE', #66, #246, #86 ) ;
#81 = CIRCLE ( 'NONE', #78, 27.39999999999999900 ) ;
#82 = CARTESIAN_POINT ( 'NONE',  ( -15.57018482288144100, 0.0000000000000000000, -2.714105966198940700E-016 ) ) ;
#83 = DIRECTION ( 'NONE',  ( -1.000000000000000000, -0.0000000000000000000, -0.0000000000000000000 ) ) ;
#84 = ORIENTED_EDGE ( 'NONE', *, *, #129, .T. ) ;
#85 = CIRCLE ( 'NONE', #208, 6.349999999999999600 ) ;
#86 = DIRECTION ( 'NONE',  ( 0.0000000000000000000, 0.0000000000000000000, 1.000000000000000000 ) ) ;
#87 = FILL_AREA_STYLE ('',( #280 ) ) ;
#88 = CARTESIAN_POINT ( 'NONE',  ( 6.015169007899280600, 0.0000000000000000000, 0.0000000000000000000 ) ) ;
#89 = FILL_AREA_STYLE_COLOUR ( '', #332 ) ;
#90 = CIRCLE ( 'NONE', #330, 22.50000000000000400 ) ;
#91 = SURFACE_STYLE_USAGE ( .BOTH. , #253 ) ;
#92 = CARTESIAN_POINT ( 'NONE',  ( -0.5519199926577972300, 0.0000000000000000000, 0.0000000000000000000 ) ) ;
#93 = ORIENTED_EDGE ( 'NONE', *, *, #55, .T. ) ;
#94 = CARTESIAN_POINT ( 'NONE',  ( -0.5519199926577972300, 7.776507174585694100E-016, -6.350000000000001400 ) ) ;
#95 = EDGE_CURVE ( 'NONE', #243, #157, #153, .T. ) ;
#96 = CARTESIAN_POINT ( 'NONE',  ( -15.57018482288144100, 0.0000000000000000000, -2.714105966198940700E-016 ) ) ;
#97 = CIRCLE ( 'NONE', #34, 6.349999999999996100 ) ;
#98 = ORIENTED_EDGE ( 'NONE', *, *, #207, .F. ) ;
#99 = CIRCLE ( 'NONE', #40, 22.50000000000000400 ) ;
#100 = AXIS2_PLACEMENT_3D ( 'NONE', #149, #56, #147 ) ;
#101 = ADVANCED_FACE ( 'NONE', ( #25 ), #148, .T. ) ;
#102 = EDGE_LOOP ( 'NONE', ( #298, #38, #184 ) ) ;
#103 = SPHERICAL_SURFACE ( 'NONE', #23, 22.50000000000000400 ) ;
#104 = ORIENTED_EDGE ( 'NONE', *, *, #301, .T. ) ;
#105 = PRODUCT_DEFINITION ( 'Î´Öª', '', #125, #251 ) ;
#106 = PRESENTATION_STYLE_ASSIGNMENT (( #67 ) ) ;
#107 = CIRCLE ( 'NONE', #1, 6.349999999999999600 ) ;
#108 = PRODUCT_RELATED_PRODUCT_CATEGORY ( 'part', '', ( #323 ) ) ;
#109 = ORIENTED_EDGE ( 'NONE', *, *, #181, .T. ) ;
#110 = ORIENTED_EDGE ( 'NONE', *, *, #30, .F. ) ;
#111 = ORIENTED_EDGE ( 'NONE', *, *, #139, .F. ) ;
#112 = EDGE_LOOP ( 'NONE', ( #32, #295, #109 ) ) ;
#113 = EDGE_CURVE ( 'NONE', #245, #293, #73, .T. ) ;
#114 = DIRECTION ( 'NONE',  ( 0.0000000000000000000, 1.000000000000000000, 0.0000000000000000000 ) ) ;
#115 = EDGE_LOOP ( 'NONE', ( #166, #287, #57, #110 ) ) ;
#116 = DIRECTION ( 'NONE',  ( 0.0000000000000000000, -1.224646799147353200E-016, 1.000000000000000000 ) ) ;
#117 = DIRECTION ( 'NONE',  ( 0.0000000000000000000, 1.000000000000000000, 0.0000000000000000000 ) ) ;
#118 = AXIS2_PLACEMENT_3D ( 'NONE', #337, #53, #310 ) ;
#119 = DIRECTION ( 'NONE',  ( -0.0000000000000000000, 1.000000000000000000, 1.224646799147353200E-016 ) ) ;
#120 = DIRECTION ( 'NONE',  ( 0.0000000000000000000, 0.0000000000000000000, 1.000000000000000000 ) ) ;
#121 = EDGE_LOOP ( 'NONE', ( #111, #185, #239 ) ) ;
#122 = DIRECTION ( 'NONE',  ( 0.0000000000000000000, 0.0000000000000000000, 1.000000000000000000 ) ) ;
#123 =( NAMED_UNIT ( * ) PLANE_ANGLE_UNIT ( ) SI_UNIT ( $, .RADIAN. ) );
#124 = CARTESIAN_POINT ( 'NONE',  ( 8.209930376871399800, 7.776507174585690200E-016, -6.349999999999996100 ) ) ;
#125 = PRODUCT_DEFINITION_FORMATION_WITH_SPECIFIED_SOURCE ( 'ÈÎºÎ', '', #323, .NOT_KNOWN. ) ;
#126 = DIRECTION ( 'NONE',  ( 0.0000000000000000000, 0.0000000000000000000, 1.000000000000000000 ) ) ;
#127 = DIRECTION ( 'NONE',  ( 0.0000000000000000000, 0.0000000000000000000, 1.000000000000000000 ) ) ;
#128 = PRESENTATION_STYLE_ASSIGNMENT (( #217 ) ) ;
#129 = EDGE_CURVE ( 'NONE', #231, #157, #136, .T. ) ;
#130 = ADVANCED_FACE ( 'NONE', ( #222 ), #65, .T. ) ;
#131 = PRESENTATION_STYLE_ASSIGNMENT (( #91 ) ) ;
#132 = CIRCLE ( 'NONE', #238, 91.79999999999999700 ) ;
#133 = AXIS2_PLACEMENT_3D ( 'NONE', #70, #219, #52 ) ;
#134 = CARTESIAN_POINT ( 'NONE',  ( -9.702612178336682500, 7.776507174585692200E-016, -6.349999999999999600 ) ) ;
#135 = DIRECTION ( 'NONE',  ( -1.000000000000000000, -0.0000000000000000000, -0.0000000000000000000 ) ) ;
#136 = CIRCLE ( 'NONE', #205, 22.50000000000000400 ) ;
#137 = DIRECTION ( 'NONE',  ( -1.000000000000000000, -0.0000000000000000000, -0.0000000000000000000 ) ) ;
#138 = CARTESIAN_POINT ( 'NONE',  ( -15.57018482288144100, 0.0000000000000000000, -2.714105966198940700E-016 ) ) ;
#139 = EDGE_CURVE ( 'NONE', #60, #307, #132, .T. ) ;
#140 = CARTESIAN_POINT ( 'NONE',  ( 4.175781711243269400, 0.0000000000000000000, -6.350000000000001400 ) ) ;
#141 = FILL_AREA_STYLE_COLOUR ( '', #266 ) ;
#142 = DIRECTION ( 'NONE',  ( 0.0000000000000000000, 0.0000000000000000000, 1.000000000000000000 ) ) ;
#143 = PRODUCT_DEFINITION_SHAPE ( 'NONE', 'NONE',  #105 ) ;
#144 = DIRECTION ( 'NONE',  ( 0.0000000000000000000, 0.0000000000000000000, -1.000000000000000000 ) ) ;
#145 = DIRECTION ( 'NONE',  ( 0.0000000000000000000, 0.0000000000000000000, 1.000000000000000000 ) ) ;
#146 = DIRECTION ( 'NONE',  ( 0.0000000000000000000, 1.224646799147353200E-016, -1.000000000000000000 ) ) ;
#147 = DIRECTION ( 'NONE',  ( 0.0000000000000000000, 0.0000000000000000000, 1.000000000000000000 ) ) ;
#148 = SPHERICAL_SURFACE ( 'NONE', #187, 91.79999999999999700 ) ;
#149 = CARTESIAN_POINT ( 'NONE',  ( -15.57018482288144100, 0.0000000000000000000, -2.714105966198940700E-016 ) ) ;
#150 = AXIS2_PLACEMENT_3D ( 'NONE', #176, #344, #342 ) ;
#151 = ADVANCED_FACE ( 'NONE', ( #4 ), #204, .T. ) ;
#152 = ORIENTED_EDGE ( 'NONE', *, *, #249, .T. ) ;
#153 = CIRCLE ( 'NONE', #118, 6.349999999999999600 ) ;
#154 = ORIENTED_EDGE ( 'NONE', *, *, #113, .T. ) ;
#155 = FACE_OUTER_BOUND ( 'NONE', #235, .T. ) ;
#156 = EDGE_CURVE ( 'NONE', #161, #248, #272, .T. ) ;
#157 = VERTEX_POINT ( 'NONE', #308 ) ;
#158 = DIRECTION ( 'NONE',  ( 0.0000000000000000000, 0.0000000000000000000, -1.000000000000000000 ) ) ;
#159 = FACE_OUTER_BOUND ( 'NONE', #240, .T. ) ;
#160 = CARTESIAN_POINT ( 'NONE',  ( 6.929815177118562100, 0.0000000000000000000, 1.106317052420878600E-015 ) ) ;
#161 = VERTEX_POINT ( 'NONE', #124 ) ;
#162 = CIRCLE ( 'NONE', #72, 6.350000000000007600 ) ;
#163 = DIRECTION ( 'NONE',  ( -1.000000000000000000, -0.0000000000000000000, -0.0000000000000000000 ) ) ;
#164 = AXIS2_PLACEMENT_3D ( 'NONE', #177, #343, #146 ) ;
#165 = CARTESIAN_POINT ( 'NONE',  ( 30.82981517711855400, 0.0000000000000000000, 6.954762905640236300E-017 ) ) ;
#166 = ORIENTED_EDGE ( 'NONE', *, *, #249, .F. ) ;
#167 = SPHERICAL_SURFACE ( 'NONE', #3, 91.79999999999999700 ) ;
#168 =( NAMED_UNIT ( * ) PLANE_ANGLE_UNIT ( ) SI_UNIT ( $, .RADIAN. ) );
#169 = DIRECTION ( 'NONE',  ( 0.0000000000000000000, 1.000000000000000000, 0.0000000000000000000 ) ) ;
#170 = DIRECTION ( 'NONE',  ( -1.000000000000000000, -0.0000000000000000000, -0.0000000000000000000 ) ) ;
#171 = EDGE_LOOP ( 'NONE', ( #29, #104, #244, #304 ) ) ;
#172 = VERTEX_POINT ( 'NONE', #255 ) ;
#173 = DIRECTION ( 'NONE',  ( 0.0000000000000000000, 0.0000000000000000000, 1.000000000000000000 ) ) ;
#174 = DIRECTION ( 'NONE',  ( 0.0000000000000000000, 0.0000000000000000000, -1.000000000000000000 ) ) ;
#175 = FACE_OUTER_BOUND ( 'NONE', #102, .T. ) ;
#176 = CARTESIAN_POINT ( 'NONE',  ( -9.702612178336682500, 0.0000000000000000000, 0.0000000000000000000 ) ) ;
#177 = CARTESIAN_POINT ( 'NONE',  ( 30.82981517711855400, 0.0000000000000000000, 6.954762905640236300E-017 ) ) ;
#178 = FACE_OUTER_BOUND ( 'NONE', #19, .T. ) ;
#179 = CARTESIAN_POINT ( 'NONE',  ( 8.429815177118563000, 0.0000000000000000000, 5.621128808086350600E-015 ) ) ;
#180 = ORIENTED_EDGE ( 'NONE', *, *, #156, .T. ) ;
#181 = EDGE_CURVE ( 'NONE', #172, #248, #265, .T. ) ;
#182 = ORIENTED_EDGE ( 'NONE', *, *, #340, .T. ) ;
#183 = ADVANCED_FACE ( 'NONE', ( #345 ), #186, .T. ) ;
#184 = ORIENTED_EDGE ( 'NONE', *, *, #301, .F. ) ;
#185 = ORIENTED_EDGE ( 'NONE', *, *, #77, .T. ) ;
#186 = CYLINDRICAL_SURFACE ( 'NONE', #335, 6.350000000000001400 ) ;
#187 = AXIS2_PLACEMENT_3D ( 'NONE', #71, #169, #122 ) ;
#188 = MANIFOLD_SOLID_BREP ( 'Ðý×ª1', #252 ) ;
#189 = CARTESIAN_POINT ( 'NONE',  ( -15.57018482288144100, 0.0000000000000000000, -2.714105966198940700E-016 ) ) ;
#190 = CARTESIAN_POINT ( 'NONE',  ( -9.702612178336682500, 0.0000000000000000000, 0.0000000000000000000 ) ) ;
#191 = VECTOR ( 'NONE', #339, 1000.000000000000000 ) ;
#192 =( NAMED_UNIT ( * ) SI_UNIT ( $, .STERADIAN. ) SOLID_ANGLE_UNIT ( ) );
#193 = EDGE_CURVE ( 'NONE', #231, #243, #242, .T. ) ;
#194 = CARTESIAN_POINT ( 'NONE',  ( 4.175781711243269400, 0.0000000000000000000, 0.0000000000000000000 ) ) ;
#195 =( NAMED_UNIT ( * ) PLANE_ANGLE_UNIT ( ) SI_UNIT ( $, .RADIAN. ) );
#196 = SURFACE_STYLE_FILL_AREA ( #10 ) ;
#197 = CARTESIAN_POINT ( 'NONE',  ( -83.37018482288142700, 0.0000000000000000000, 0.0000000000000000000 ) ) ;
#198 = PRODUCT_CONTEXT ( 'NONE', #69, 'mechanical' ) ;
#199 = DIRECTION ( 'NONE',  ( 0.0000000000000000000, -1.000000000000000000, 0.0000000000000000000 ) ) ;
#200 = MANIFOLD_SOLID_BREP ( 'Ðý×ª3', #320 ) ;
#201 = MECHANICAL_DESIGN_GEOMETRIC_PRESENTATION_REPRESENTATION (  '', ( #317 ), #210 ) ;
#202 = DIRECTION ( 'NONE',  ( -1.000000000000000000, -0.0000000000000000000, -0.0000000000000000000 ) ) ;
#203 = DIRECTION ( 'NONE',  ( -1.000000000000000000, -0.0000000000000000000, -0.0000000000000000000 ) ) ;
#204 = SPHERICAL_SURFACE ( 'NONE', #277, 27.39999999999999900 ) ;
#205 = AXIS2_PLACEMENT_3D ( 'NONE', #96, #311, #144 ) ;
#206 = ADVANCED_FACE ( 'NONE', ( #175 ), #167, .T. ) ;
#207 = EDGE_CURVE ( 'NONE', #307, #172, #305, .T. ) ;
#208 = AXIS2_PLACEMENT_3D ( 'NONE', #194, #47, #216 ) ;
#209 = ORIENTED_EDGE ( 'NONE', *, *, #129, .F. ) ;
#210 =( GEOMETRIC_REPRESENTATION_CONTEXT ( 3 ) GLOBAL_UNCERTAINTY_ASSIGNED_CONTEXT ( ( #328 ) ) GLOBAL_UNIT_ASSIGNED_CONTEXT ( ( #48, #195, #11 ) ) REPRESENTATION_CONTEXT ( 'NONE', 'WORKASPACE' ) );
#211 = CYLINDRICAL_SURFACE ( 'NONE', #150, 6.349999999999999600 ) ;
#212 = DIRECTION ( 'NONE',  ( 0.0000000000000000000, 0.0000000000000000000, 1.000000000000000000 ) ) ;
#213 =( LENGTH_UNIT ( ) NAMED_UNIT ( * ) SI_UNIT ( .MILLI., .METRE. ) );
#214 = SPHERICAL_SURFACE ( 'NONE', #286, 27.39999999999999900 ) ;
#215 = AXIS2_PLACEMENT_3D ( 'NONE', #14, #170, #142 ) ;
#216 = DIRECTION ( 'NONE',  ( 0.0000000000000000000, 0.0000000000000000000, 1.000000000000000000 ) ) ;
#217 = SURFACE_STYLE_USAGE ( .BOTH. , #68 ) ;
#218 = DIRECTION ( 'NONE',  ( 0.0000000000000000000, 0.0000000000000000000, 1.000000000000000000 ) ) ;
#219 = DIRECTION ( 'NONE',  ( -0.0000000000000000000, 1.000000000000000000, 1.224646799147353200E-016 ) ) ;
#220 = DIRECTION ( 'NONE',  ( -0.0000000000000000000, -1.000000000000000000, -0.0000000000000000000 ) ) ;
#221 = ORIENTED_EDGE ( 'NONE', *, *, #267, .T. ) ;
#222 = FACE_OUTER_BOUND ( 'NONE', #171, .T. ) ;
#223 = VERTEX_POINT ( 'NONE', #140 ) ;
#224 = FACE_OUTER_BOUND ( 'NONE', #49, .T. ) ;
#225 = APPLICATION_CONTEXT ( 'automotive_design' ) ;
#226 = ADVANCED_FACE ( 'NONE', ( #35 ), #103, .F. ) ;
#227 = EDGE_CURVE ( 'NONE', #232, #172, #90, .T. ) ;
#228 = VECTOR ( 'NONE', #83, 1000.000000000000000 ) ;
#229 = AXIS2_PLACEMENT_3D ( 'NONE', #190, #137, #41 ) ;
#230 = ORIENTED_EDGE ( 'NONE', *, *, #326, .T. ) ;
#231 = VERTEX_POINT ( 'NONE', #160 ) ;
#232 = VERTEX_POINT ( 'NONE', #42 ) ;
#233 = AXIS2_PLACEMENT_3D ( 'NONE', #300, #119, #276 ) ;
#234 = SPHERICAL_SURFACE ( 'NONE', #12, 22.50000000000000400 ) ;
#235 = EDGE_LOOP ( 'NONE', ( #182, #152, #314, #322 ) ) ;
#236 = SPHERICAL_SURFACE ( 'NONE', #62, 22.50000000000000400 ) ;
#237 = ORIENTED_EDGE ( 'NONE', *, *, #64, .T. ) ;
#238 = AXIS2_PLACEMENT_3D ( 'NONE', #54, #199, #17 ) ;
#239 = ORIENTED_EDGE ( 'NONE', *, *, #55, .F. ) ;
#240 = EDGE_LOOP ( 'NONE', ( #209, #316, #324 ) ) ;
#241 = ORIENTED_EDGE ( 'NONE', *, *, #64, .F. ) ;
#242 = CIRCLE ( 'NONE', #233, 22.50000000000000400 ) ;
#243 = VERTEX_POINT ( 'NONE', #7 ) ;
#244 = ORIENTED_EDGE ( 'NONE', *, *, #207, .T. ) ;
#245 = VERTEX_POINT ( 'NONE', #329 ) ;
#246 = DIRECTION ( 'NONE',  ( -1.000000000000000000, -0.0000000000000000000, -0.0000000000000000000 ) ) ;
#247 = SURFACE_SIDE_STYLE ('',( #321 ) ) ;
#248 = VERTEX_POINT ( 'NONE', #294 ) ;
#249 = EDGE_CURVE ( 'NONE', #243, #223, #44, .T. ) ;
#250 = FILL_AREA_STYLE ('',( #89 ) ) ;
#251 = PRODUCT_DEFINITION_CONTEXT ( 'detailed design', #225, 'design' ) ;
#252 = CLOSED_SHELL ( 'NONE', ( #58, #318, #151, #347, #75, #262 ) ) ;
#253 = SURFACE_SIDE_STYLE ('',( #196 ) ) ;
#254 = DIRECTION ( 'NONE',  ( 0.0000000000000000000, 0.0000000000000000000, 1.000000000000000000 ) ) ;
#255 = CARTESIAN_POINT ( 'NONE',  ( 6.015169007899284100, 0.0000000000000000000, 6.350000000000005000 ) ) ;
#256 = AXIS2_PLACEMENT_3D ( 'NONE', #88, #278, #120 ) ;
#257 = ORIENTED_EDGE ( 'NONE', *, *, #95, .F. ) ;
#258 = STYLED_ITEM ( 'NONE', ( #106 ), #200 ) ;
#259 = DIRECTION ( 'NONE',  ( 0.0000000000000000000, 1.000000000000000000, -0.0000000000000000000 ) ) ;
#260 = DIRECTION ( 'NONE',  ( 0.0000000000000000000, 0.0000000000000000000, 1.000000000000000000 ) ) ;
#261 = SURFACE_STYLE_FILL_AREA ( #250 ) ;
#262 = ADVANCED_FACE ( 'NONE', ( #292 ), #236, .T. ) ;
#263 = AXIS2_PLACEMENT_3D ( 'NONE', #22, #202, #126 ) ;
#264 = UNCERTAINTY_MEASURE_WITH_UNIT (LENGTH_MEASURE( 1.000000000000000100E-005 ), #213, 'distance_accuracy_value', 'NONE');
#265 = CIRCLE ( 'NONE', #215, 6.350000000000007600 ) ;
#266 = COLOUR_RGB ( '',1.000000000000000000, 1.000000000000000000, 1.000000000000000000 ) ;
#267 = EDGE_CURVE ( 'NONE', #232, #248, #99, .T. ) ;
#268 =( GEOMETRIC_REPRESENTATION_CONTEXT ( 3 ) GLOBAL_UNCERTAINTY_ASSIGNED_CONTEXT ( ( #20 ) ) GLOBAL_UNIT_ASSIGNED_CONTEXT ( ( #336, #168, #13 ) ) REPRESENTATION_CONTEXT ( 'NONE', 'WORKASPACE' ) );
#269 = PRESENTATION_LAYER_ASSIGNMENT (  '', '', ( #258 ) ) ;
#270 = UNCERTAINTY_MEASURE_WITH_UNIT (LENGTH_MEASURE( 1.000000000000000100E-005 ), #281, 'distance_accuracy_value', 'NONE');
#271 = CARTESIAN_POINT ( 'NONE',  ( 3.429815177118558500, 0.0000000000000000000, -1.608218485775471600E-015 ) ) ;
#272 = LINE ( 'NONE', #94, #191 ) ;
#273 = DIRECTION ( 'NONE',  ( -0.0000000000000000000, 1.000000000000000000, 1.224646799147353200E-016 ) ) ;
#274 = CARTESIAN_POINT ( 'NONE',  ( -0.5519199926577972300, 0.0000000000000000000, 6.350000000000001400 ) ) ;
#275 = DIRECTION ( 'NONE',  ( -0.0000000000000000000, -1.000000000000000000, -0.0000000000000000000 ) ) ;
#276 = DIRECTION ( 'NONE',  ( 0.0000000000000000000, -1.224646799147353200E-016, 1.000000000000000000 ) ) ;
#277 = AXIS2_PLACEMENT_3D ( 'NONE', #341, #220, #174 ) ;
#278 = DIRECTION ( 'NONE',  ( -1.000000000000000000, -0.0000000000000000000, -0.0000000000000000000 ) ) ;
#279 = DIRECTION ( 'NONE',  ( 0.0000000000000000000, 1.000000000000000000, 0.0000000000000000000 ) ) ;
#280 = FILL_AREA_STYLE_COLOUR ( '', #63 ) ;
#281 =( LENGTH_UNIT ( ) NAMED_UNIT ( * ) SI_UNIT ( .MILLI., .METRE. ) );
#282 = DIRECTION ( 'NONE',  ( -1.000000000000000000, -0.0000000000000000000, -0.0000000000000000000 ) ) ;
#283 = DIRECTION ( 'NONE',  ( -1.000000000000000000, -0.0000000000000000000, -0.0000000000000000000 ) ) ;
#284 = CARTESIAN_POINT ( 'NONE',  ( 4.175781711243269400, 0.0000000000000000000, 0.0000000000000000000 ) ) ;
#285 = EDGE_CURVE ( 'NONE', #248, #172, #162, .T. ) ;
#286 = AXIS2_PLACEMENT_3D ( 'NONE', #165, #275, #302 ) ;
#287 = ORIENTED_EDGE ( 'NONE', *, *, #95, .T. ) ;
#288 = MECHANICAL_DESIGN_GEOMETRIC_PRESENTATION_REPRESENTATION (  '', ( #258 ), #312 ) ;
#289 = CIRCLE ( 'NONE', #133, 91.79999999999999700 ) ;
#290 = CYLINDRICAL_SURFACE ( 'NONE', #229, 6.349999999999999600 ) ;
#291 = PRESENTATION_LAYER_ASSIGNMENT (  '', '', ( #317 ) ) ;
#292 = FACE_OUTER_BOUND ( 'NONE', #43, .T. ) ;
#293 = VERTEX_POINT ( 'NONE', #271 ) ;
#294 = CARTESIAN_POINT ( 'NONE',  ( 6.015169007899284100, 7.776507174585699100E-016, -6.350000000000005000 ) ) ;
#295 = ORIENTED_EDGE ( 'NONE', *, *, #227, .T. ) ;
#296 = CARTESIAN_POINT ( 'NONE',  ( -15.57018482288144100, 0.0000000000000000000, -2.714105966198940700E-016 ) ) ;
#297 = SPHERICAL_SURFACE ( 'NONE', #100, 22.50000000000000400 ) ;
#298 = ORIENTED_EDGE ( 'NONE', *, *, #77, .F. ) ;
#299 = CIRCLE ( 'NONE', #80, 6.349999999999996100 ) ;
#300 = CARTESIAN_POINT ( 'NONE',  ( -15.57018482288144100, 0.0000000000000000000, -2.714105966198940700E-016 ) ) ;
#301 = EDGE_CURVE ( 'NONE', #161, #307, #299, .T. ) ;
#302 = DIRECTION ( 'NONE',  ( 0.0000000000000000000, 0.0000000000000000000, -1.000000000000000000 ) ) ;
#303 = DIRECTION ( 'NONE',  ( 0.0000000000000000000, 1.000000000000000000, 0.0000000000000000000 ) ) ;
#304 = ORIENTED_EDGE ( 'NONE', *, *, #285, .F. ) ;
#305 = LINE ( 'NONE', #274, #228 ) ;
#306 =( NAMED_UNIT ( * ) SI_UNIT ( $, .STERADIAN. ) SOLID_ANGLE_UNIT ( ) );
#307 = VERTEX_POINT ( 'NONE', #45 ) ;
#308 = CARTESIAN_POINT ( 'NONE',  ( 6.015169007899280600, 0.0000000000000000000, 6.349999999999999600 ) ) ;
#309 = ORIENTED_EDGE ( 'NONE', *, *, #30, .T. ) ;
#310 = DIRECTION ( 'NONE',  ( 0.0000000000000000000, 0.0000000000000000000, 1.000000000000000000 ) ) ;
#311 = DIRECTION ( 'NONE',  ( 0.0000000000000000000, -1.000000000000000000, 0.0000000000000000000 ) ) ;
#312 =( GEOMETRIC_REPRESENTATION_CONTEXT ( 3 ) GLOBAL_UNCERTAINTY_ASSIGNED_CONTEXT ( ( #264 ) ) GLOBAL_UNIT_ASSIGNED_CONTEXT ( ( #213, #46, #192 ) ) REPRESENTATION_CONTEXT ( 'NONE', 'WORKASPACE' ) );
#313 = VECTOR ( 'NONE', #283, 1000.000000000000000 ) ;
#314 = ORIENTED_EDGE ( 'NONE', *, *, #326, .F. ) ;
#315 = VECTOR ( 'NONE', #135, 1000.000000000000000 ) ;
#316 = ORIENTED_EDGE ( 'NONE', *, *, #193, .T. ) ;
#317 = STYLED_ITEM ( 'NONE', ( #128 ), #188 ) ;
#318 = ADVANCED_FACE ( 'NONE', ( #155 ), #290, .T. ) ;
#319 = ORIENTED_EDGE ( 'NONE', *, *, #193, .F. ) ;
#320 = CLOSED_SHELL ( 'NONE', ( #101, #183, #27, #226, #130, #206 ) ) ;
#321 = SURFACE_STYLE_FILL_AREA ( #87 ) ;
#322 = ORIENTED_EDGE ( 'NONE', *, *, #5, .F. ) ;
#323 = PRODUCT ( '145027', '145027', '', ( #198 ) ) ;
#324 = ORIENTED_EDGE ( 'NONE', *, *, #340, .F. ) ;
#325 = ORIENTED_EDGE ( 'NONE', *, *, #227, .F. ) ;
#326 = EDGE_CURVE ( 'NONE', #245, #223, #85, .T. ) ;
#327 = STYLED_ITEM ( 'NONE', ( #131 ), #76 ) ;
#328 = UNCERTAINTY_MEASURE_WITH_UNIT (LENGTH_MEASURE( 1.000000000000000100E-005 ), #48, 'distance_accuracy_value', 'NONE');
#329 = CARTESIAN_POINT ( 'NONE',  ( 4.175781711243269400, -7.776507174585694100E-016, 6.350000000000001400 ) ) ;
#330 = AXIS2_PLACEMENT_3D ( 'NONE', #189, #6, #158 ) ;
#331 = DIRECTION ( 'NONE',  ( 0.0000000000000000000, 0.0000000000000000000, 1.000000000000000000 ) ) ;
#332 = COLOUR_RGB ( '',1.000000000000000000, 1.000000000000000000, 1.000000000000000000 ) ;
#333 = CARTESIAN_POINT ( 'NONE',  ( 6.015169007899282300, 0.0000000000000000000, 0.0000000000000000000 ) ) ;
#334 = DIRECTION ( 'NONE',  ( 0.0000000000000000000, 0.0000000000000000000, 1.000000000000000000 ) ) ;
#335 = AXIS2_PLACEMENT_3D ( 'NONE', #92, #282, #218 ) ;
#336 =( LENGTH_UNIT ( ) NAMED_UNIT ( * ) SI_UNIT ( .MILLI., .METRE. ) );
#337 = CARTESIAN_POINT ( 'NONE',  ( 6.015169007899280600, 0.0000000000000000000, 0.0000000000000000000 ) ) ;
#338 = CARTESIAN_POINT ( 'NONE',  ( 0.0000000000000000000, 0.0000000000000000000, 0.0000000000000000000 ) ) ;
#339 = DIRECTION ( 'NONE',  ( -1.000000000000000000, -0.0000000000000000000, -0.0000000000000000000 ) ) ;
#340 = EDGE_CURVE ( 'NONE', #157, #243, #26, .T. ) ;
#341 = CARTESIAN_POINT ( 'NONE',  ( 30.82981517711855400, 0.0000000000000000000, 6.954762905640236300E-017 ) ) ;
#342 = DIRECTION ( 'NONE',  ( 0.0000000000000000000, 0.0000000000000000000, 1.000000000000000000 ) ) ;
#343 = DIRECTION ( 'NONE',  ( 0.0000000000000000000, -1.000000000000000000, -1.224646799147353200E-016 ) ) ;
#344 = DIRECTION ( 'NONE',  ( -1.000000000000000000, -0.0000000000000000000, -0.0000000000000000000 ) ) ;
#345 = FACE_OUTER_BOUND ( 'NONE', #51, .T. ) ;
#346 = CARTESIAN_POINT ( 'NONE',  ( -15.57018482288144100, 0.0000000000000000000, -2.714105966198940700E-016 ) ) ;
#347 = ADVANCED_FACE ( 'NONE', ( #224 ), #214, .T. ) ;
ENDSEC;
END-ISO-10303-21;
