ISO-10303-21;
HEADER;
FILE_DESCRIPTION (( 'STEP AP214' ),
    '1' );
FILE_NAME ('145033.STEP',
    '2019-05-11T05:54:11',
    ( 'user' ),
    ( 'Î¢ÈíÖÐ¹ú' ),
    'SwSTEP 2.0',
    'SolidWorks 2016',
    '' );
FILE_SCHEMA (( 'AUTOMOTIVE_DESIGN' ));
ENDSEC;

DATA;
#1 = CYLINDRICAL_SURFACE ( 'NONE', #231, 8.000000000000000000 ) ;
#2 = EDGE_LOOP ( 'NONE', ( #217, #198, #3 ) ) ;
#3 = ORIENTED_EDGE ( 'NONE', *, *, #87, .F. ) ;
#4 = CIRCLE ( 'NONE', #85, 8.000000000000000000 ) ;
#5 = AXIS2_PLACEMENT_3D ( 'NONE', #260, #243, #157 ) ;
#6 = MECHANICAL_DESIGN_GEOMETRIC_PRESENTATION_REPRESENTATION (  '', ( #322 ), #29 ) ;
#7 =( GEOMETRIC_REPRESENTATION_CONTEXT ( 3 ) GLOBAL_UNCERTAINTY_ASSIGNED_CONTEXT ( ( #148 ) ) GLOBAL_UNIT_ASSIGNED_CONTEXT ( ( #15, #183, #340 ) ) REPRESENTATION_CONTEXT ( 'NONE', 'WORKASPACE' ) );
#8 = SPHERICAL_SURFACE ( 'NONE', #120, 31.88800000000000500 ) ;
#9 = CARTESIAN_POINT ( 'NONE',  ( 6.125043479573127700, 0.0000000000000000000, -2.710505431213761100E-017 ) ) ;
#10 =( NAMED_UNIT ( * ) PLANE_ANGLE_UNIT ( ) SI_UNIT ( $, .RADIAN. ) );
#11 = ORIENTED_EDGE ( 'NONE', *, *, #47, .T. ) ;
#12 = CARTESIAN_POINT ( 'NONE',  ( 28.01924590852678100, 0.0000000000000000000, 0.0000000000000000000 ) ) ;
#13 = EDGE_LOOP ( 'NONE', ( #127, #170, #58 ) ) ;
#14 = DIRECTION ( 'NONE',  ( 0.0000000000000000000, 0.0000000000000000000, 1.000000000000000000 ) ) ;
#15 =( LENGTH_UNIT ( ) NAMED_UNIT ( * ) SI_UNIT ( .MILLI., .METRE. ) );
#16 = CARTESIAN_POINT ( 'NONE',  ( 30.76953643492932500, 9.797174393178819700E-016, -7.999999999999992900 ) ) ;
#17 = CARTESIAN_POINT ( 'NONE',  ( 28.01924590852678800, 0.0000000000000000000, 0.0000000000000000000 ) ) ;
#18 = CIRCLE ( 'NONE', #250, 23.31000000000000600 ) ;
#19 = FACE_OUTER_BOUND ( 'NONE', #164, .T. ) ;
#20 = CARTESIAN_POINT ( 'NONE',  ( 30.76953643492932500, 0.0000000000000000000, 7.999999999999992900 ) ) ;
#21 =( NAMED_UNIT ( * ) SI_UNIT ( $, .STERADIAN. ) SOLID_ANGLE_UNIT ( ) );
#22 = VERTEX_POINT ( 'NONE', #209 ) ;
#23 = EDGE_LOOP ( 'NONE', ( #153, #11, #129, #286 ) ) ;
#24 = DIRECTION ( 'NONE',  ( 0.0000000000000000000, 0.0000000000000000000, 1.000000000000000000 ) ) ;
#25 = ORIENTED_EDGE ( 'NONE', *, *, #225, .T. ) ;
#26 = DIRECTION ( 'NONE',  ( 0.0000000000000000000, 0.0000000000000000000, -1.000000000000000000 ) ) ;
#27 = DIRECTION ( 'NONE',  ( -1.000000000000000000, -0.0000000000000000000, -0.0000000000000000000 ) ) ;
#28 = AXIS2_PLACEMENT_3D ( 'NONE', #156, #312, #133 ) ;
#29 =( GEOMETRIC_REPRESENTATION_CONTEXT ( 3 ) GLOBAL_UNCERTAINTY_ASSIGNED_CONTEXT ( ( #50 ) ) GLOBAL_UNIT_ASSIGNED_CONTEXT ( ( #207, #10, #177 ) ) REPRESENTATION_CONTEXT ( 'NONE', 'WORKASPACE' ) );
#30 = EDGE_CURVE ( 'NONE', #223, #22, #187, .T. ) ;
#31 = FACE_OUTER_BOUND ( 'NONE', #2, .T. ) ;
#32 = ORIENTED_EDGE ( 'NONE', *, *, #274, .T. ) ;
#33 = ORIENTED_EDGE ( 'NONE', *, *, #103, .F. ) ;
#34 = ORIENTED_EDGE ( 'NONE', *, *, #255, .F. ) ;
#35 = PRESENTATION_STYLE_ASSIGNMENT (( #43 ) ) ;
#36 = LINE ( 'NONE', #147, #324 ) ;
#37 = CARTESIAN_POINT ( 'NONE',  ( -9.702612178336682500, 0.0000000000000000000, 0.0000000000000000000 ) ) ;
#38 = ADVANCED_FACE ( 'NONE', ( #259 ), #210, .T. ) ;
#39 = CIRCLE ( 'NONE', #46, 23.31000000000000200 ) ;
#40 = ORIENTED_EDGE ( 'NONE', *, *, #304, .F. ) ;
#41 = CARTESIAN_POINT ( 'NONE',  ( 28.01924590852678800, 0.0000000000000000000, 7.999999999999994700 ) ) ;
#42 = ORIENTED_EDGE ( 'NONE', *, *, #240, .T. ) ;
#43 = SURFACE_STYLE_USAGE ( .BOTH. , #236 ) ;
#44 = DIRECTION ( 'NONE',  ( -1.000000000000000000, -0.0000000000000000000, -0.0000000000000000000 ) ) ;
#45 = AXIS2_PLACEMENT_3D ( 'NONE', #241, #44, #14 ) ;
#46 = AXIS2_PLACEMENT_3D ( 'NONE', #284, #96, #67 ) ;
#47 = EDGE_CURVE ( 'NONE', #297, #333, #347, .T. ) ;
#48 = DIRECTION ( 'NONE',  ( -1.000000000000000000, -0.0000000000000000000, -0.0000000000000000000 ) ) ;
#49 = SURFACE_SIDE_STYLE ('',( #144 ) ) ;
#50 = UNCERTAINTY_MEASURE_WITH_UNIT (LENGTH_MEASURE( 1.000000000000000100E-005 ), #207, 'distance_accuracy_value', 'NONE');
#51 = CIRCLE ( 'NONE', #60, 23.31000000000000200 ) ;
#52 = DIRECTION ( 'NONE',  ( -0.0000000000000000000, 1.000000000000000000, 1.224646799147353200E-016 ) ) ;
#53 =( LENGTH_UNIT ( ) NAMED_UNIT ( * ) SI_UNIT ( .MILLI., .METRE. ) );
#54 = EDGE_LOOP ( 'NONE', ( #34, #188, #203, #178 ) ) ;
#55 = CARTESIAN_POINT ( 'NONE',  ( 28.01924590852678100, 0.0000000000000000000, 0.0000000000000000000 ) ) ;
#56 = DIRECTION ( 'NONE',  ( 0.0000000000000000000, 0.0000000000000000000, 1.000000000000000000 ) ) ;
#57 = PRODUCT_DEFINITION_SHAPE ( 'NONE', 'NONE',  #88 ) ;
#58 = ORIENTED_EDGE ( 'NONE', *, *, #240, .F. ) ;
#59 = AXIS2_PLACEMENT_3D ( 'NONE', #182, #48, #208 ) ;
#60 = AXIS2_PLACEMENT_3D ( 'NONE', #9, #173, #332 ) ;
#61 = EDGE_CURVE ( 'NONE', #327, #223, #175, .T. ) ;
#62 = AXIS2_PLACEMENT_3D ( 'NONE', #313, #291, #104 ) ;
#63 = DIRECTION ( 'NONE',  ( -1.000000000000000000, -0.0000000000000000000, -0.0000000000000000000 ) ) ;
#64 = VERTEX_POINT ( 'NONE', #73 ) ;
#65 = CIRCLE ( 'NONE', #158, 23.31000000000000600 ) ;
#66 = PRESENTATION_STYLE_ASSIGNMENT (( #213 ) ) ;
#67 = DIRECTION ( 'NONE',  ( 0.0000000000000000000, -1.224646799147353200E-016, 1.000000000000000000 ) ) ;
#68 = ADVANCED_FACE ( 'NONE', ( #31 ), #110, .T. ) ;
#69 = FILL_AREA_STYLE ('',( #154 ) ) ;
#70 = EDGE_LOOP ( 'NONE', ( #32, #90, #334 ) ) ;
#71 = CARTESIAN_POINT ( 'NONE',  ( 28.01924590852678100, 9.797174393178825700E-016, -8.000000000000000000 ) ) ;
#72 = ORIENTED_EDGE ( 'NONE', *, *, #61, .T. ) ;
#73 = CARTESIAN_POINT ( 'NONE',  ( 28.01924590852678800, 9.797174393178819700E-016, -7.999999999999994700 ) ) ;
#74 = APPLICATION_CONTEXT ( 'automotive_design' ) ;
#75 = CARTESIAN_POINT ( 'NONE',  ( 57.52304347957312600, 0.0000000000000000000, -3.171987495286358100E-017 ) ) ;
#76 = APPLICATION_CONTEXT ( 'automotive_design' ) ;
#77 = DIRECTION ( 'NONE',  ( 0.0000000000000000000, 0.0000000000000000000, 1.000000000000000000 ) ) ;
#78 = FILL_AREA_STYLE_COLOUR ( '', #219 ) ;
#79 = CIRCLE ( 'NONE', #228, 8.000000000000000000 ) ;
#80 = DIRECTION ( 'NONE',  ( 0.0000000000000000000, 1.000000000000000000, 0.0000000000000000000 ) ) ;
#81 = CARTESIAN_POINT ( 'NONE',  ( 26.65486335828964900, 9.797174393178821700E-016, -7.999999999999996400 ) ) ;
#82 = DIRECTION ( 'NONE',  ( -1.000000000000000000, -0.0000000000000000000, -0.0000000000000000000 ) ) ;
#83 = DIRECTION ( 'NONE',  ( -1.000000000000000000, -0.0000000000000000000, -0.0000000000000000000 ) ) ;
#84 = ORIENTED_EDGE ( 'NONE', *, *, #141, .F. ) ;
#85 = AXIS2_PLACEMENT_3D ( 'NONE', #12, #179, #336 ) ;
#86 = AXIS2_PLACEMENT_3D ( 'NONE', #307, #128, #283 ) ;
#87 = EDGE_CURVE ( 'NONE', #97, #261, #4, .T. ) ;
#88 = PRODUCT_DEFINITION ( 'Î´Öª', '', #106, #200 ) ;
#89 = FACE_OUTER_BOUND ( 'NONE', #189, .T. ) ;
#90 = ORIENTED_EDGE ( 'NONE', *, *, #321, .T. ) ;
#91 = SPHERICAL_SURFACE ( 'NONE', #329, 23.31000000000000600 ) ;
#92 = VECTOR ( 'NONE', #82, 1000.000000000000000 ) ;
#93 = DIRECTION ( 'NONE',  ( 0.0000000000000000000, 0.0000000000000000000, 1.000000000000000000 ) ) ;
#94 = DIRECTION ( 'NONE',  ( 0.0000000000000000000, 0.0000000000000000000, 1.000000000000000000 ) ) ;
#95 = STYLED_ITEM ( 'NONE', ( #246 ), #264 ) ;
#96 = DIRECTION ( 'NONE',  ( -0.0000000000000000000, 1.000000000000000000, 1.224646799147353200E-016 ) ) ;
#97 = VERTEX_POINT ( 'NONE', #71 ) ;
#98 = DIRECTION ( 'NONE',  ( -0.0000000000000000000, 1.000000000000000000, 1.224646799147353200E-016 ) ) ;
#99 = ORIENTED_EDGE ( 'NONE', *, *, #47, .F. ) ;
#100 = DIRECTION ( 'NONE',  ( 0.0000000000000000000, 0.0000000000000000000, 1.000000000000000000 ) ) ;
#101 = AXIS2_PLACEMENT_3D ( 'NONE', #288, #290, #100 ) ;
#102 = AXIS2_PLACEMENT_3D ( 'NONE', #239, #130, #308 ) ;
#103 = EDGE_CURVE ( 'NONE', #252, #297, #146, .T. ) ;
#104 = DIRECTION ( 'NONE',  ( 1.000000000000000000, 0.0000000000000000000, 0.0000000000000000000 ) ) ;
#105 = DIRECTION ( 'NONE',  ( 0.0000000000000000000, 0.0000000000000000000, 1.000000000000000000 ) ) ;
#106 = PRODUCT_DEFINITION_FORMATION_WITH_SPECIFIED_SOURCE ( 'ÈÎºÎ', '', #268, .NOT_KNOWN. ) ;
#107 = APPLICATION_PROTOCOL_DEFINITION ( 'draft international standard', 'automotive_design', 1998, #76 ) ;
#108 = CARTESIAN_POINT ( 'NONE',  ( 6.125043479573127700, 0.0000000000000000000, -2.710505431213761100E-017 ) ) ;
#109 = CARTESIAN_POINT ( 'NONE',  ( -9.702612178336682500, 0.0000000000000000000, 8.000000000000000000 ) ) ;
#110 = SPHERICAL_SURFACE ( 'NONE', #101, 23.31000000000000200 ) ;
#111 = CIRCLE ( 'NONE', #86, 68.97499999999999400 ) ;
#112 = SPHERICAL_SURFACE ( 'NONE', #262, 68.97499999999999400 ) ;
#113 = ORIENTED_EDGE ( 'NONE', *, *, #337, .T. ) ;
#114 = CARTESIAN_POINT ( 'NONE',  ( -9.702612178336682500, 9.797174393178825700E-016, -8.000000000000000000 ) ) ;
#115 = CIRCLE ( 'NONE', #277, 31.88800000000000500 ) ;
#116 = CARTESIAN_POINT ( 'NONE',  ( 6.125043479573127700, 0.0000000000000000000, -2.710505431213761100E-017 ) ) ;
#117 = SPHERICAL_SURFACE ( 'NONE', #171, 68.97499999999999400 ) ;
#118 = MANIFOLD_SOLID_BREP ( 'Ðý×ª3', #310 ) ;
#119 = CIRCLE ( 'NONE', #139, 7.999999999999992900 ) ;
#120 = AXIS2_PLACEMENT_3D ( 'NONE', #292, #226, #56 ) ;
#121 = ORIENTED_EDGE ( 'NONE', *, *, #289, .F. ) ;
#122 = AXIS2_PLACEMENT_3D ( 'NONE', #285, #98, #263 ) ;
#123 = AXIS2_PLACEMENT_3D ( 'NONE', #204, #176, #94 ) ;
#124 = EDGE_CURVE ( 'NONE', #199, #97, #39, .T. ) ;
#125 = PRODUCT_RELATED_PRODUCT_CATEGORY ( 'part', '', ( #268 ) ) ;
#126 = CARTESIAN_POINT ( 'NONE',  ( 30.76953643492932500, 0.0000000000000000000, 0.0000000000000000000 ) ) ;
#127 = ORIENTED_EDGE ( 'NONE', *, *, #159, .F. ) ;
#128 = DIRECTION ( 'NONE',  ( 0.0000000000000000000, -1.000000000000000000, 0.0000000000000000000 ) ) ;
#129 = ORIENTED_EDGE ( 'NONE', *, *, #232, .T. ) ;
#130 = DIRECTION ( 'NONE',  ( -1.000000000000000000, -0.0000000000000000000, -0.0000000000000000000 ) ) ;
#131 = ADVANCED_FACE ( 'NONE', ( #186 ), #325, .T. ) ;
#132 = CIRCLE ( 'NONE', #296, 7.999999999999998200 ) ;
#133 = DIRECTION ( 'NONE',  ( 0.0000000000000000000, 0.0000000000000000000, 1.000000000000000000 ) ) ;
#134 =( NAMED_UNIT ( * ) SI_UNIT ( $, .STERADIAN. ) SOLID_ANGLE_UNIT ( ) );
#135 = CARTESIAN_POINT ( 'NONE',  ( 26.65486335828964900, 0.0000000000000000000, 0.0000000000000000000 ) ) ;
#136 = DIRECTION ( 'NONE',  ( -0.0000000000000000000, 1.000000000000000000, 1.224646799147353200E-016 ) ) ;
#137 = VERTEX_POINT ( 'NONE', #41 ) ;
#138 = AXIS2_PLACEMENT_3D ( 'NONE', #55, #251, #24 ) ;
#139 = AXIS2_PLACEMENT_3D ( 'NONE', #126, #280, #93 ) ;
#140 = FACE_OUTER_BOUND ( 'NONE', #319, .T. ) ;
#141 = EDGE_CURVE ( 'NONE', #252, #333, #111, .T. ) ;
#142 = ORIENTED_EDGE ( 'NONE', *, *, #141, .T. ) ;
#143 = FACE_OUTER_BOUND ( 'NONE', #70, .T. ) ;
#144 = SURFACE_STYLE_FILL_AREA ( #244 ) ;
#145 = EDGE_LOOP ( 'NONE', ( #42, #270, #287, #121 ) ) ;
#146 = CIRCLE ( 'NONE', #122, 68.97499999999999400 ) ;
#147 = CARTESIAN_POINT ( 'NONE',  ( -0.5519199926577972300, 9.797174393178821700E-016, -7.999999999999996400 ) ) ;
#148 = UNCERTAINTY_MEASURE_WITH_UNIT (LENGTH_MEASURE( 1.000000000000000100E-005 ), #15, 'distance_accuracy_value', 'NONE');
#149 = VECTOR ( 'NONE', #253, 1000.000000000000000 ) ;
#150 = ADVANCED_FACE ( 'NONE', ( #315 ), #258, .T. ) ;
#151 = CARTESIAN_POINT ( 'NONE',  ( -37.73995652042685800, 0.0000000000000000000, 0.0000000000000000000 ) ) ;
#152 = AXIS2_PLACEMENT_3D ( 'NONE', #345, #192, #224 ) ;
#153 = ORIENTED_EDGE ( 'NONE', *, *, #195, .F. ) ;
#154 = FILL_AREA_STYLE_COLOUR ( '', #155 ) ;
#155 = COLOUR_RGB ( '',1.000000000000000000, 1.000000000000000000, 1.000000000000000000 ) ;
#156 = CARTESIAN_POINT ( 'NONE',  ( 26.65486335828964900, 0.0000000000000000000, 0.0000000000000000000 ) ) ;
#157 = DIRECTION ( 'NONE',  ( 0.0000000000000000000, 0.0000000000000000000, -1.000000000000000000 ) ) ;
#158 = AXIS2_PLACEMENT_3D ( 'NONE', #116, #299, #26 ) ;
#159 = EDGE_CURVE ( 'NONE', #199, #261, #51, .T. ) ;
#160 = DIRECTION ( 'NONE',  ( -1.000000000000000000, -0.0000000000000000000, -0.0000000000000000000 ) ) ;
#161 = CIRCLE ( 'NONE', #138, 8.000000000000000000 ) ;
#162 = DIRECTION ( 'NONE',  ( 0.0000000000000000000, 0.0000000000000000000, 1.000000000000000000 ) ) ;
#163 = SURFACE_STYLE_USAGE ( .BOTH. , #273 ) ;
#164 = EDGE_LOOP ( 'NONE', ( #33, #142, #99 ) ) ;
#165 = CARTESIAN_POINT ( 'NONE',  ( 31.23504347957313600, 0.0000000000000000000, 4.223500648559434300E-015 ) ) ;
#166 = DIRECTION ( 'NONE',  ( 0.0000000000000000000, 0.0000000000000000000, 1.000000000000000000 ) ) ;
#167 = SURFACE_STYLE_FILL_AREA ( #248 ) ;
#168 = PRESENTATION_LAYER_ASSIGNMENT (  '', '', ( #95 ) ) ;
#169 = CLOSED_SHELL ( 'NONE', ( #150, #38, #235, #202, #205, #68 ) ) ;
#170 = ORIENTED_EDGE ( 'NONE', *, *, #124, .T. ) ;
#171 = AXIS2_PLACEMENT_3D ( 'NONE', #151, #306, #257 ) ;
#172 = EDGE_CURVE ( 'NONE', #333, #297, #119, .T. ) ;
#173 = DIRECTION ( 'NONE',  ( 0.0000000000000000000, -1.000000000000000000, 0.0000000000000000000 ) ) ;
#174 = ADVANCED_FACE ( 'NONE', ( #196 ), #117, .T. ) ;
#175 = CIRCLE ( 'NONE', #28, 8.000000000000000000 ) ;
#176 = DIRECTION ( 'NONE',  ( 0.0000000000000000000, 1.000000000000000000, 0.0000000000000000000 ) ) ;
#177 =( NAMED_UNIT ( * ) SI_UNIT ( $, .STERADIAN. ) SOLID_ANGLE_UNIT ( ) );
#178 = ORIENTED_EDGE ( 'NONE', *, *, #61, .F. ) ;
#179 = DIRECTION ( 'NONE',  ( -1.000000000000000000, -0.0000000000000000000, -0.0000000000000000000 ) ) ;
#180 = SPHERICAL_SURFACE ( 'NONE', #311, 23.31000000000000600 ) ;
#181 = SURFACE_STYLE_FILL_AREA ( #69 ) ;
#182 = CARTESIAN_POINT ( 'NONE',  ( -9.702612178336682500, 0.0000000000000000000, 0.0000000000000000000 ) ) ;
#183 =( NAMED_UNIT ( * ) PLANE_ANGLE_UNIT ( ) SI_UNIT ( $, .RADIAN. ) );
#184 = FACE_OUTER_BOUND ( 'NONE', #54, .T. ) ;
#185 = DIRECTION ( 'NONE',  ( -1.000000000000000000, -0.0000000000000000000, -0.0000000000000000000 ) ) ;
#186 = FACE_OUTER_BOUND ( 'NONE', #23, .T. ) ;
#187 = CIRCLE ( 'NONE', #5, 31.88800000000000500 ) ;
#188 = ORIENTED_EDGE ( 'NONE', *, *, #87, .T. ) ;
#189 = EDGE_LOOP ( 'NONE', ( #229, #249, #342, #303 ) ) ;
#190 = MECHANICAL_DESIGN_GEOMETRIC_PRESENTATION_REPRESENTATION (  '', ( #95 ), #206 ) ;
#191 = FILL_AREA_STYLE_COLOUR ( '', #256 ) ;
#192 = DIRECTION ( 'NONE',  ( -1.000000000000000000, -0.0000000000000000000, -0.0000000000000000000 ) ) ;
#193 = CARTESIAN_POINT ( 'NONE',  ( 28.01924590852678800, 0.0000000000000000000, 0.0000000000000000000 ) ) ;
#194 = AXIS2_PLACEMENT_3D ( 'NONE', #75, #233, #266 ) ;
#195 = EDGE_CURVE ( 'NONE', #297, #64, #36, .T. ) ;
#196 = FACE_OUTER_BOUND ( 'NONE', #237, .T. ) ;
#197 = VECTOR ( 'NONE', #294, 1000.000000000000000 ) ;
#198 = ORIENTED_EDGE ( 'NONE', *, *, #159, .T. ) ;
#199 = VERTEX_POINT ( 'NONE', #201 ) ;
#200 = PRODUCT_DEFINITION_CONTEXT ( 'detailed design', #74, 'design' ) ;
#201 = CARTESIAN_POINT ( 'NONE',  ( 29.43504347957312800, 0.0000000000000000000, 1.400220790094102600E-015 ) ) ;
#202 = ADVANCED_FACE ( 'NONE', ( #343 ), #218, .T. ) ;
#203 = ORIENTED_EDGE ( 'NONE', *, *, #289, .T. ) ;
#204 = CARTESIAN_POINT ( 'NONE',  ( 6.125043479573127700, 0.0000000000000000000, -2.710505431213761100E-017 ) ) ;
#205 = ADVANCED_FACE ( 'NONE', ( #184 ), #1, .T. ) ;
#206 =( GEOMETRIC_REPRESENTATION_CONTEXT ( 3 ) GLOBAL_UNCERTAINTY_ASSIGNED_CONTEXT ( ( #330 ) ) GLOBAL_UNIT_ASSIGNED_CONTEXT ( ( #53, #318, #21 ) ) REPRESENTATION_CONTEXT ( 'NONE', 'WORKASPACE' ) );
#207 =( LENGTH_UNIT ( ) NAMED_UNIT ( * ) SI_UNIT ( .MILLI., .METRE. ) );
#208 = DIRECTION ( 'NONE',  ( 0.0000000000000000000, 0.0000000000000000000, 1.000000000000000000 ) ) ;
#209 = CARTESIAN_POINT ( 'NONE',  ( 25.63504347957312000, 0.0000000000000000000, 1.920856981607676400E-015 ) ) ;
#210 = CYLINDRICAL_SURFACE ( 'NONE', #59, 8.000000000000000000 ) ;
#211 = AXIS2_PLACEMENT_3D ( 'NONE', #193, #27, #166 ) ;
#212 = EDGE_CURVE ( 'NONE', #137, #64, #281, .T. ) ;
#213 = SURFACE_STYLE_USAGE ( .BOTH. , #49 ) ;
#214 = CARTESIAN_POINT ( 'NONE',  ( 26.65486335828964900, 0.0000000000000000000, 7.999999999999996400 ) ) ;
#215 =( LENGTH_UNIT ( ) NAMED_UNIT ( * ) SI_UNIT ( .MILLI., .METRE. ) );
#216 = ADVANCED_BREP_SHAPE_REPRESENTATION ( '145033', ( #264, #118, #62 ), #344 ) ;
#217 = ORIENTED_EDGE ( 'NONE', *, *, #124, .F. ) ;
#218 = SPHERICAL_SURFACE ( 'NONE', #194, 31.88800000000000500 ) ;
#219 = COLOUR_RGB ( '',1.000000000000000000, 1.000000000000000000, 1.000000000000000000 ) ;
#220 = DIRECTION ( 'NONE',  ( 0.0000000000000000000, -1.224646799147353200E-016, 1.000000000000000000 ) ) ;
#221 = CARTESIAN_POINT ( 'NONE',  ( -37.73995652042685800, 0.0000000000000000000, 0.0000000000000000000 ) ) ;
#222 = ORIENTED_EDGE ( 'NONE', *, *, #321, .F. ) ;
#223 = VERTEX_POINT ( 'NONE', #214 ) ;
#224 = DIRECTION ( 'NONE',  ( 0.0000000000000000000, 0.0000000000000000000, 1.000000000000000000 ) ) ;
#225 = EDGE_CURVE ( 'NONE', #230, #137, #65, .T. ) ;
#226 = DIRECTION ( 'NONE',  ( 0.0000000000000000000, 1.000000000000000000, 0.0000000000000000000 ) ) ;
#227 = LINE ( 'NONE', #320, #149 ) ;
#228 = AXIS2_PLACEMENT_3D ( 'NONE', #135, #83, #77 ) ;
#229 = ORIENTED_EDGE ( 'NONE', *, *, #172, .T. ) ;
#230 = VERTEX_POINT ( 'NONE', #269 ) ;
#231 = AXIS2_PLACEMENT_3D ( 'NONE', #37, #160, #105 ) ;
#232 = EDGE_CURVE ( 'NONE', #333, #137, #227, .T. ) ;
#233 = DIRECTION ( 'NONE',  ( 0.0000000000000000000, 1.000000000000000000, 0.0000000000000000000 ) ) ;
#234 = LINE ( 'NONE', #114, #92 ) ;
#235 = ADVANCED_FACE ( 'NONE', ( #143 ), #8, .T. ) ;
#236 = SURFACE_SIDE_STYLE ('',( #181 ) ) ;
#237 = EDGE_LOOP ( 'NONE', ( #84, #309, #271 ) ) ;
#238 = ADVANCED_FACE ( 'NONE', ( #89 ), #300, .T. ) ;
#239 = CARTESIAN_POINT ( 'NONE',  ( -0.5519199926577972300, 0.0000000000000000000, 0.0000000000000000000 ) ) ;
#240 = EDGE_CURVE ( 'NONE', #261, #97, #161, .T. ) ;
#241 = CARTESIAN_POINT ( 'NONE',  ( 30.76953643492932500, 0.0000000000000000000, 0.0000000000000000000 ) ) ;
#242 = APPLICATION_PROTOCOL_DEFINITION ( 'draft international standard', 'automotive_design', 1998, #74 ) ;
#243 = DIRECTION ( 'NONE',  ( 0.0000000000000000000, -1.000000000000000000, 0.0000000000000000000 ) ) ;
#244 = FILL_AREA_STYLE ('',( #78 ) ) ;
#245 = DIRECTION ( 'NONE',  ( 0.0000000000000000000, 0.0000000000000000000, 1.000000000000000000 ) ) ;
#246 = PRESENTATION_STYLE_ASSIGNMENT (( #163 ) ) ;
#247 = CARTESIAN_POINT ( 'NONE',  ( 6.125043479573127700, 0.0000000000000000000, -2.710505431213761100E-017 ) ) ;
#248 = FILL_AREA_STYLE ('',( #191 ) ) ;
#249 = ORIENTED_EDGE ( 'NONE', *, *, #195, .T. ) ;
#250 = AXIS2_PLACEMENT_3D ( 'NONE', #247, #52, #220 ) ;
#251 = DIRECTION ( 'NONE',  ( -1.000000000000000000, -0.0000000000000000000, -0.0000000000000000000 ) ) ;
#252 = VERTEX_POINT ( 'NONE', #165 ) ;
#253 = DIRECTION ( 'NONE',  ( -1.000000000000000000, -0.0000000000000000000, -0.0000000000000000000 ) ) ;
#254 = ORIENTED_EDGE ( 'NONE', *, *, #212, .T. ) ;
#255 = EDGE_CURVE ( 'NONE', #97, #327, #234, .T. ) ;
#256 = COLOUR_RGB ( '',1.000000000000000000, 1.000000000000000000, 1.000000000000000000 ) ;
#257 = DIRECTION ( 'NONE',  ( 0.0000000000000000000, 0.0000000000000000000, 1.000000000000000000 ) ) ;
#258 = SPHERICAL_SURFACE ( 'NONE', #123, 23.31000000000000200 ) ;
#259 = FACE_OUTER_BOUND ( 'NONE', #145, .T. ) ;
#260 = CARTESIAN_POINT ( 'NONE',  ( 57.52304347957312600, 0.0000000000000000000, -3.171987495286358100E-017 ) ) ;
#261 = VERTEX_POINT ( 'NONE', #298 ) ;
#262 = AXIS2_PLACEMENT_3D ( 'NONE', #221, #317, #245 ) ;
#263 = DIRECTION ( 'NONE',  ( 0.0000000000000000000, -1.224646799147353200E-016, 1.000000000000000000 ) ) ;
#264 = MANIFOLD_SOLID_BREP ( 'Ðý×ª1', #169 ) ;
#265 = PRODUCT_CONTEXT ( 'NONE', #76, 'mechanical' ) ;
#266 = DIRECTION ( 'NONE',  ( 0.0000000000000000000, 0.0000000000000000000, 1.000000000000000000 ) ) ;
#267 = CARTESIAN_POINT ( 'NONE',  ( 6.125043479573127700, 0.0000000000000000000, -2.710505431213761100E-017 ) ) ;
#268 = PRODUCT ( '145033', '145033', '', ( #265 ) ) ;
#269 = CARTESIAN_POINT ( 'NONE',  ( 29.43504347957313200, 0.0000000000000000000, 1.400220790094102800E-015 ) ) ;
#270 = ORIENTED_EDGE ( 'NONE', *, *, #255, .T. ) ;
#271 = ORIENTED_EDGE ( 'NONE', *, *, #172, .F. ) ;
#272 = DIRECTION ( 'NONE',  ( 0.0000000000000000000, 1.000000000000000000, 0.0000000000000000000 ) ) ;
#273 = SURFACE_SIDE_STYLE ('',( #167 ) ) ;
#274 = EDGE_CURVE ( 'NONE', #223, #327, #79, .T. ) ;
#275 = UNCERTAINTY_MEASURE_WITH_UNIT (LENGTH_MEASURE( 1.000000000000000100E-005 ), #215, 'distance_accuracy_value', 'NONE');
#276 = ORIENTED_EDGE ( 'NONE', *, *, #304, .T. ) ;
#277 = AXIS2_PLACEMENT_3D ( 'NONE', #316, #136, #295 ) ;
#278 = EDGE_LOOP ( 'NONE', ( #222, #72, #328 ) ) ;
#279 = FACE_OUTER_BOUND ( 'NONE', #346, .T. ) ;
#280 = DIRECTION ( 'NONE',  ( -1.000000000000000000, -0.0000000000000000000, -0.0000000000000000000 ) ) ;
#281 = CIRCLE ( 'NONE', #211, 7.999999999999998200 ) ;
#282 = ADVANCED_FACE ( 'NONE', ( #19 ), #112, .T. ) ;
#283 = DIRECTION ( 'NONE',  ( 0.0000000000000000000, 0.0000000000000000000, -1.000000000000000000 ) ) ;
#284 = CARTESIAN_POINT ( 'NONE',  ( 6.125043479573127700, 0.0000000000000000000, -2.710505431213761100E-017 ) ) ;
#285 = CARTESIAN_POINT ( 'NONE',  ( -37.73995652042685800, 0.0000000000000000000, 0.0000000000000000000 ) ) ;
#286 = ORIENTED_EDGE ( 'NONE', *, *, #337, .F. ) ;
#287 = ORIENTED_EDGE ( 'NONE', *, *, #274, .F. ) ;
#288 = CARTESIAN_POINT ( 'NONE',  ( 6.125043479573127700, 0.0000000000000000000, -2.710505431213761100E-017 ) ) ;
#289 = EDGE_CURVE ( 'NONE', #261, #223, #326, .T. ) ;
#290 = DIRECTION ( 'NONE',  ( 0.0000000000000000000, 1.000000000000000000, 0.0000000000000000000 ) ) ;
#291 = DIRECTION ( 'NONE',  ( 0.0000000000000000000, 0.0000000000000000000, 1.000000000000000000 ) ) ;
#292 = CARTESIAN_POINT ( 'NONE',  ( 57.52304347957312600, 0.0000000000000000000, -3.171987495286358100E-017 ) ) ;
#293 = DIRECTION ( 'NONE',  ( 0.0000000000000000000, 0.0000000000000000000, 1.000000000000000000 ) ) ;
#294 = DIRECTION ( 'NONE',  ( -1.000000000000000000, -0.0000000000000000000, -0.0000000000000000000 ) ) ;
#295 = DIRECTION ( 'NONE',  ( 0.0000000000000000000, -1.224646799147353200E-016, 1.000000000000000000 ) ) ;
#296 = AXIS2_PLACEMENT_3D ( 'NONE', #17, #185, #341 ) ;
#297 = VERTEX_POINT ( 'NONE', #16 ) ;
#298 = CARTESIAN_POINT ( 'NONE',  ( 28.01924590852678100, 0.0000000000000000000, 8.000000000000000000 ) ) ;
#299 = DIRECTION ( 'NONE',  ( 0.0000000000000000000, -1.000000000000000000, 0.0000000000000000000 ) ) ;
#300 = CYLINDRICAL_SURFACE ( 'NONE', #152, 7.999999999999996400 ) ;
#301 = SHAPE_DEFINITION_REPRESENTATION ( #57, #216 ) ;
#302 = ORIENTED_EDGE ( 'NONE', *, *, #225, .F. ) ;
#303 = ORIENTED_EDGE ( 'NONE', *, *, #232, .F. ) ;
#304 = EDGE_CURVE ( 'NONE', #230, #64, #18, .T. ) ;
#305 = STYLED_ITEM ( 'NONE', ( #66 ), #216 ) ;
#306 = DIRECTION ( 'NONE',  ( 0.0000000000000000000, 1.000000000000000000, 0.0000000000000000000 ) ) ;
#307 = CARTESIAN_POINT ( 'NONE',  ( -37.73995652042685800, 0.0000000000000000000, 0.0000000000000000000 ) ) ;
#308 = DIRECTION ( 'NONE',  ( 0.0000000000000000000, 0.0000000000000000000, 1.000000000000000000 ) ) ;
#309 = ORIENTED_EDGE ( 'NONE', *, *, #103, .T. ) ;
#310 = CLOSED_SHELL ( 'NONE', ( #174, #238, #331, #335, #131, #282 ) ) ;
#311 = AXIS2_PLACEMENT_3D ( 'NONE', #267, #272, #162 ) ;
#312 = DIRECTION ( 'NONE',  ( -1.000000000000000000, -0.0000000000000000000, -0.0000000000000000000 ) ) ;
#313 = CARTESIAN_POINT ( 'NONE',  ( 0.0000000000000000000, 0.0000000000000000000, 0.0000000000000000000 ) ) ;
#314 =( NAMED_UNIT ( * ) PLANE_ANGLE_UNIT ( ) SI_UNIT ( $, .RADIAN. ) );
#315 = FACE_OUTER_BOUND ( 'NONE', #13, .T. ) ;
#316 = CARTESIAN_POINT ( 'NONE',  ( 57.52304347957312600, 0.0000000000000000000, -3.171987495286358100E-017 ) ) ;
#317 = DIRECTION ( 'NONE',  ( 0.0000000000000000000, 1.000000000000000000, 0.0000000000000000000 ) ) ;
#318 =( NAMED_UNIT ( * ) PLANE_ANGLE_UNIT ( ) SI_UNIT ( $, .RADIAN. ) );
#319 = EDGE_LOOP ( 'NONE', ( #302, #276, #113 ) ) ;
#320 = CARTESIAN_POINT ( 'NONE',  ( -0.5519199926577972300, 0.0000000000000000000, 7.999999999999996400 ) ) ;
#321 = EDGE_CURVE ( 'NONE', #327, #22, #115, .T. ) ;
#322 = STYLED_ITEM ( 'NONE', ( #35 ), #118 ) ;
#323 = PRESENTATION_LAYER_ASSIGNMENT (  '', '', ( #305 ) ) ;
#324 = VECTOR ( 'NONE', #63, 1000.000000000000000 ) ;
#325 = CYLINDRICAL_SURFACE ( 'NONE', #102, 7.999999999999996400 ) ;
#326 = LINE ( 'NONE', #109, #197 ) ;
#327 = VERTEX_POINT ( 'NONE', #81 ) ;
#328 = ORIENTED_EDGE ( 'NONE', *, *, #30, .T. ) ;
#329 = AXIS2_PLACEMENT_3D ( 'NONE', #108, #80, #293 ) ;
#330 = UNCERTAINTY_MEASURE_WITH_UNIT (LENGTH_MEASURE( 1.000000000000000100E-005 ), #53, 'distance_accuracy_value', 'NONE');
#331 = ADVANCED_FACE ( 'NONE', ( #140 ), #180, .F. ) ;
#332 = DIRECTION ( 'NONE',  ( 0.0000000000000000000, 0.0000000000000000000, -1.000000000000000000 ) ) ;
#333 = VERTEX_POINT ( 'NONE', #20 ) ;
#334 = ORIENTED_EDGE ( 'NONE', *, *, #30, .F. ) ;
#335 = ADVANCED_FACE ( 'NONE', ( #279 ), #91, .F. ) ;
#336 = DIRECTION ( 'NONE',  ( 0.0000000000000000000, 0.0000000000000000000, 1.000000000000000000 ) ) ;
#337 = EDGE_CURVE ( 'NONE', #64, #137, #132, .T. ) ;
#338 = PRESENTATION_LAYER_ASSIGNMENT (  '', '', ( #322 ) ) ;
#339 = MECHANICAL_DESIGN_GEOMETRIC_PRESENTATION_REPRESENTATION (  '', ( #305 ), #7 ) ;
#340 =( NAMED_UNIT ( * ) SI_UNIT ( $, .STERADIAN. ) SOLID_ANGLE_UNIT ( ) );
#341 = DIRECTION ( 'NONE',  ( 0.0000000000000000000, 0.0000000000000000000, 1.000000000000000000 ) ) ;
#342 = ORIENTED_EDGE ( 'NONE', *, *, #212, .F. ) ;
#343 = FACE_OUTER_BOUND ( 'NONE', #278, .T. ) ;
#344 =( GEOMETRIC_REPRESENTATION_CONTEXT ( 3 ) GLOBAL_UNCERTAINTY_ASSIGNED_CONTEXT ( ( #275 ) ) GLOBAL_UNIT_ASSIGNED_CONTEXT ( ( #215, #314, #134 ) ) REPRESENTATION_CONTEXT ( 'NONE', 'WORKASPACE' ) );
#345 = CARTESIAN_POINT ( 'NONE',  ( -0.5519199926577972300, 0.0000000000000000000, 0.0000000000000000000 ) ) ;
#346 = EDGE_LOOP ( 'NONE', ( #40, #25, #254 ) ) ;
#347 = CIRCLE ( 'NONE', #45, 7.999999999999992900 ) ;
ENDSEC;
END-ISO-10303-21;
