ISO-10303-21;
HEADER;
FILE_DESCRIPTION (( 'STEP AP214' ),
    '1' );
FILE_NAME ('145043.STEP',
    '2019-05-12T05:46:32',
    ( 'user' ),
    ( 'Î¢ÈíÖÐ¹ú' ),
    'SwSTEP 2.0',
    'SolidWorks 2016',
    '' );
FILE_SCHEMA (( 'AUTOMOTIVE_DESIGN' ));
ENDSEC;

DATA;
#1 =( GEOMETRIC_REPRESENTATION_CONTEXT ( 3 ) GLOBAL_UNCERTAINTY_ASSIGNED_CONTEXT ( ( #225 ) ) GLOBAL_UNIT_ASSIGNED_CONTEXT ( ( #329, #258, #256 ) ) REPRESENTATION_CONTEXT ( 'NONE', 'WORKASPACE' ) );
#2 = ADVANCED_FACE ( 'NONE', ( #137 ), #71, .T. ) ;
#3 = CIRCLE ( 'NONE', #193, 12.50000000000001400 ) ;
#4 = DIRECTION ( 'NONE',  ( 0.0000000000000000000, 0.0000000000000000000, 1.000000000000000000 ) ) ;
#5 = AXIS2_PLACEMENT_3D ( 'NONE', #337, #85, #44 ) ;
#6 = VERTEX_POINT ( 'NONE', #179 ) ;
#7 = DIRECTION ( 'NONE',  ( 0.0000000000000000000, -1.224646799147353200E-016, 1.000000000000000000 ) ) ;
#8 = DIRECTION ( 'NONE',  ( -1.000000000000000000, -0.0000000000000000000, -0.0000000000000000000 ) ) ;
#9 = CARTESIAN_POINT ( 'NONE',  ( -0.5519199926577972300, 0.0000000000000000000, 0.0000000000000000000 ) ) ;
#10 = CIRCLE ( 'NONE', #227, 12.50000000000000200 ) ;
#11 = DIRECTION ( 'NONE',  ( 0.0000000000000000000, 0.0000000000000000000, 1.000000000000000000 ) ) ;
#12 = MECHANICAL_DESIGN_GEOMETRIC_PRESENTATION_REPRESENTATION (  '', ( #152 ), #248 ) ;
#13 =( NAMED_UNIT ( * ) SI_UNIT ( $, .STERADIAN. ) SOLID_ANGLE_UNIT ( ) );
#14 = CARTESIAN_POINT ( 'NONE',  ( -105.9513310264252700, 0.0000000000000000000, 0.0000000000000000000 ) ) ;
#15 = ORIENTED_EDGE ( 'NONE', *, *, #295, .F. ) ;
#16 = DIRECTION ( 'NONE',  ( 0.0000000000000000000, 0.0000000000000000000, 1.000000000000000000 ) ) ;
#17 = SURFACE_STYLE_FILL_AREA ( #211 ) ;
#18 = PRODUCT ( '145043', '145043', '', ( #75 ) ) ;
#19 = ORIENTED_EDGE ( 'NONE', *, *, #295, .T. ) ;
#20 = PRODUCT_DEFINITION_CONTEXT ( 'detailed design', #253, 'design' ) ;
#21 = CARTESIAN_POINT ( 'NONE',  ( -9.702612178336682500, 0.0000000000000000000, 0.0000000000000000000 ) ) ;
#22 = ORIENTED_EDGE ( 'NONE', *, *, #61, .F. ) ;
#23 = CARTESIAN_POINT ( 'NONE',  ( 72.50757041029201800, 1.530808498934191900E-015, -12.50000000000000400 ) ) ;
#24 = SURFACE_STYLE_FILL_AREA ( #153 ) ;
#25 = ORIENTED_EDGE ( 'NONE', *, *, #244, .T. ) ;
#26 = DIRECTION ( 'NONE',  ( 0.0000000000000000000, 1.000000000000000000, 0.0000000000000000000 ) ) ;
#27 = CYLINDRICAL_SURFACE ( 'NONE', #200, 12.50000000000000400 ) ;
#28 = VERTEX_POINT ( 'NONE', #162 ) ;
#29 = MANIFOLD_SOLID_BREP ( 'Ðý×ª1', #170 ) ;
#30 =( GEOMETRIC_REPRESENTATION_CONTEXT ( 3 ) GLOBAL_UNCERTAINTY_ASSIGNED_CONTEXT ( ( #284 ) ) GLOBAL_UNIT_ASSIGNED_CONTEXT ( ( #78, #326, #312 ) ) REPRESENTATION_CONTEXT ( 'NONE', 'WORKASPACE' ) );
#31 = APPLICATION_CONTEXT ( 'automotive_design' ) ;
#32 = ORIENTED_EDGE ( 'NONE', *, *, #332, .T. ) ;
#33 = EDGE_CURVE ( 'NONE', #236, #229, #223, .T. ) ;
#34 = ORIENTED_EDGE ( 'NONE', *, *, #33, .T. ) ;
#35 = DIRECTION ( 'NONE',  ( -1.000000000000000000, -0.0000000000000000000, -0.0000000000000000000 ) ) ;
#36 = CARTESIAN_POINT ( 'NONE',  ( -9.702612178336682500, 0.0000000000000000000, 12.50000000000000000 ) ) ;
#37 = PRESENTATION_LAYER_ASSIGNMENT (  '', '', ( #104 ) ) ;
#38 = DIRECTION ( 'NONE',  ( -1.000000000000000000, -0.0000000000000000000, -0.0000000000000000000 ) ) ;
#39 = CARTESIAN_POINT ( 'NONE',  ( 75.41742703570628200, 0.0000000000000000000, 0.0000000000000000000 ) ) ;
#40 = EDGE_CURVE ( 'NONE', #341, #335, #239, .T. ) ;
#41 = CARTESIAN_POINT ( 'NONE',  ( -105.9513310264252700, 0.0000000000000000000, 0.0000000000000000000 ) ) ;
#42 = DIRECTION ( 'NONE',  ( 0.0000000000000000000, 0.0000000000000000000, 1.000000000000000000 ) ) ;
#43 = EDGE_LOOP ( 'NONE', ( #142, #19, #303 ) ) ;
#44 = DIRECTION ( 'NONE',  ( 0.0000000000000000000, 0.0000000000000000000, -1.000000000000000000 ) ) ;
#45 = DIRECTION ( 'NONE',  ( 0.0000000000000000000, 0.0000000000000000000, 1.000000000000000000 ) ) ;
#46 = DIRECTION ( 'NONE',  ( -1.000000000000000000, -0.0000000000000000000, -0.0000000000000000000 ) ) ;
#47 = PRODUCT_DEFINITION_FORMATION_WITH_SPECIFIED_SOURCE ( 'ÈÎºÎ', '', #18, .NOT_KNOWN. ) ;
#48 = DIRECTION ( 'NONE',  ( -1.000000000000000000, -0.0000000000000000000, -0.0000000000000000000 ) ) ;
#49 = PRESENTATION_STYLE_ASSIGNMENT (( #311 ) ) ;
#50 = CARTESIAN_POINT ( 'NONE',  ( 72.50757041029201800, 0.0000000000000000000, 0.0000000000000000000 ) ) ;
#51 = ORIENTED_EDGE ( 'NONE', *, *, #314, .F. ) ;
#52 = DIRECTION ( 'NONE',  ( -1.000000000000000000, -0.0000000000000000000, -0.0000000000000000000 ) ) ;
#53 = CARTESIAN_POINT ( 'NONE',  ( -9.702612178336682500, 1.530808498934191500E-015, -12.50000000000000000 ) ) ;
#54 = SHAPE_DEFINITION_REPRESENTATION ( #313, #262 ) ;
#55 = CARTESIAN_POINT ( 'NONE',  ( 14.87966897357473400, 0.0000000000000000000, 1.355252715606880500E-017 ) ) ;
#56 = DIRECTION ( 'NONE',  ( 0.0000000000000000000, 1.000000000000000000, 0.0000000000000000000 ) ) ;
#57 = CARTESIAN_POINT ( 'NONE',  ( 148.4836689735747400, 0.0000000000000000000, 3.691006874329670300E-016 ) ) ;
#58 = AXIS2_PLACEMENT_3D ( 'NONE', #323, #52, #133 ) ;
#59 = ORIENTED_EDGE ( 'NONE', *, *, #327, .T. ) ;
#60 = EDGE_CURVE ( 'NONE', #242, #236, #146, .T. ) ;
#61 = EDGE_CURVE ( 'NONE', #6, #271, #192, .T. ) ;
#62 = DIRECTION ( 'NONE',  ( 0.0000000000000000000, 0.0000000000000000000, 1.000000000000000000 ) ) ;
#63 = AXIS2_PLACEMENT_3D ( 'NONE', #89, #186, #68 ) ;
#64 = ORIENTED_EDGE ( 'NONE', *, *, #314, .T. ) ;
#65 = ORIENTED_EDGE ( 'NONE', *, *, #231, .T. ) ;
#66 =( LENGTH_UNIT ( ) NAMED_UNIT ( * ) SI_UNIT ( .MILLI., .METRE. ) );
#67 = AXIS2_PLACEMENT_3D ( 'NONE', #272, #269, #240 ) ;
#68 = DIRECTION ( 'NONE',  ( 1.000000000000000000, 0.0000000000000000000, 0.0000000000000000000 ) ) ;
#69 = CARTESIAN_POINT ( 'NONE',  ( 75.41742703570628200, 1.530808498934191100E-015, -12.49999999999999500 ) ) ;
#70 = AXIS2_PLACEMENT_3D ( 'NONE', #9, #79, #285 ) ;
#71 = SPHERICAL_SURFACE ( 'NONE', #215, 58.96800000000001800 ) ;
#72 = VECTOR ( 'NONE', #282, 1000.000000000000000 ) ;
#73 = ORIENTED_EDGE ( 'NONE', *, *, #252, .F. ) ;
#74 = ORIENTED_EDGE ( 'NONE', *, *, #180, .T. ) ;
#75 = PRODUCT_CONTEXT ( 'NONE', #31, 'mechanical' ) ;
#76 = DIRECTION ( 'NONE',  ( 0.0000000000000000000, 0.0000000000000000000, 1.000000000000000000 ) ) ;
#77 = FACE_OUTER_BOUND ( 'NONE', #112, .T. ) ;
#78 =( LENGTH_UNIT ( ) NAMED_UNIT ( * ) SI_UNIT ( .MILLI., .METRE. ) );
#79 = DIRECTION ( 'NONE',  ( -1.000000000000000000, -0.0000000000000000000, -0.0000000000000000000 ) ) ;
#80 = VERTEX_POINT ( 'NONE', #23 ) ;
#81 = LINE ( 'NONE', #36, #138 ) ;
#82 = ORIENTED_EDGE ( 'NONE', *, *, #209, .F. ) ;
#83 = AXIS2_PLACEMENT_3D ( 'NONE', #235, #183, #11 ) ;
#84 = CARTESIAN_POINT ( 'NONE',  ( 14.87966897357473400, 0.0000000000000000000, 1.355252715606880500E-017 ) ) ;
#85 = DIRECTION ( 'NONE',  ( 0.0000000000000000000, -1.000000000000000000, 0.0000000000000000000 ) ) ;
#86 = SURFACE_SIDE_STYLE ('',( #119 ) ) ;
#87 = EDGE_CURVE ( 'NONE', #229, #236, #129, .T. ) ;
#88 = EDGE_LOOP ( 'NONE', ( #319, #298, #64, #315 ) ) ;
#89 = CARTESIAN_POINT ( 'NONE',  ( 0.0000000000000000000, 0.0000000000000000000, 0.0000000000000000000 ) ) ;
#90 = FILL_AREA_STYLE_COLOUR ( '', #154 ) ;
#91 = CIRCLE ( 'NONE', #309, 12.50000000000000000 ) ;
#92 = AXIS2_PLACEMENT_3D ( 'NONE', #167, #102, #122 ) ;
#93 = CYLINDRICAL_SURFACE ( 'NONE', #70, 12.50000000000000400 ) ;
#94 = CARTESIAN_POINT ( 'NONE',  ( 148.4836689735747400, 0.0000000000000000000, 3.691006874329670300E-016 ) ) ;
#95 = DIRECTION ( 'NONE',  ( -1.000000000000000000, -0.0000000000000000000, -0.0000000000000000000 ) ) ;
#96 = SPHERICAL_SURFACE ( 'NONE', #134, 181.7990000000000100 ) ;
#97 = DIRECTION ( 'NONE',  ( 0.0000000000000000000, 0.0000000000000000000, 1.000000000000000000 ) ) ;
#98 = ORIENTED_EDGE ( 'NONE', *, *, #190, .T. ) ;
#99 = AXIS2_PLACEMENT_3D ( 'NONE', #212, #268, #228 ) ;
#100 = ADVANCED_FACE ( 'NONE', ( #201 ), #233, .T. ) ;
#101 = ORIENTED_EDGE ( 'NONE', *, *, #301, .T. ) ;
#102 = DIRECTION ( 'NONE',  ( -0.0000000000000000000, 1.000000000000000000, 1.224646799147353200E-016 ) ) ;
#103 = CIRCLE ( 'NONE', #92, 58.96800000000001800 ) ;
#104 = STYLED_ITEM ( 'NONE', ( #317 ), #29 ) ;
#105 = CARTESIAN_POINT ( 'NONE',  ( 71.11088709260579300, 0.0000000000000000000, 0.0000000000000000000 ) ) ;
#106 = EDGE_LOOP ( 'NONE', ( #338, #259, #159 ) ) ;
#107 = EDGE_CURVE ( 'NONE', #335, #341, #91, .T. ) ;
#108 = DIRECTION ( 'NONE',  ( -0.0000000000000000000, 1.000000000000000000, 1.224646799147353200E-016 ) ) ;
#109 = CARTESIAN_POINT ( 'NONE',  ( 71.11088709260579300, 0.0000000000000000000, -12.50000000000002100 ) ) ;
#110 = EDGE_CURVE ( 'NONE', #335, #343, #220, .T. ) ;
#111 = DIRECTION ( 'NONE',  ( 0.0000000000000000000, 0.0000000000000000000, 1.000000000000000000 ) ) ;
#112 = EDGE_LOOP ( 'NONE', ( #166, #34, #74, #125 ) ) ;
#113 = AXIS2_PLACEMENT_3D ( 'NONE', #255, #205, #45 ) ;
#114 =( NAMED_UNIT ( * ) PLANE_ANGLE_UNIT ( ) SI_UNIT ( $, .RADIAN. ) );
#115 = SPHERICAL_SURFACE ( 'NONE', #163, 78.37599999999997600 ) ;
#116 = EDGE_LOOP ( 'NONE', ( #176, #25, #139 ) ) ;
#117 = ORIENTED_EDGE ( 'NONE', *, *, #87, .F. ) ;
#118 = DIRECTION ( 'NONE',  ( 0.0000000000000000000, 1.000000000000000000, 0.0000000000000000000 ) ) ;
#119 = SURFACE_STYLE_FILL_AREA ( #292 ) ;
#120 = LINE ( 'NONE', #53, #72 ) ;
#121 = DIRECTION ( 'NONE',  ( -1.000000000000000000, -0.0000000000000000000, -0.0000000000000000000 ) ) ;
#122 = DIRECTION ( 'NONE',  ( 0.0000000000000000000, -1.224646799147353200E-016, 1.000000000000000000 ) ) ;
#123 = AXIS2_PLACEMENT_3D ( 'NONE', #21, #8, #62 ) ;
#124 = ORIENTED_EDGE ( 'NONE', *, *, #33, .F. ) ;
#125 = ORIENTED_EDGE ( 'NONE', *, *, #332, .F. ) ;
#126 =( NAMED_UNIT ( * ) SI_UNIT ( $, .STERADIAN. ) SOLID_ANGLE_UNIT ( ) );
#127 = MECHANICAL_DESIGN_GEOMETRIC_PRESENTATION_REPRESENTATION (  '', ( #104 ), #1 ) ;
#128 = CARTESIAN_POINT ( 'NONE',  ( 148.4836689735747400, 0.0000000000000000000, 3.691006874329670300E-016 ) ) ;
#129 = CIRCLE ( 'NONE', #274, 12.49999999999999500 ) ;
#130 = CIRCLE ( 'NONE', #196, 58.96800000000001800 ) ;
#131 = APPLICATION_PROTOCOL_DEFINITION ( 'draft international standard', 'automotive_design', 1998, #31 ) ;
#132 = AXIS2_PLACEMENT_3D ( 'NONE', #199, #173, #290 ) ;
#133 = DIRECTION ( 'NONE',  ( 0.0000000000000000000, 0.0000000000000000000, 1.000000000000000000 ) ) ;
#134 = AXIS2_PLACEMENT_3D ( 'NONE', #41, #56, #243 ) ;
#135 = FACE_OUTER_BOUND ( 'NONE', #322, .T. ) ;
#136 = DIRECTION ( 'NONE',  ( 0.0000000000000000000, 0.0000000000000000000, 1.000000000000000000 ) ) ;
#137 = FACE_OUTER_BOUND ( 'NONE', #340, .T. ) ;
#138 = VECTOR ( 'NONE', #46, 1000.000000000000000 ) ;
#139 = ORIENTED_EDGE ( 'NONE', *, *, #110, .F. ) ;
#140 = DIRECTION ( 'NONE',  ( 0.0000000000000000000, -1.224646799147353200E-016, 1.000000000000000000 ) ) ;
#141 =( NAMED_UNIT ( * ) PLANE_ANGLE_UNIT ( ) SI_UNIT ( $, .RADIAN. ) );
#142 = ORIENTED_EDGE ( 'NONE', *, *, #263, .F. ) ;
#143 = ADVANCED_FACE ( 'NONE', ( #324 ), #291, .T. ) ;
#144 = DIRECTION ( 'NONE',  ( -1.000000000000000000, -0.0000000000000000000, -0.0000000000000000000 ) ) ;
#145 = FILL_AREA_STYLE_COLOUR ( '', #250 ) ;
#146 = CIRCLE ( 'NONE', #148, 181.7990000000000100 ) ;
#147 = DIRECTION ( 'NONE',  ( -1.000000000000000000, -0.0000000000000000000, -0.0000000000000000000 ) ) ;
#148 = AXIS2_PLACEMENT_3D ( 'NONE', #342, #151, #7 ) ;
#149 = COLOUR_RGB ( '',1.000000000000000000, 1.000000000000000000, 1.000000000000000000 ) ;
#150 = CARTESIAN_POINT ( 'NONE',  ( -9.702612178336682500, 0.0000000000000000000, 0.0000000000000000000 ) ) ;
#151 = DIRECTION ( 'NONE',  ( -0.0000000000000000000, 1.000000000000000000, 1.224646799147353200E-016 ) ) ;
#152 = STYLED_ITEM ( 'NONE', ( #296 ), #188 ) ;
#153 = FILL_AREA_STYLE ('',( #224 ) ) ;
#154 = COLOUR_RGB ( '',1.000000000000000000, 1.000000000000000000, 1.000000000000000000 ) ;
#155 = AXIS2_PLACEMENT_3D ( 'NONE', #336, #333, #330 ) ;
#156 = SPHERICAL_SURFACE ( 'NONE', #331, 78.37599999999997600 ) ;
#157 = UNCERTAINTY_MEASURE_WITH_UNIT (LENGTH_MEASURE( 1.000000000000000100E-005 ), #265, 'distance_accuracy_value', 'NONE');
#158 = EDGE_LOOP ( 'NONE', ( #101, #98, #197, #51 ) ) ;
#159 = ORIENTED_EDGE ( 'NONE', *, *, #110, .T. ) ;
#160 = DIRECTION ( 'NONE',  ( 0.0000000000000000000, 0.0000000000000000000, 1.000000000000000000 ) ) ;
#161 = STYLED_ITEM ( 'NONE', ( #49 ), #262 ) ;
#162 = CARTESIAN_POINT ( 'NONE',  ( 73.84766897357475600, 0.0000000000000000000, 3.624301149762126000E-015 ) ) ;
#163 = AXIS2_PLACEMENT_3D ( 'NONE', #94, #308, #318 ) ;
#164 = CARTESIAN_POINT ( 'NONE',  ( 72.50757041029201800, 0.0000000000000000000, 0.0000000000000000000 ) ) ;
#165 = CIRCLE ( 'NONE', #132, 78.37599999999997600 ) ;
#166 = ORIENTED_EDGE ( 'NONE', *, *, #185, .F. ) ;
#167 = CARTESIAN_POINT ( 'NONE',  ( 14.87966897357473400, 0.0000000000000000000, 1.355252715606880500E-017 ) ) ;
#168 = ORIENTED_EDGE ( 'NONE', *, *, #87, .T. ) ;
#169 = FACE_OUTER_BOUND ( 'NONE', #106, .T. ) ;
#170 = CLOSED_SHELL ( 'NONE', ( #218, #219, #216, #222, #143, #2 ) ) ;
#171 = EDGE_LOOP ( 'NONE', ( #194, #65, #124 ) ) ;
#172 = ADVANCED_FACE ( 'NONE', ( #77 ), #93, .T. ) ;
#173 = DIRECTION ( 'NONE',  ( 0.0000000000000000000, -1.000000000000000000, -1.224646799147353200E-016 ) ) ;
#174 = VECTOR ( 'NONE', #48, 1000.000000000000000 ) ;
#175 = FACE_OUTER_BOUND ( 'NONE', #158, .T. ) ;
#176 = ORIENTED_EDGE ( 'NONE', *, *, #107, .T. ) ;
#177 = CARTESIAN_POINT ( 'NONE',  ( 70.10766897357476100, 0.0000000000000000000, -4.430045189065679000E-015 ) ) ;
#178 = AXIS2_PLACEMENT_3D ( 'NONE', #14, #181, #245 ) ;
#179 = CARTESIAN_POINT ( 'NONE',  ( 73.84766897357475600, 0.0000000000000000000, 3.624301149762126000E-015 ) ) ;
#180 = EDGE_CURVE ( 'NONE', #229, #207, #195, .T. ) ;
#181 = DIRECTION ( 'NONE',  ( 0.0000000000000000000, 1.000000000000000000, 0.0000000000000000000 ) ) ;
#182 = AXIS2_PLACEMENT_3D ( 'NONE', #55, #118, #160 ) ;
#183 = DIRECTION ( 'NONE',  ( -1.000000000000000000, -0.0000000000000000000, -0.0000000000000000000 ) ) ;
#184 = AXIS2_PLACEMENT_3D ( 'NONE', #230, #344, #136 ) ;
#185 = EDGE_CURVE ( 'NONE', #236, #334, #213, .T. ) ;
#186 = DIRECTION ( 'NONE',  ( 0.0000000000000000000, 0.0000000000000000000, 1.000000000000000000 ) ) ;
#187 = CIRCLE ( 'NONE', #237, 12.50000000000000200 ) ;
#188 = MANIFOLD_SOLID_BREP ( 'Ðý×ª3', #264 ) ;
#189 = CARTESIAN_POINT ( 'NONE',  ( -0.5519199926577972300, 0.0000000000000000000, 12.50000000000000400 ) ) ;
#190 = EDGE_CURVE ( 'NONE', #80, #335, #120, .T. ) ;
#191 = DIRECTION ( 'NONE',  ( 0.0000000000000000000, 1.000000000000000000, -0.0000000000000000000 ) ) ;
#192 = CIRCLE ( 'NONE', #5, 58.96800000000001800 ) ;
#193 = AXIS2_PLACEMENT_3D ( 'NONE', #50, #35, #251 ) ;
#194 = ORIENTED_EDGE ( 'NONE', *, *, #60, .F. ) ;
#195 = LINE ( 'NONE', #189, #174 ) ;
#196 = AXIS2_PLACEMENT_3D ( 'NONE', #305, #108, #140 ) ;
#197 = ORIENTED_EDGE ( 'NONE', *, *, #40, .F. ) ;
#198 = SURFACE_STYLE_USAGE ( .BOTH. , #86 ) ;
#199 = CARTESIAN_POINT ( 'NONE',  ( 148.4836689735747400, 0.0000000000000000000, 3.691006874329670300E-016 ) ) ;
#200 = AXIS2_PLACEMENT_3D ( 'NONE', #304, #275, #267 ) ;
#201 = FACE_OUTER_BOUND ( 'NONE', #346, .T. ) ;
#202 = FACE_OUTER_BOUND ( 'NONE', #43, .T. ) ;
#203 = SURFACE_STYLE_USAGE ( .BOTH. , #208 ) ;
#204 = ADVANCED_FACE ( 'NONE', ( #297 ), #27, .T. ) ;
#205 = DIRECTION ( 'NONE',  ( 0.0000000000000000000, 1.000000000000000000, 0.0000000000000000000 ) ) ;
#206 = EDGE_LOOP ( 'NONE', ( #168, #294, #82, #214 ) ) ;
#207 = VERTEX_POINT ( 'NONE', #280 ) ;
#208 = SURFACE_SIDE_STYLE ('',( #17 ) ) ;
#209 = EDGE_CURVE ( 'NONE', #207, #334, #3, .T. ) ;
#210 = ADVANCED_FACE ( 'NONE', ( #328 ), #96, .T. ) ;
#211 = FILL_AREA_STYLE ('',( #145 ) ) ;
#212 = CARTESIAN_POINT ( 'NONE',  ( 14.87966897357473400, 0.0000000000000000000, 1.355252715606880500E-017 ) ) ;
#213 = LINE ( 'NONE', #261, #232 ) ;
#214 = ORIENTED_EDGE ( 'NONE', *, *, #180, .F. ) ;
#215 = AXIS2_PLACEMENT_3D ( 'NONE', #84, #26, #76 ) ;
#216 = ADVANCED_FACE ( 'NONE', ( #217 ), #156, .T. ) ;
#217 = FACE_OUTER_BOUND ( 'NONE', #116, .T. ) ;
#218 = ADVANCED_FACE ( 'NONE', ( #135 ), #320, .T. ) ;
#219 = ADVANCED_FACE ( 'NONE', ( #175 ), #345, .T. ) ;
#220 = CIRCLE ( 'NONE', #249, 78.37599999999997600 ) ;
#221 = ORIENTED_EDGE ( 'NONE', *, *, #263, .T. ) ;
#222 = ADVANCED_FACE ( 'NONE', ( #169 ), #115, .T. ) ;
#223 = CIRCLE ( 'NONE', #58, 12.49999999999999500 ) ;
#224 = FILL_AREA_STYLE_COLOUR ( '', #149 ) ;
#225 = UNCERTAINTY_MEASURE_WITH_UNIT (LENGTH_MEASURE( 1.000000000000000100E-005 ), #329, 'distance_accuracy_value', 'NONE');
#226 = SPHERICAL_SURFACE ( 'NONE', #113, 58.96800000000001800 ) ;
#227 = AXIS2_PLACEMENT_3D ( 'NONE', #270, #121, #111 ) ;
#228 = DIRECTION ( 'NONE',  ( 0.0000000000000000000, 0.0000000000000000000, -1.000000000000000000 ) ) ;
#229 = VERTEX_POINT ( 'NONE', #288 ) ;
#230 = CARTESIAN_POINT ( 'NONE',  ( 14.87966897357473400, 0.0000000000000000000, 1.355252715606880500E-017 ) ) ;
#231 = EDGE_CURVE ( 'NONE', #242, #229, #302, .T. ) ;
#232 = VECTOR ( 'NONE', #299, 1000.000000000000000 ) ;
#233 = SPHERICAL_SURFACE ( 'NONE', #178, 181.7990000000000100 ) ;
#234 = FACE_OUTER_BOUND ( 'NONE', #286, .T. ) ;
#235 = CARTESIAN_POINT ( 'NONE',  ( 72.50757041029201800, 0.0000000000000000000, 0.0000000000000000000 ) ) ;
#236 = VERTEX_POINT ( 'NONE', #69 ) ;
#237 = AXIS2_PLACEMENT_3D ( 'NONE', #164, #95, #321 ) ;
#238 = DIRECTION ( 'NONE',  ( -0.0000000000000000000, -1.000000000000000000, -0.0000000000000000000 ) ) ;
#239 = CIRCLE ( 'NONE', #67, 12.50000000000000000 ) ;
#240 = DIRECTION ( 'NONE',  ( 0.0000000000000000000, 0.0000000000000000000, 1.000000000000000000 ) ) ;
#241 = SPHERICAL_SURFACE ( 'NONE', #184, 58.96800000000001800 ) ;
#242 = VERTEX_POINT ( 'NONE', #287 ) ;
#243 = DIRECTION ( 'NONE',  ( 0.0000000000000000000, 0.0000000000000000000, 1.000000000000000000 ) ) ;
#244 = EDGE_CURVE ( 'NONE', #341, #343, #165, .T. ) ;
#245 = DIRECTION ( 'NONE',  ( 0.0000000000000000000, 0.0000000000000000000, 1.000000000000000000 ) ) ;
#246 = CARTESIAN_POINT ( 'NONE',  ( 72.50757041029201800, 0.0000000000000000000, 12.50000000000000200 ) ) ;
#247 = CIRCLE ( 'NONE', #83, 12.50000000000001400 ) ;
#248 =( GEOMETRIC_REPRESENTATION_CONTEXT ( 3 ) GLOBAL_UNCERTAINTY_ASSIGNED_CONTEXT ( ( #157 ) ) GLOBAL_UNIT_ASSIGNED_CONTEXT ( ( #265, #141, #13 ) ) REPRESENTATION_CONTEXT ( 'NONE', 'WORKASPACE' ) );
#249 = AXIS2_PLACEMENT_3D ( 'NONE', #57, #191, #4 ) ;
#250 = COLOUR_RGB ( '',1.000000000000000000, 1.000000000000000000, 1.000000000000000000 ) ;
#251 = DIRECTION ( 'NONE',  ( 0.0000000000000000000, 0.0000000000000000000, 1.000000000000000000 ) ) ;
#252 = EDGE_CURVE ( 'NONE', #80, #271, #10, .T. ) ;
#253 = APPLICATION_CONTEXT ( 'automotive_design' ) ;
#254 = PRODUCT_RELATED_PRODUCT_CATEGORY ( 'part', '', ( #18 ) ) ;
#255 = CARTESIAN_POINT ( 'NONE',  ( 14.87966897357473400, 0.0000000000000000000, 1.355252715606880500E-017 ) ) ;
#256 =( NAMED_UNIT ( * ) SI_UNIT ( $, .STERADIAN. ) SOLID_ANGLE_UNIT ( ) );
#257 = SURFACE_SIDE_STYLE ('',( #24 ) ) ;
#258 =( NAMED_UNIT ( * ) PLANE_ANGLE_UNIT ( ) SI_UNIT ( $, .RADIAN. ) );
#259 = ORIENTED_EDGE ( 'NONE', *, *, #40, .T. ) ;
#260 = ADVANCED_FACE ( 'NONE', ( #234 ), #226, .F. ) ;
#261 = CARTESIAN_POINT ( 'NONE',  ( -0.5519199926577972300, 1.530808498934191900E-015, -12.50000000000000400 ) ) ;
#262 = ADVANCED_BREP_SHAPE_REPRESENTATION ( '145043', ( #29, #188, #63 ), #339 ) ;
#263 = EDGE_CURVE ( 'NONE', #28, #334, #103, .T. ) ;
#264 = CLOSED_SHELL ( 'NONE', ( #100, #204, #260, #283, #172, #210 ) ) ;
#265 =( LENGTH_UNIT ( ) NAMED_UNIT ( * ) SI_UNIT ( .MILLI., .METRE. ) );
#266 = ORIENTED_EDGE ( 'NONE', *, *, #60, .T. ) ;
#267 = DIRECTION ( 'NONE',  ( 0.0000000000000000000, 0.0000000000000000000, 1.000000000000000000 ) ) ;
#268 = DIRECTION ( 'NONE',  ( 0.0000000000000000000, -1.000000000000000000, 0.0000000000000000000 ) ) ;
#269 = DIRECTION ( 'NONE',  ( -1.000000000000000000, -0.0000000000000000000, -0.0000000000000000000 ) ) ;
#270 = CARTESIAN_POINT ( 'NONE',  ( 72.50757041029201800, 0.0000000000000000000, 0.0000000000000000000 ) ) ;
#271 = VERTEX_POINT ( 'NONE', #246 ) ;
#272 = CARTESIAN_POINT ( 'NONE',  ( 71.11088709260579300, 0.0000000000000000000, 0.0000000000000000000 ) ) ;
#273 = APPLICATION_PROTOCOL_DEFINITION ( 'draft international standard', 'automotive_design', 1998, #253 ) ;
#274 = AXIS2_PLACEMENT_3D ( 'NONE', #39, #38, #16 ) ;
#275 = DIRECTION ( 'NONE',  ( -1.000000000000000000, -0.0000000000000000000, -0.0000000000000000000 ) ) ;
#276 = ORIENTED_EDGE ( 'NONE', *, *, #301, .F. ) ;
#277 = MECHANICAL_DESIGN_GEOMETRIC_PRESENTATION_REPRESENTATION (  '', ( #161 ), #30 ) ;
#278 = ORIENTED_EDGE ( 'NONE', *, *, #61, .T. ) ;
#279 = PRESENTATION_LAYER_ASSIGNMENT (  '', '', ( #152 ) ) ;
#280 = CARTESIAN_POINT ( 'NONE',  ( 72.50757041029201800, 0.0000000000000000000, 12.50000000000001800 ) ) ;
#281 = DIRECTION ( 'NONE',  ( 0.0000000000000000000, 0.0000000000000000000, -1.000000000000000000 ) ) ;
#282 = DIRECTION ( 'NONE',  ( -1.000000000000000000, -0.0000000000000000000, -0.0000000000000000000 ) ) ;
#283 = ADVANCED_FACE ( 'NONE', ( #202 ), #241, .F. ) ;
#284 = UNCERTAINTY_MEASURE_WITH_UNIT (LENGTH_MEASURE( 1.000000000000000100E-005 ), #78, 'distance_accuracy_value', 'NONE');
#285 = DIRECTION ( 'NONE',  ( 0.0000000000000000000, 0.0000000000000000000, 1.000000000000000000 ) ) ;
#286 = EDGE_LOOP ( 'NONE', ( #15, #221, #32 ) ) ;
#287 = CARTESIAN_POINT ( 'NONE',  ( 75.84766897357475600, 0.0000000000000000000, 1.113197817190948500E-014 ) ) ;
#288 = CARTESIAN_POINT ( 'NONE',  ( 75.41742703570628200, 0.0000000000000000000, 12.49999999999999500 ) ) ;
#289 = ORIENTED_EDGE ( 'NONE', *, *, #327, .F. ) ;
#290 = DIRECTION ( 'NONE',  ( 0.0000000000000000000, 1.224646799147353200E-016, -1.000000000000000000 ) ) ;
#291 = CYLINDRICAL_SURFACE ( 'NONE', #123, 12.50000000000000000 ) ;
#292 = FILL_AREA_STYLE ('',( #90 ) ) ;
#293 = PRODUCT_DEFINITION ( 'Î´Öª', '', #47, #20 ) ;
#294 = ORIENTED_EDGE ( 'NONE', *, *, #185, .T. ) ;
#295 = EDGE_CURVE ( 'NONE', #28, #207, #310, .T. ) ;
#296 = PRESENTATION_STYLE_ASSIGNMENT (( #203 ) ) ;
#297 = FACE_OUTER_BOUND ( 'NONE', #206, .T. ) ;
#298 = ORIENTED_EDGE ( 'NONE', *, *, #252, .T. ) ;
#299 = DIRECTION ( 'NONE',  ( -1.000000000000000000, -0.0000000000000000000, -0.0000000000000000000 ) ) ;
#300 = CARTESIAN_POINT ( 'NONE',  ( 71.11088709260579300, -1.530808498934194100E-015, 12.50000000000002100 ) ) ;
#301 = EDGE_CURVE ( 'NONE', #271, #80, #187, .T. ) ;
#302 = CIRCLE ( 'NONE', #155, 181.7990000000000100 ) ;
#303 = ORIENTED_EDGE ( 'NONE', *, *, #209, .T. ) ;
#304 = CARTESIAN_POINT ( 'NONE',  ( -0.5519199926577972300, 0.0000000000000000000, 0.0000000000000000000 ) ) ;
#305 = CARTESIAN_POINT ( 'NONE',  ( 14.87966897357473400, 0.0000000000000000000, 1.355252715606880500E-017 ) ) ;
#306 = PRESENTATION_LAYER_ASSIGNMENT (  '', '', ( #161 ) ) ;
#307 = AXIS2_PLACEMENT_3D ( 'NONE', #150, #144, #97 ) ;
#308 = DIRECTION ( 'NONE',  ( -0.0000000000000000000, -1.000000000000000000, -0.0000000000000000000 ) ) ;
#309 = AXIS2_PLACEMENT_3D ( 'NONE', #105, #147, #42 ) ;
#310 = CIRCLE ( 'NONE', #99, 58.96800000000001800 ) ;
#311 = SURFACE_STYLE_USAGE ( .BOTH. , #257 ) ;
#312 =( NAMED_UNIT ( * ) SI_UNIT ( $, .STERADIAN. ) SOLID_ANGLE_UNIT ( ) );
#313 = PRODUCT_DEFINITION_SHAPE ( 'NONE', 'NONE',  #293 ) ;
#314 = EDGE_CURVE ( 'NONE', #271, #341, #81, .T. ) ;
#315 = ORIENTED_EDGE ( 'NONE', *, *, #107, .F. ) ;
#316 = UNCERTAINTY_MEASURE_WITH_UNIT (LENGTH_MEASURE( 1.000000000000000100E-005 ), #66, 'distance_accuracy_value', 'NONE');
#317 = PRESENTATION_STYLE_ASSIGNMENT (( #198 ) ) ;
#318 = DIRECTION ( 'NONE',  ( 0.0000000000000000000, 0.0000000000000000000, -1.000000000000000000 ) ) ;
#319 = ORIENTED_EDGE ( 'NONE', *, *, #190, .F. ) ;
#320 = SPHERICAL_SURFACE ( 'NONE', #182, 58.96800000000001800 ) ;
#321 = DIRECTION ( 'NONE',  ( 0.0000000000000000000, 0.0000000000000000000, 1.000000000000000000 ) ) ;
#322 = EDGE_LOOP ( 'NONE', ( #22, #59, #276 ) ) ;
#323 = CARTESIAN_POINT ( 'NONE',  ( 75.41742703570628200, 0.0000000000000000000, 0.0000000000000000000 ) ) ;
#324 = FACE_OUTER_BOUND ( 'NONE', #88, .T. ) ;
#325 = CARTESIAN_POINT ( 'NONE',  ( 72.50757041029201800, 1.530808498934193900E-015, -12.50000000000001800 ) ) ;
#326 =( NAMED_UNIT ( * ) PLANE_ANGLE_UNIT ( ) SI_UNIT ( $, .RADIAN. ) );
#327 = EDGE_CURVE ( 'NONE', #6, #80, #130, .T. ) ;
#328 = FACE_OUTER_BOUND ( 'NONE', #171, .T. ) ;
#329 =( LENGTH_UNIT ( ) NAMED_UNIT ( * ) SI_UNIT ( .MILLI., .METRE. ) );
#330 = DIRECTION ( 'NONE',  ( 0.0000000000000000000, 0.0000000000000000000, -1.000000000000000000 ) ) ;
#331 = AXIS2_PLACEMENT_3D ( 'NONE', #128, #238, #281 ) ;
#332 = EDGE_CURVE ( 'NONE', #334, #207, #247, .T. ) ;
#333 = DIRECTION ( 'NONE',  ( 0.0000000000000000000, -1.000000000000000000, 0.0000000000000000000 ) ) ;
#334 = VERTEX_POINT ( 'NONE', #325 ) ;
#335 = VERTEX_POINT ( 'NONE', #109 ) ;
#336 = CARTESIAN_POINT ( 'NONE',  ( -105.9513310264252700, 0.0000000000000000000, 0.0000000000000000000 ) ) ;
#337 = CARTESIAN_POINT ( 'NONE',  ( 14.87966897357473400, 0.0000000000000000000, 1.355252715606880500E-017 ) ) ;
#338 = ORIENTED_EDGE ( 'NONE', *, *, #244, .F. ) ;
#339 =( GEOMETRIC_REPRESENTATION_CONTEXT ( 3 ) GLOBAL_UNCERTAINTY_ASSIGNED_CONTEXT ( ( #316 ) ) GLOBAL_UNIT_ASSIGNED_CONTEXT ( ( #66, #114, #126 ) ) REPRESENTATION_CONTEXT ( 'NONE', 'WORKASPACE' ) );
#340 = EDGE_LOOP ( 'NONE', ( #289, #278, #73 ) ) ;
#341 = VERTEX_POINT ( 'NONE', #300 ) ;
#342 = CARTESIAN_POINT ( 'NONE',  ( -105.9513310264252700, 0.0000000000000000000, 0.0000000000000000000 ) ) ;
#343 = VERTEX_POINT ( 'NONE', #177 ) ;
#344 = DIRECTION ( 'NONE',  ( 0.0000000000000000000, 1.000000000000000000, 0.0000000000000000000 ) ) ;
#345 = CYLINDRICAL_SURFACE ( 'NONE', #307, 12.50000000000000000 ) ;
#346 = EDGE_LOOP ( 'NONE', ( #347, #266, #117 ) ) ;
#347 = ORIENTED_EDGE ( 'NONE', *, *, #231, .F. ) ;
ENDSEC;
END-ISO-10303-21;
