ISO-10303-21;
HEADER;
FILE_DESCRIPTION (( 'STEP AP214' ),
    '1' );
FILE_NAME ('145065.STEP',
    '2019-05-14T07:22:55',
    ( 'user' ),
    ( 'Î¢ÈíÖÐ¹ú' ),
    'SwSTEP 2.0',
    'SolidWorks 2016',
    '' );
FILE_SCHEMA (( 'AUTOMOTIVE_DESIGN' ));
ENDSEC;

DATA;
#1 = CARTESIAN_POINT ( 'NONE',  ( 363.6994475431024500, 0.0000000000000000000, 1.949159668689945000E-014 ) ) ;
#2 = ORIENTED_EDGE ( 'NONE', *, *, #321, .T. ) ;
#3 = ORIENTED_EDGE ( 'NONE', *, *, #114, .F. ) ;
#4 = EDGE_CURVE ( 'NONE', #316, #67, #242, .T. ) ;
#5 = FILL_AREA_STYLE_COLOUR ( '', #280 ) ;
#6 = ORIENTED_EDGE ( 'NONE', *, *, #9, .F. ) ;
#7 = SURFACE_STYLE_FILL_AREA ( #131 ) ;
#8 = EDGE_LOOP ( 'NONE', ( #254, #197, #60, #6 ) ) ;
#9 = EDGE_CURVE ( 'NONE', #96, #67, #283, .T. ) ;
#10 = SURFACE_STYLE_FILL_AREA ( #206 ) ;
#11 = AXIS2_PLACEMENT_3D ( 'NONE', #47, #289, #200 ) ;
#12 =( NAMED_UNIT ( * ) SI_UNIT ( $, .STERADIAN. ) SOLID_ANGLE_UNIT ( ) );
#13 = DIRECTION ( 'NONE',  ( -1.000000000000000000, -0.0000000000000000000, -0.0000000000000000000 ) ) ;
#14 = SPHERICAL_SURFACE ( 'NONE', #269, 337.2999999999999500 ) ;
#15 =( GEOMETRIC_REPRESENTATION_CONTEXT ( 3 ) GLOBAL_UNCERTAINTY_ASSIGNED_CONTEXT ( ( #207 ) ) GLOBAL_UNIT_ASSIGNED_CONTEXT ( ( #334, #27, #213 ) ) REPRESENTATION_CONTEXT ( 'NONE', 'WORKASPACE' ) );
#16 = SURFACE_STYLE_USAGE ( .BOTH. , #151 ) ;
#17 = ORIENTED_EDGE ( 'NONE', *, *, #239, .F. ) ;
#18 = DIRECTION ( 'NONE',  ( 0.0000000000000000000, 0.0000000000000000000, 1.000000000000000000 ) ) ;
#19 = ADVANCED_FACE ( 'NONE', ( #291 ), #259, .T. ) ;
#20 = ORIENTED_EDGE ( 'NONE', *, *, #57, .T. ) ;
#21 = MANIFOLD_SOLID_BREP ( 'Ðý×ª3', #123 ) ;
#22 = CARTESIAN_POINT ( 'NONE',  ( 180.8994475431023300, 0.0000000000000000000, -2.331420943353962200E-015 ) ) ;
#23 = SURFACE_STYLE_USAGE ( .BOTH. , #208 ) ;
#24 = ORIENTED_EDGE ( 'NONE', *, *, #57, .F. ) ;
#25 = DIRECTION ( 'NONE',  ( 0.0000000000000000000, -1.224646799147353200E-016, 1.000000000000000000 ) ) ;
#26 = DIRECTION ( 'NONE',  ( -1.000000000000000000, -0.0000000000000000000, -0.0000000000000000000 ) ) ;
#27 =( NAMED_UNIT ( * ) PLANE_ANGLE_UNIT ( ) SI_UNIT ( $, .RADIAN. ) );
#28 = STYLED_ITEM ( 'NONE', ( #92 ), #176 ) ;
#29 = DIRECTION ( 'NONE',  ( 0.0000000000000000000, 1.000000000000000000, 0.0000000000000000000 ) ) ;
#30 = ORIENTED_EDGE ( 'NONE', *, *, #290, .F. ) ;
#31 =( NAMED_UNIT ( * ) PLANE_ANGLE_UNIT ( ) SI_UNIT ( $, .RADIAN. ) );
#32 = FACE_OUTER_BOUND ( 'NONE', #319, .T. ) ;
#33 = DIRECTION ( 'NONE',  ( -0.0000000000000000000, 1.000000000000000000, 1.224646799147353200E-016 ) ) ;
#34 = PRODUCT_RELATED_PRODUCT_CATEGORY ( 'part', '', ( #265 ) ) ;
#35 =( NAMED_UNIT ( * ) SI_UNIT ( $, .STERADIAN. ) SOLID_ANGLE_UNIT ( ) );
#36 = AXIS2_PLACEMENT_3D ( 'NONE', #97, #306, #51 ) ;
#37 = EDGE_CURVE ( 'NONE', #169, #45, #65, .T. ) ;
#38 = CARTESIAN_POINT ( 'NONE',  ( 180.8994475431023300, 0.0000000000000000000, -2.331420943353962200E-015 ) ) ;
#39 = EDGE_CURVE ( 'NONE', #226, #142, #49, .T. ) ;
#40 = ORIENTED_EDGE ( 'NONE', *, *, #114, .T. ) ;
#41 = DIRECTION ( 'NONE',  ( 0.0000000000000000000, -1.224646799147353500E-016, 1.000000000000000000 ) ) ;
#42 = CARTESIAN_POINT ( 'NONE',  ( 700.9994475431024100, 0.0000000000000000000, -1.162071580720656500E-015 ) ) ;
#43 = ADVANCED_FACE ( 'NONE', ( #191 ), #275, .F. ) ;
#44 = SHAPE_DEFINITION_REPRESENTATION ( #120, #176 ) ;
#45 = VERTEX_POINT ( 'NONE', #1 ) ;
#46 = PRODUCT_DEFINITION ( 'Î´Öª', '', #79, #126 ) ;
#47 = CARTESIAN_POINT ( 'NONE',  ( 180.8994475431023300, 0.0000000000000000000, -2.331420943353962200E-015 ) ) ;
#48 = VECTOR ( 'NONE', #81, 1000.000000000000000 ) ;
#49 = CIRCLE ( 'NONE', #285, 186.8000000000015700 ) ;
#50 = FILL_AREA_STYLE ('',( #5 ) ) ;
#51 = DIRECTION ( 'NONE',  ( 0.0000000000000000000, 0.0000000000000000000, 1.000000000000000000 ) ) ;
#52 = EDGE_CURVE ( 'NONE', #317, #45, #305, .T. ) ;
#53 = ORIENTED_EDGE ( 'NONE', *, *, #4, .T. ) ;
#54 = EDGE_LOOP ( 'NONE', ( #230, #115, #167 ) ) ;
#55 = DIRECTION ( 'NONE',  ( 0.0000000000000000000, 0.0000000000000000000, 1.000000000000000000 ) ) ;
#56 = DIRECTION ( 'NONE',  ( 0.0000000000000000000, 0.0000000000000000000, 1.000000000000000000 ) ) ;
#57 = EDGE_CURVE ( 'NONE', #142, #331, #227, .T. ) ;
#58 = CARTESIAN_POINT ( 'NONE',  ( 367.2672290934566500, 1.555301434917147300E-015, -12.70000000000007200 ) ) ;
#59 = DIRECTION ( 'NONE',  ( 0.0000000000000000000, 0.0000000000000000000, 1.000000000000000000 ) ) ;
#60 = ORIENTED_EDGE ( 'NONE', *, *, #311, .F. ) ;
#61 = SPHERICAL_SURFACE ( 'NONE', #203, 186.8000000000015700 ) ;
#62 = DIRECTION ( 'NONE',  ( -0.0000000000000000000, 1.000000000000000000, 1.224646799147353200E-016 ) ) ;
#63 = AXIS2_PLACEMENT_3D ( 'NONE', #152, #286, #59 ) ;
#64 = CARTESIAN_POINT ( 'NONE',  ( 235.8074506907544200, 1.555301434917138200E-015, -12.69999999999999800 ) ) ;
#65 = CIRCLE ( 'NONE', #295, 337.2999999999999500 ) ;
#66 = VECTOR ( 'NONE', #249, 1000.000000000000000 ) ;
#67 = VERTEX_POINT ( 'NONE', #199 ) ;
#68 = EDGE_CURVE ( 'NONE', #316, #234, #168, .T. ) ;
#69 = DIRECTION ( 'NONE',  ( -0.0000000000000000000, 1.000000000000000000, 1.224646799147353200E-016 ) ) ;
#70 = EDGE_LOOP ( 'NONE', ( #262, #53, #146 ) ) ;
#71 = ADVANCED_FACE ( 'NONE', ( #263 ), #61, .F. ) ;
#72 = DIRECTION ( 'NONE',  ( 0.0000000000000000000, 0.0000000000000000000, 1.000000000000000000 ) ) ;
#73 = DIRECTION ( 'NONE',  ( 0.0000000000000000000, 0.0000000000000000000, 1.000000000000000000 ) ) ;
#74 = SURFACE_STYLE_USAGE ( .BOTH. , #204 ) ;
#75 = AXIS2_PLACEMENT_3D ( 'NONE', #345, #144, #194 ) ;
#76 = CARTESIAN_POINT ( 'NONE',  ( 367.6994475431039300, 0.0000000000000000000, 9.106780160682414400E-015 ) ) ;
#77 = PRESENTATION_LAYER_ASSIGNMENT (  '', '', ( #233 ) ) ;
#78 = MANIFOLD_SOLID_BREP ( 'Ðý×ª1', #163 ) ;
#79 = PRODUCT_DEFINITION_FORMATION_WITH_SPECIFIED_SOURCE ( 'ÈÎºÎ', '', #265, .NOT_KNOWN. ) ;
#80 = ORIENTED_EDGE ( 'NONE', *, *, #347, .F. ) ;
#81 = DIRECTION ( 'NONE',  ( -1.000000000000000000, -0.0000000000000000000, -0.0000000000000000000 ) ) ;
#82 = EDGE_CURVE ( 'NONE', #246, #96, #83, .T. ) ;
#83 = CIRCLE ( 'NONE', #130, 557.3999999999999800 ) ;
#84 = SURFACE_STYLE_FILL_AREA ( #50 ) ;
#85 =( GEOMETRIC_REPRESENTATION_CONTEXT ( 3 ) GLOBAL_UNCERTAINTY_ASSIGNED_CONTEXT ( ( #180 ) ) GLOBAL_UNIT_ASSIGNED_CONTEXT ( ( #171, #329, #177 ) ) REPRESENTATION_CONTEXT ( 'NONE', 'WORKASPACE' ) );
#86 = EDGE_LOOP ( 'NONE', ( #30, #341, #287, #154 ) ) ;
#87 = STYLED_ITEM ( 'NONE', ( #209 ), #78 ) ;
#88 = DIRECTION ( 'NONE',  ( 0.0000000000000000000, -1.000000000000000000, 0.0000000000000000000 ) ) ;
#89 = ORIENTED_EDGE ( 'NONE', *, *, #37, .T. ) ;
#90 = ADVANCED_FACE ( 'NONE', ( #342 ), #184, .T. ) ;
#91 = AXIS2_PLACEMENT_3D ( 'NONE', #42, #267, #252 ) ;
#92 = PRESENTATION_STYLE_ASSIGNMENT (( #23 ) ) ;
#93 = CARTESIAN_POINT ( 'NONE',  ( -0.5519199926577972300, 0.0000000000000000000, 12.70000000000003500 ) ) ;
#94 = CIRCLE ( 'NONE', #170, 12.69999999999999800 ) ;
#95 = VECTOR ( 'NONE', #308, 1000.000000000000000 ) ;
#96 = VERTEX_POINT ( 'NONE', #294 ) ;
#97 = CARTESIAN_POINT ( 'NONE',  ( 235.8074506907544200, 0.0000000000000000000, 0.0000000000000000000 ) ) ;
#98 =( GEOMETRIC_REPRESENTATION_CONTEXT ( 3 ) GLOBAL_UNCERTAINTY_ASSIGNED_CONTEXT ( ( #103 ) ) GLOBAL_UNIT_ASSIGNED_CONTEXT ( ( #228, #31, #35 ) ) REPRESENTATION_CONTEXT ( 'NONE', 'WORKASPACE' ) );
#99 = CARTESIAN_POINT ( 'NONE',  ( 367.2672290934566500, 0.0000000000000000000, 0.0000000000000000000 ) ) ;
#100 = ORIENTED_EDGE ( 'NONE', *, *, #251, .F. ) ;
#101 = EDGE_CURVE ( 'NONE', #234, #67, #273, .T. ) ;
#102 = AXIS2_PLACEMENT_3D ( 'NONE', #164, #33, #129 ) ;
#103 = UNCERTAINTY_MEASURE_WITH_UNIT (LENGTH_MEASURE( 1.000000000000000100E-005 ), #228, 'distance_accuracy_value', 'NONE');
#104 = DIRECTION ( 'NONE',  ( 0.0000000000000000000, 0.0000000000000000000, 1.000000000000000000 ) ) ;
#105 = CARTESIAN_POINT ( 'NONE',  ( 180.8994475431023300, 0.0000000000000000000, -2.331420943353962200E-015 ) ) ;
#106 = CARTESIAN_POINT ( 'NONE',  ( 367.2672290934566500, 0.0000000000000000000, 12.69999999999999800 ) ) ;
#107 = FACE_OUTER_BOUND ( 'NONE', #8, .T. ) ;
#108 = DIRECTION ( 'NONE',  ( 0.0000000000000000000, 0.0000000000000000000, -1.000000000000000000 ) ) ;
#109 = ORIENTED_EDGE ( 'NONE', *, *, #251, .T. ) ;
#110 = AXIS2_PLACEMENT_3D ( 'NONE', #189, #284, #238 ) ;
#111 = CARTESIAN_POINT ( 'NONE',  ( 700.9994475431024100, 0.0000000000000000000, -1.162071580720656500E-015 ) ) ;
#112 = DIRECTION ( 'NONE',  ( -1.000000000000000000, -0.0000000000000000000, -0.0000000000000000000 ) ) ;
#113 = DIRECTION ( 'NONE',  ( 0.0000000000000000000, 1.000000000000000000, 0.0000000000000000000 ) ) ;
#114 = EDGE_CURVE ( 'NONE', #317, #169, #225, .T. ) ;
#115 = ORIENTED_EDGE ( 'NONE', *, *, #190, .T. ) ;
#116 = LINE ( 'NONE', #336, #322 ) ;
#117 = CARTESIAN_POINT ( 'NONE',  ( -0.5519199926577972300, 0.0000000000000000000, 0.0000000000000000000 ) ) ;
#118 = DIRECTION ( 'NONE',  ( 0.0000000000000000000, 0.0000000000000000000, -1.000000000000000000 ) ) ;
#119 = EDGE_LOOP ( 'NONE', ( #100, #260, #339 ) ) ;
#120 = PRODUCT_DEFINITION_SHAPE ( 'NONE', 'NONE',  #46 ) ;
#121 = CARTESIAN_POINT ( 'NONE',  ( 700.9994475431024100, 0.0000000000000000000, -1.162071580720656500E-015 ) ) ;
#122 = CIRCLE ( 'NONE', #243, 12.70000000000008500 ) ;
#123 = CLOSED_SHELL ( 'NONE', ( #219, #138, #71, #43, #19, #188 ) ) ;
#124 = DIRECTION ( 'NONE',  ( -1.000000000000000000, -0.0000000000000000000, -0.0000000000000000000 ) ) ;
#125 = AXIS2_PLACEMENT_3D ( 'NONE', #121, #62, #174 ) ;
#126 = PRODUCT_DEFINITION_CONTEXT ( 'detailed design', #237, 'design' ) ;
#127 = COLOUR_RGB ( '',1.000000000000000000, 1.000000000000000000, 1.000000000000000000 ) ;
#128 = ORIENTED_EDGE ( 'NONE', *, *, #52, .F. ) ;
#129 = DIRECTION ( 'NONE',  ( 0.0000000000000000000, -1.224646799147353200E-016, 1.000000000000000000 ) ) ;
#130 = AXIS2_PLACEMENT_3D ( 'NONE', #328, #248, #108 ) ;
#131 = FILL_AREA_STYLE ('',( #296 ) ) ;
#132 = DIRECTION ( 'NONE',  ( 0.0000000000000000000, 0.0000000000000000000, 1.000000000000000000 ) ) ;
#133 = DIRECTION ( 'NONE',  ( -1.000000000000000000, -0.0000000000000000000, -0.0000000000000000000 ) ) ;
#134 = FACE_OUTER_BOUND ( 'NONE', #326, .T. ) ;
#135 = EDGE_LOOP ( 'NONE', ( #244, #192, #17 ) ) ;
#136 = APPLICATION_CONTEXT ( 'automotive_design' ) ;
#137 = DIRECTION ( 'NONE',  ( -0.0000000000000000000, 1.000000000000000000, 1.224646799147353200E-016 ) ) ;
#138 = ADVANCED_FACE ( 'NONE', ( #107 ), #303, .T. ) ;
#139 =( LENGTH_UNIT ( ) NAMED_UNIT ( * ) SI_UNIT ( .MILLI., .METRE. ) );
#140 = CIRCLE ( 'NONE', #271, 12.69999999999998200 ) ;
#141 = ORIENTED_EDGE ( 'NONE', *, *, #321, .F. ) ;
#142 = VERTEX_POINT ( 'NONE', #106 ) ;
#143 = CARTESIAN_POINT ( 'NONE',  ( 367.2672290934566500, 1.555301434917138200E-015, -12.69999999999999800 ) ) ;
#144 = DIRECTION ( 'NONE',  ( -1.000000000000000000, -0.0000000000000000000, -0.0000000000000000000 ) ) ;
#145 = AXIS2_PLACEMENT_3D ( 'NONE', #216, #133, #312 ) ;
#146 = ORIENTED_EDGE ( 'NONE', *, *, #311, .T. ) ;
#147 = AXIS2_PLACEMENT_3D ( 'NONE', #117, #266, #258 ) ;
#148 = FACE_OUTER_BOUND ( 'NONE', #54, .T. ) ;
#149 = DIRECTION ( 'NONE',  ( 0.0000000000000000000, 1.000000000000000000, 0.0000000000000000000 ) ) ;
#150 = EDGE_LOOP ( 'NONE', ( #172, #109, #24 ) ) ;
#151 = SURFACE_SIDE_STYLE ('',( #10 ) ) ;
#152 = CARTESIAN_POINT ( 'NONE',  ( -187.7005524568961100, 0.0000000000000000000, 0.0000000000000000000 ) ) ;
#153 = FACE_OUTER_BOUND ( 'NONE', #135, .T. ) ;
#154 = ORIENTED_EDGE ( 'NONE', *, *, #101, .F. ) ;
#155 = AXIS2_PLACEMENT_3D ( 'NONE', #288, #282, #268 ) ;
#156 = SPHERICAL_SURFACE ( 'NONE', #110, 557.3999999999999800 ) ;
#157 = DIRECTION ( 'NONE',  ( -1.000000000000000000, -0.0000000000000000000, -0.0000000000000000000 ) ) ;
#158 = DIRECTION ( 'NONE',  ( -1.000000000000000000, -0.0000000000000000000, -0.0000000000000000000 ) ) ;
#159 = CARTESIAN_POINT ( 'NONE',  ( 0.0000000000000000000, 0.0000000000000000000, 0.0000000000000000000 ) ) ;
#160 = CIRCLE ( 'NONE', #229, 557.3999999999999800 ) ;
#161 = CARTESIAN_POINT ( 'NONE',  ( 363.9386221717757600, 1.555301434917125000E-015, -12.69999999999989300 ) ) ;
#162 = EDGE_CURVE ( 'NONE', #331, #142, #212, .T. ) ;
#163 = CLOSED_SHELL ( 'NONE', ( #217, #250, #277, #307, #90, #344 ) ) ;
#164 = CARTESIAN_POINT ( 'NONE',  ( 180.8994475431023300, 0.0000000000000000000, -2.331420943353962200E-015 ) ) ;
#165 = EDGE_CURVE ( 'NONE', #96, #178, #140, .T. ) ;
#166 = DIRECTION ( 'NONE',  ( 0.0000000000000000000, -1.000000000000000000, 0.0000000000000000000 ) ) ;
#167 = ORIENTED_EDGE ( 'NONE', *, *, #165, .F. ) ;
#168 = CIRCLE ( 'NONE', #281, 186.8000000000015700 ) ;
#169 = VERTEX_POINT ( 'NONE', #205 ) ;
#170 = AXIS2_PLACEMENT_3D ( 'NONE', #325, #343, #301 ) ;
#171 =( LENGTH_UNIT ( ) NAMED_UNIT ( * ) SI_UNIT ( .MILLI., .METRE. ) );
#172 = ORIENTED_EDGE ( 'NONE', *, *, #39, .F. ) ;
#173 =( GEOMETRIC_REPRESENTATION_CONTEXT ( 3 ) GLOBAL_UNCERTAINTY_ASSIGNED_CONTEXT ( ( #245 ) ) GLOBAL_UNIT_ASSIGNED_CONTEXT ( ( #139, #292, #12 ) ) REPRESENTATION_CONTEXT ( 'NONE', 'WORKASPACE' ) );
#174 = DIRECTION ( 'NONE',  ( 0.0000000000000000000, -1.224646799147353200E-016, 1.000000000000000000 ) ) ;
#175 = FACE_OUTER_BOUND ( 'NONE', #119, .T. ) ;
#176 = ADVANCED_BREP_SHAPE_REPRESENTATION ( '145065', ( #78, #21, #253 ), #15 ) ;
#177 =( NAMED_UNIT ( * ) SI_UNIT ( $, .STERADIAN. ) SOLID_ANGLE_UNIT ( ) );
#178 = VERTEX_POINT ( 'NONE', #183 ) ;
#179 = CARTESIAN_POINT ( 'NONE',  ( 367.2672290934566500, 0.0000000000000000000, 0.0000000000000000000 ) ) ;
#180 = UNCERTAINTY_MEASURE_WITH_UNIT (LENGTH_MEASURE( 1.000000000000000100E-005 ), #171, 'distance_accuracy_value', 'NONE');
#181 = ORIENTED_EDGE ( 'NONE', *, *, #68, .T. ) ;
#182 = AXIS2_PLACEMENT_3D ( 'NONE', #22, #149, #186 ) ;
#183 = CARTESIAN_POINT ( 'NONE',  ( 369.5547481011156500, 1.555301434917139600E-015, -12.69999999999998200 ) ) ;
#184 = CYLINDRICAL_SURFACE ( 'NONE', #75, 12.69999999999999800 ) ;
#185 = EDGE_LOOP ( 'NONE', ( #264, #181, #337 ) ) ;
#186 = DIRECTION ( 'NONE',  ( 0.0000000000000000000, 0.0000000000000000000, 1.000000000000000000 ) ) ;
#187 = AXIS2_PLACEMENT_3D ( 'NONE', #346, #157, #72 ) ;
#188 = ADVANCED_FACE ( 'NONE', ( #153 ), #156, .T. ) ;
#189 = CARTESIAN_POINT ( 'NONE',  ( -187.7005524568961100, 0.0000000000000000000, 0.0000000000000000000 ) ) ;
#190 = EDGE_CURVE ( 'NONE', #246, #178, #160, .T. ) ;
#191 = FACE_OUTER_BOUND ( 'NONE', #70, .T. ) ;
#192 = ORIENTED_EDGE ( 'NONE', *, *, #82, .T. ) ;
#193 = AXIS2_PLACEMENT_3D ( 'NONE', #215, #88, #118 ) ;
#194 = DIRECTION ( 'NONE',  ( 0.0000000000000000000, 0.0000000000000000000, 1.000000000000000000 ) ) ;
#195 = CARTESIAN_POINT ( 'NONE',  ( 367.2672290934566500, 0.0000000000000000000, 0.0000000000000000000 ) ) ;
#196 = FACE_OUTER_BOUND ( 'NONE', #150, .T. ) ;
#197 = ORIENTED_EDGE ( 'NONE', *, *, #290, .T. ) ;
#198 = DIRECTION ( 'NONE',  ( 0.0000000000000000000, 0.0000000000000000000, -1.000000000000000000 ) ) ;
#199 = CARTESIAN_POINT ( 'NONE',  ( 367.2672290934566500, 0.0000000000000000000, 12.70000000000007000 ) ) ;
#200 = DIRECTION ( 'NONE',  ( 0.0000000000000000000, 0.0000000000000000000, 1.000000000000000000 ) ) ;
#201 = EDGE_LOOP ( 'NONE', ( #80, #304, #2, #3 ) ) ;
#202 = AXIS2_PLACEMENT_3D ( 'NONE', #195, #26, #132 ) ;
#203 = AXIS2_PLACEMENT_3D ( 'NONE', #38, #113, #320 ) ;
#204 = SURFACE_SIDE_STYLE ('',( #84 ) ) ;
#205 = CARTESIAN_POINT ( 'NONE',  ( 363.9386221717757600, 0.0000000000000000000, 12.69999999999988900 ) ) ;
#206 = FILL_AREA_STYLE ('',( #279 ) ) ;
#207 = UNCERTAINTY_MEASURE_WITH_UNIT (LENGTH_MEASURE( 1.000000000000000100E-005 ), #334, 'distance_accuracy_value', 'NONE');
#208 = SURFACE_SIDE_STYLE ('',( #7 ) ) ;
#209 = PRESENTATION_STYLE_ASSIGNMENT (( #74 ) ) ;
#210 = ORIENTED_EDGE ( 'NONE', *, *, #37, .F. ) ;
#211 = CYLINDRICAL_SURFACE ( 'NONE', #36, 12.69999999999999800 ) ;
#212 = CIRCLE ( 'NONE', #202, 12.69999999999999800 ) ;
#213 =( NAMED_UNIT ( * ) SI_UNIT ( $, .STERADIAN. ) SOLID_ANGLE_UNIT ( ) );
#214 = CARTESIAN_POINT ( 'NONE',  ( 363.9386221717757600, 0.0000000000000000000, 0.0000000000000000000 ) ) ;
#215 = CARTESIAN_POINT ( 'NONE',  ( 180.8994475431023300, 0.0000000000000000000, -2.331420943353962200E-015 ) ) ;
#216 = CARTESIAN_POINT ( 'NONE',  ( 369.5547481011156500, 0.0000000000000000000, 0.0000000000000000000 ) ) ;
#217 = ADVANCED_FACE ( 'NONE', ( #196 ), #315, .T. ) ;
#218 = MECHANICAL_DESIGN_GEOMETRIC_PRESENTATION_REPRESENTATION (  '', ( #87 ), #85 ) ;
#219 = ADVANCED_FACE ( 'NONE', ( #148 ), #276, .T. ) ;
#220 = CIRCLE ( 'NONE', #145, 12.69999999999998200 ) ;
#221 = ORIENTED_EDGE ( 'NONE', *, *, #52, .T. ) ;
#222 = ORIENTED_EDGE ( 'NONE', *, *, #313, .T. ) ;
#223 = CARTESIAN_POINT ( 'NONE',  ( 180.8994475431023300, 0.0000000000000000000, -2.331420943353962200E-015 ) ) ;
#224 = AXIS2_PLACEMENT_3D ( 'NONE', #214, #158, #55 ) ;
#225 = CIRCLE ( 'NONE', #224, 12.69999999999999800 ) ;
#226 = VERTEX_POINT ( 'NONE', #76 ) ;
#227 = CIRCLE ( 'NONE', #335, 12.69999999999999800 ) ;
#228 =( LENGTH_UNIT ( ) NAMED_UNIT ( * ) SI_UNIT ( .MILLI., .METRE. ) );
#229 = AXIS2_PLACEMENT_3D ( 'NONE', #236, #69, #41 ) ;
#230 = ORIENTED_EDGE ( 'NONE', *, *, #82, .F. ) ;
#231 = CARTESIAN_POINT ( 'NONE',  ( 367.6994475431039300, 0.0000000000000000000, 9.106780160682414400E-015 ) ) ;
#232 = APPLICATION_PROTOCOL_DEFINITION ( 'draft international standard', 'automotive_design', 1998, #136 ) ;
#233 = STYLED_ITEM ( 'NONE', ( #278 ), #21 ) ;
#234 = VERTEX_POINT ( 'NONE', #58 ) ;
#235 = DIRECTION ( 'NONE',  ( -1.000000000000000000, -0.0000000000000000000, -0.0000000000000000000 ) ) ;
#236 = CARTESIAN_POINT ( 'NONE',  ( -187.7005524568961100, 0.0000000000000000000, 0.0000000000000000000 ) ) ;
#237 = APPLICATION_CONTEXT ( 'automotive_design' ) ;
#238 = DIRECTION ( 'NONE',  ( 0.0000000000000000000, 0.0000000000000000000, 1.000000000000000000 ) ) ;
#239 = EDGE_CURVE ( 'NONE', #178, #96, #220, .T. ) ;
#240 = CARTESIAN_POINT ( 'NONE',  ( 700.9994475431024100, 0.0000000000000000000, -1.162071580720656500E-015 ) ) ;
#241 = CIRCLE ( 'NONE', #102, 186.8000000000015700 ) ;
#242 = CIRCLE ( 'NONE', #193, 186.8000000000015700 ) ;
#243 = AXIS2_PLACEMENT_3D ( 'NONE', #99, #13, #104 ) ;
#244 = ORIENTED_EDGE ( 'NONE', *, *, #190, .F. ) ;
#245 = UNCERTAINTY_MEASURE_WITH_UNIT (LENGTH_MEASURE( 1.000000000000000100E-005 ), #139, 'distance_accuracy_value', 'NONE');
#246 = VERTEX_POINT ( 'NONE', #247 ) ;
#247 = CARTESIAN_POINT ( 'NONE',  ( 369.6994475431039300, 0.0000000000000000000, 3.413090629223673800E-014 ) ) ;
#248 = DIRECTION ( 'NONE',  ( 0.0000000000000000000, -1.000000000000000000, 0.0000000000000000000 ) ) ;
#249 = DIRECTION ( 'NONE',  ( -1.000000000000000000, -0.0000000000000000000, -0.0000000000000000000 ) ) ;
#250 = ADVANCED_FACE ( 'NONE', ( #309 ), #211, .T. ) ;
#251 = EDGE_CURVE ( 'NONE', #226, #331, #241, .T. ) ;
#252 = DIRECTION ( 'NONE',  ( 0.0000000000000000000, 0.0000000000000000000, 1.000000000000000000 ) ) ;
#253 = AXIS2_PLACEMENT_3D ( 'NONE', #159, #56, #332 ) ;
#254 = ORIENTED_EDGE ( 'NONE', *, *, #165, .T. ) ;
#255 = CARTESIAN_POINT ( 'NONE',  ( 180.8994475431023300, 0.0000000000000000000, -2.331420943353962200E-015 ) ) ;
#256 = COLOUR_RGB ( '',1.000000000000000000, 1.000000000000000000, 1.000000000000000000 ) ;
#257 = DIRECTION ( 'NONE',  ( 0.0000000000000000000, -1.000000000000000000, 0.0000000000000000000 ) ) ;
#258 = DIRECTION ( 'NONE',  ( 0.0000000000000000000, 0.0000000000000000000, 1.000000000000000000 ) ) ;
#259 = CYLINDRICAL_SURFACE ( 'NONE', #187, 12.70000000000003500 ) ;
#260 = ORIENTED_EDGE ( 'NONE', *, *, #39, .T. ) ;
#261 = PRESENTATION_LAYER_ASSIGNMENT (  '', '', ( #87 ) ) ;
#262 = ORIENTED_EDGE ( 'NONE', *, *, #68, .F. ) ;
#263 = FACE_OUTER_BOUND ( 'NONE', #185, .T. ) ;
#264 = ORIENTED_EDGE ( 'NONE', *, *, #4, .F. ) ;
#265 = PRODUCT ( '145065', '145065', '', ( #297 ) ) ;
#266 = DIRECTION ( 'NONE',  ( -1.000000000000000000, -0.0000000000000000000, -0.0000000000000000000 ) ) ;
#267 = DIRECTION ( 'NONE',  ( 0.0000000000000000000, 1.000000000000000000, 0.0000000000000000000 ) ) ;
#268 = DIRECTION ( 'NONE',  ( 0.0000000000000000000, 0.0000000000000000000, 1.000000000000000000 ) ) ;
#269 = AXIS2_PLACEMENT_3D ( 'NONE', #111, #29, #73 ) ;
#270 = ORIENTED_EDGE ( 'NONE', *, *, #347, .T. ) ;
#271 = AXIS2_PLACEMENT_3D ( 'NONE', #338, #112, #18 ) ;
#272 = DIRECTION ( 'NONE',  ( 0.0000000000000000000, 0.0000000000000000000, -1.000000000000000000 ) ) ;
#273 = CIRCLE ( 'NONE', #155, 12.70000000000008500 ) ;
#274 = AXIS2_PLACEMENT_3D ( 'NONE', #255, #330, #327 ) ;
#275 = SPHERICAL_SURFACE ( 'NONE', #182, 186.8000000000015700 ) ;
#276 = SPHERICAL_SURFACE ( 'NONE', #63, 557.3999999999999800 ) ;
#277 = ADVANCED_FACE ( 'NONE', ( #32 ), #340, .T. ) ;
#278 = PRESENTATION_STYLE_ASSIGNMENT (( #16 ) ) ;
#279 = FILL_AREA_STYLE_COLOUR ( '', #127 ) ;
#280 = COLOUR_RGB ( '',1.000000000000000000, 1.000000000000000000, 1.000000000000000000 ) ;
#281 = AXIS2_PLACEMENT_3D ( 'NONE', #105, #137, #25 ) ;
#282 = DIRECTION ( 'NONE',  ( -1.000000000000000000, -0.0000000000000000000, -0.0000000000000000000 ) ) ;
#283 = LINE ( 'NONE', #93, #66 ) ;
#284 = DIRECTION ( 'NONE',  ( 0.0000000000000000000, 1.000000000000000000, 0.0000000000000000000 ) ) ;
#285 = AXIS2_PLACEMENT_3D ( 'NONE', #223, #166, #272 ) ;
#286 = DIRECTION ( 'NONE',  ( 0.0000000000000000000, 1.000000000000000000, 0.0000000000000000000 ) ) ;
#287 = ORIENTED_EDGE ( 'NONE', *, *, #9, .T. ) ;
#288 = CARTESIAN_POINT ( 'NONE',  ( 367.2672290934566500, 0.0000000000000000000, 0.0000000000000000000 ) ) ;
#289 = DIRECTION ( 'NONE',  ( 0.0000000000000000000, 1.000000000000000000, 0.0000000000000000000 ) ) ;
#290 = EDGE_CURVE ( 'NONE', #178, #234, #116, .T. ) ;
#291 = FACE_OUTER_BOUND ( 'NONE', #86, .T. ) ;
#292 =( NAMED_UNIT ( * ) PLANE_ANGLE_UNIT ( ) SI_UNIT ( $, .RADIAN. ) );
#293 = MECHANICAL_DESIGN_GEOMETRIC_PRESENTATION_REPRESENTATION (  '', ( #233 ), #173 ) ;
#294 = CARTESIAN_POINT ( 'NONE',  ( 369.5547481011156500, 0.0000000000000000000, 12.69999999999998200 ) ) ;
#295 = AXIS2_PLACEMENT_3D ( 'NONE', #240, #257, #198 ) ;
#296 = FILL_AREA_STYLE_COLOUR ( '', #256 ) ;
#297 = PRODUCT_CONTEXT ( 'NONE', #136, 'mechanical' ) ;
#298 = LINE ( 'NONE', #64, #48 ) ;
#299 = MECHANICAL_DESIGN_GEOMETRIC_PRESENTATION_REPRESENTATION (  '', ( #28 ), #98 ) ;
#300 = SPHERICAL_SURFACE ( 'NONE', #11, 186.8000000000015700 ) ;
#301 = DIRECTION ( 'NONE',  ( 0.0000000000000000000, 0.0000000000000000000, 1.000000000000000000 ) ) ;
#302 = ORIENTED_EDGE ( 'NONE', *, *, #313, .F. ) ;
#303 = CYLINDRICAL_SURFACE ( 'NONE', #147, 12.70000000000003500 ) ;
#304 = ORIENTED_EDGE ( 'NONE', *, *, #162, .T. ) ;
#305 = CIRCLE ( 'NONE', #125, 337.2999999999999500 ) ;
#306 = DIRECTION ( 'NONE',  ( -1.000000000000000000, -0.0000000000000000000, -0.0000000000000000000 ) ) ;
#307 = ADVANCED_FACE ( 'NONE', ( #134 ), #14, .T. ) ;
#308 = DIRECTION ( 'NONE',  ( -1.000000000000000000, -0.0000000000000000000, -0.0000000000000000000 ) ) ;
#309 = FACE_OUTER_BOUND ( 'NONE', #323, .T. ) ;
#310 = LINE ( 'NONE', #318, #95 ) ;
#311 = EDGE_CURVE ( 'NONE', #67, #234, #122, .T. ) ;
#312 = DIRECTION ( 'NONE',  ( 0.0000000000000000000, 0.0000000000000000000, 1.000000000000000000 ) ) ;
#313 = EDGE_CURVE ( 'NONE', #169, #317, #94, .T. ) ;
#314 = DIRECTION ( 'NONE',  ( 0.0000000000000000000, 0.0000000000000000000, 1.000000000000000000 ) ) ;
#315 = SPHERICAL_SURFACE ( 'NONE', #274, 186.8000000000015700 ) ;
#316 = VERTEX_POINT ( 'NONE', #231 ) ;
#317 = VERTEX_POINT ( 'NONE', #161 ) ;
#318 = CARTESIAN_POINT ( 'NONE',  ( 235.8074506907544200, 0.0000000000000000000, 12.69999999999999800 ) ) ;
#319 = EDGE_LOOP ( 'NONE', ( #222, #221, #210 ) ) ;
#320 = DIRECTION ( 'NONE',  ( 0.0000000000000000000, 0.0000000000000000000, 1.000000000000000000 ) ) ;
#321 = EDGE_CURVE ( 'NONE', #142, #169, #310, .T. ) ;
#322 = VECTOR ( 'NONE', #235, 1000.000000000000000 ) ;
#323 = EDGE_LOOP ( 'NONE', ( #20, #270, #302, #141 ) ) ;
#324 = PRESENTATION_LAYER_ASSIGNMENT (  '', '', ( #28 ) ) ;
#325 = CARTESIAN_POINT ( 'NONE',  ( 363.9386221717757600, 0.0000000000000000000, 0.0000000000000000000 ) ) ;
#326 = EDGE_LOOP ( 'NONE', ( #128, #40, #89 ) ) ;
#327 = DIRECTION ( 'NONE',  ( 0.0000000000000000000, 0.0000000000000000000, 1.000000000000000000 ) ) ;
#328 = CARTESIAN_POINT ( 'NONE',  ( -187.7005524568961100, 0.0000000000000000000, 0.0000000000000000000 ) ) ;
#329 =( NAMED_UNIT ( * ) PLANE_ANGLE_UNIT ( ) SI_UNIT ( $, .RADIAN. ) );
#330 = DIRECTION ( 'NONE',  ( 0.0000000000000000000, 1.000000000000000000, 0.0000000000000000000 ) ) ;
#331 = VERTEX_POINT ( 'NONE', #143 ) ;
#332 = DIRECTION ( 'NONE',  ( 1.000000000000000000, 0.0000000000000000000, 0.0000000000000000000 ) ) ;
#333 = APPLICATION_PROTOCOL_DEFINITION ( 'draft international standard', 'automotive_design', 1998, #237 ) ;
#334 =( LENGTH_UNIT ( ) NAMED_UNIT ( * ) SI_UNIT ( .MILLI., .METRE. ) );
#335 = AXIS2_PLACEMENT_3D ( 'NONE', #179, #124, #314 ) ;
#336 = CARTESIAN_POINT ( 'NONE',  ( -0.5519199926577972300, 1.555301434917142800E-015, -12.70000000000003500 ) ) ;
#337 = ORIENTED_EDGE ( 'NONE', *, *, #101, .T. ) ;
#338 = CARTESIAN_POINT ( 'NONE',  ( 369.5547481011156500, 0.0000000000000000000, 0.0000000000000000000 ) ) ;
#339 = ORIENTED_EDGE ( 'NONE', *, *, #162, .F. ) ;
#340 = SPHERICAL_SURFACE ( 'NONE', #91, 337.2999999999999500 ) ;
#341 = ORIENTED_EDGE ( 'NONE', *, *, #239, .T. ) ;
#342 = FACE_OUTER_BOUND ( 'NONE', #201, .T. ) ;
#343 = DIRECTION ( 'NONE',  ( -1.000000000000000000, -0.0000000000000000000, -0.0000000000000000000 ) ) ;
#344 = ADVANCED_FACE ( 'NONE', ( #175 ), #300, .T. ) ;
#345 = CARTESIAN_POINT ( 'NONE',  ( 235.8074506907544200, 0.0000000000000000000, 0.0000000000000000000 ) ) ;
#346 = CARTESIAN_POINT ( 'NONE',  ( -0.5519199926577972300, 0.0000000000000000000, 0.0000000000000000000 ) ) ;
#347 = EDGE_CURVE ( 'NONE', #331, #317, #298, .T. ) ;
ENDSEC;
END-ISO-10303-21;
