ISO-10303-21;
HEADER;
FILE_DESCRIPTION (( 'STEP AP214' ),
    '1' );
FILE_NAME ('145066.STEP',
    '2019-05-15T02:00:04',
    ( 'user' ),
    ( 'Î¢ÈíÖÐ¹ú' ),
    'SwSTEP 2.0',
    'SolidWorks 2016',
    '' );
FILE_SCHEMA (( 'AUTOMOTIVE_DESIGN' ));
ENDSEC;

DATA;
#1 = AXIS2_PLACEMENT_3D ( 'NONE', #42, #12, #13 ) ;
#2 = FILL_AREA_STYLE_COLOUR ( '', #257 ) ;
#3 = SURFACE_STYLE_FILL_AREA ( #24 ) ;
#4 = ADVANCED_FACE ( 'NONE', ( #248 ), #152, .F. ) ;
#5 = CARTESIAN_POINT ( 'NONE',  ( -0.5519199926577972300, 0.0000000000000000000, 14.99999999999995200 ) ) ;
#6 = CARTESIAN_POINT ( 'NONE',  ( 206.1860697455990100, 0.0000000000000000000, 0.0000000000000000000 ) ) ;
#7 = ORIENTED_EDGE ( 'NONE', *, *, #299, .T. ) ;
#8 = DIRECTION ( 'NONE',  ( -1.000000000000000000, -0.0000000000000000000, -0.0000000000000000000 ) ) ;
#9 = ORIENTED_EDGE ( 'NONE', *, *, #85, .T. ) ;
#10 = SURFACE_SIDE_STYLE ('',( #268 ) ) ;
#11 = EDGE_CURVE ( 'NONE', #63, #69, #87, .T. ) ;
#12 = DIRECTION ( 'NONE',  ( -1.000000000000000000, -0.0000000000000000000, -0.0000000000000000000 ) ) ;
#13 = DIRECTION ( 'NONE',  ( 0.0000000000000000000, 0.0000000000000000000, 1.000000000000000000 ) ) ;
#14 = ORIENTED_EDGE ( 'NONE', *, *, #59, .F. ) ;
#15 = ORIENTED_EDGE ( 'NONE', *, *, #281, .F. ) ;
#16 = PRESENTATION_LAYER_ASSIGNMENT (  '', '', ( #313 ) ) ;
#17 = EDGE_LOOP ( 'NONE', ( #222, #105, #250 ) ) ;
#18 = CIRCLE ( 'NONE', #98, 29.40000000000025100 ) ;
#19 = CARTESIAN_POINT ( 'NONE',  ( 124.5233095260452400, 0.0000000000000000000, 14.99999999999995400 ) ) ;
#20 = CARTESIAN_POINT ( 'NONE',  ( 180.9005007387521300, 0.0000000000000000000, -2.168404344971008900E-016 ) ) ;
#21 = ORIENTED_EDGE ( 'NONE', *, *, #261, .T. ) ;
#22 = EDGE_CURVE ( 'NONE', #218, #283, #228, .T. ) ;
#23 = PRODUCT_DEFINITION_CONTEXT ( 'detailed design', #217, 'design' ) ;
#24 = FILL_AREA_STYLE ('',( #2 ) ) ;
#25 = EDGE_LOOP ( 'NONE', ( #155, #93, #214, #292 ) ) ;
#26 = CARTESIAN_POINT ( 'NONE',  ( 210.3005007387523900, 0.0000000000000000000, 1.583390360249523800E-015 ) ) ;
#27 = EDGE_CURVE ( 'NONE', #169, #283, #312, .T. ) ;
#28 = DIRECTION ( 'NONE',  ( 0.0000000000000000000, 0.0000000000000000000, 1.000000000000000000 ) ) ;
#29 = DIRECTION ( 'NONE',  ( 0.0000000000000000000, 0.0000000000000000000, 1.000000000000000000 ) ) ;
#30 = ADVANCED_FACE ( 'NONE', ( #92 ), #318, .T. ) ;
#31 = VECTOR ( 'NONE', #154, 1000.000000000000000 ) ;
#32 = FACE_OUTER_BOUND ( 'NONE', #146, .T. ) ;
#33 = CARTESIAN_POINT ( 'NONE',  ( 124.5233095260452400, 1.836970198721024100E-015, -14.99999999999995400 ) ) ;
#34 = APPLICATION_PROTOCOL_DEFINITION ( 'draft international standard', 'automotive_design', 1998, #217 ) ;
#35 = APPLICATION_CONTEXT ( 'automotive_design' ) ;
#36 = DIRECTION ( 'NONE',  ( 0.0000000000000000000, -1.224646799147353500E-016, 1.000000000000000000 ) ) ;
#37 = MECHANICAL_DESIGN_GEOMETRIC_PRESENTATION_REPRESENTATION (  '', ( #313 ), #53 ) ;
#38 = DIRECTION ( 'NONE',  ( 0.0000000000000000000, 0.0000000000000000000, 1.000000000000000000 ) ) ;
#39 = STYLED_ITEM ( 'NONE', ( #279 ), #234 ) ;
#40 = DIRECTION ( 'NONE',  ( -1.000000000000000000, -0.0000000000000000000, -0.0000000000000000000 ) ) ;
#41 = CIRCLE ( 'NONE', #186, 161.5000000000000000 ) ;
#42 = CARTESIAN_POINT ( 'NONE',  ( -0.5519199926577972300, 0.0000000000000000000, 0.0000000000000000000 ) ) ;
#43 = ORIENTED_EDGE ( 'NONE', *, *, #253, .F. ) ;
#44 = CIRCLE ( 'NONE', #195, 14.99999999999995400 ) ;
#45 = ORIENTED_EDGE ( 'NONE', *, *, #320, .F. ) ;
#46 = EDGE_CURVE ( 'NONE', #294, #218, #164, .T. ) ;
#47 =( GEOMETRIC_REPRESENTATION_CONTEXT ( 3 ) GLOBAL_UNCERTAINTY_ASSIGNED_CONTEXT ( ( #171 ) ) GLOBAL_UNIT_ASSIGNED_CONTEXT ( ( #206, #143, #97 ) ) REPRESENTATION_CONTEXT ( 'NONE', 'WORKASPACE' ) );
#48 = ORIENTED_EDGE ( 'NONE', *, *, #22, .T. ) ;
#49 = CARTESIAN_POINT ( 'NONE',  ( 180.9005007387521300, 0.0000000000000000000, -2.168404344971008900E-016 ) ) ;
#50 = CIRCLE ( 'NONE', #212, 14.99999999999995400 ) ;
#51 = DIRECTION ( 'NONE',  ( 0.0000000000000000000, 0.0000000000000000000, 1.000000000000000000 ) ) ;
#52 = CARTESIAN_POINT ( 'NONE',  ( 235.8005007387521900, 0.0000000000000000000, -1.006585888622910600E-013 ) ) ;
#53 =( GEOMETRIC_REPRESENTATION_CONTEXT ( 3 ) GLOBAL_UNCERTAINTY_ASSIGNED_CONTEXT ( ( #110 ) ) GLOBAL_UNIT_ASSIGNED_CONTEXT ( ( #307, #112, #277 ) ) REPRESENTATION_CONTEXT ( 'NONE', 'WORKASPACE' ) );
#54 = UNCERTAINTY_MEASURE_WITH_UNIT (LENGTH_MEASURE( 1.000000000000000100E-005 ), #305, 'distance_accuracy_value', 'NONE');
#55 = ADVANCED_FACE ( 'NONE', ( #102 ), #203, .T. ) ;
#56 = AXIS2_PLACEMENT_3D ( 'NONE', #325, #96, #345 ) ;
#57 = SPHERICAL_SURFACE ( 'NONE', #56, 161.5000000000000000 ) ;
#58 = CARTESIAN_POINT ( 'NONE',  ( 206.1860697455990100, 0.0000000000000000000, 0.0000000000000000000 ) ) ;
#59 = EDGE_CURVE ( 'NONE', #124, #169, #115, .T. ) ;
#60 = CARTESIAN_POINT ( 'NONE',  ( 124.5233095260452400, 0.0000000000000000000, 0.0000000000000000000 ) ) ;
#61 = PRODUCT_CONTEXT ( 'NONE', #35, 'mechanical' ) ;
#62 = CARTESIAN_POINT ( 'NONE',  ( 211.6023974937347700, 0.0000000000000000000, 0.0000000000000000000 ) ) ;
#63 = VERTEX_POINT ( 'NONE', #298 ) ;
#64 = CARTESIAN_POINT ( 'NONE',  ( 180.9005007387521300, 0.0000000000000000000, -2.168404344971008900E-016 ) ) ;
#65 = FACE_OUTER_BOUND ( 'NONE', #166, .T. ) ;
#66 = CARTESIAN_POINT ( 'NONE',  ( 206.1860697455990100, 1.836970198721024100E-015, -14.99999999999995400 ) ) ;
#67 = EDGE_LOOP ( 'NONE', ( #302, #140, #339, #89 ) ) ;
#68 = AXIS2_PLACEMENT_3D ( 'NONE', #306, #111, #275 ) ;
#69 = VERTEX_POINT ( 'NONE', #187 ) ;
#70 = DIRECTION ( 'NONE',  ( 0.0000000000000000000, 0.0000000000000000000, -1.000000000000000000 ) ) ;
#71 = CIRCLE ( 'NONE', #104, 33.99999999999997900 ) ;
#72 = ORIENTED_EDGE ( 'NONE', *, *, #199, .T. ) ;
#73 = CARTESIAN_POINT ( 'NONE',  ( 206.1860697455990100, 0.0000000000000000000, 0.0000000000000000000 ) ) ;
#74 = PRESENTATION_LAYER_ASSIGNMENT (  '', '', ( #39 ) ) ;
#75 = CLOSED_SHELL ( 'NONE', ( #181, #149, #237, #100, #55, #30 ) ) ;
#76 = SHAPE_DEFINITION_REPRESENTATION ( #138, #340 ) ;
#77 = EDGE_CURVE ( 'NONE', #223, #63, #41, .T. ) ;
#78 = EDGE_LOOP ( 'NONE', ( #278, #209, #15 ) ) ;
#79 = CARTESIAN_POINT ( 'NONE',  ( 205.2882081339675400, 1.836970198721024900E-015, -15.00000000000006200 ) ) ;
#80 = CIRCLE ( 'NONE', #239, 14.99999999999995000 ) ;
#81 = ORIENTED_EDGE ( 'NONE', *, *, #201, .T. ) ;
#82 = DIRECTION ( 'NONE',  ( 0.0000000000000000000, 0.0000000000000000000, 1.000000000000000000 ) ) ;
#83 = DIRECTION ( 'NONE',  ( 0.0000000000000000000, 1.000000000000000000, 0.0000000000000000000 ) ) ;
#84 = AXIS2_PLACEMENT_3D ( 'NONE', #249, #247, #38 ) ;
#85 = EDGE_CURVE ( 'NONE', #69, #177, #194, .T. ) ;
#86 = CARTESIAN_POINT ( 'NONE',  ( 50.80050073875241900, 0.0000000000000000000, 0.0000000000000000000 ) ) ;
#87 = LINE ( 'NONE', #129, #31 ) ;
#88 = CLOSED_SHELL ( 'NONE', ( #125, #211, #295, #4, #264, #330 ) ) ;
#89 = ORIENTED_EDGE ( 'NONE', *, *, #85, .F. ) ;
#90 = AXIS2_PLACEMENT_3D ( 'NONE', #293, #147, #232 ) ;
#91 = CARTESIAN_POINT ( 'NONE',  ( 180.9005007387521300, 0.0000000000000000000, -2.168404344971008900E-016 ) ) ;
#92 = FACE_OUTER_BOUND ( 'NONE', #17, .T. ) ;
#93 = ORIENTED_EDGE ( 'NONE', *, *, #11, .T. ) ;
#94 = FACE_OUTER_BOUND ( 'NONE', #198, .T. ) ;
#95 = DIRECTION ( 'NONE',  ( 0.0000000000000000000, 0.0000000000000000000, 1.000000000000000000 ) ) ;
#96 = DIRECTION ( 'NONE',  ( 0.0000000000000000000, 1.000000000000000000, 0.0000000000000000000 ) ) ;
#97 =( NAMED_UNIT ( * ) SI_UNIT ( $, .STERADIAN. ) SOLID_ANGLE_UNIT ( ) );
#98 = AXIS2_PLACEMENT_3D ( 'NONE', #64, #219, #36 ) ;
#99 = CARTESIAN_POINT ( 'NONE',  ( 212.3005007387524200, 0.0000000000000000000, 9.889022903114877400E-015 ) ) ;
#100 = ADVANCED_FACE ( 'NONE', ( #119 ), #337, .T. ) ;
#101 = AXIS2_PLACEMENT_3D ( 'NONE', #148, #319, #343 ) ;
#102 = FACE_OUTER_BOUND ( 'NONE', #116, .T. ) ;
#103 = FACE_OUTER_BOUND ( 'NONE', #190, .T. ) ;
#104 = AXIS2_PLACEMENT_3D ( 'NONE', #304, #132, #168 ) ;
#105 = ORIENTED_EDGE ( 'NONE', *, *, #59, .T. ) ;
#106 = DIRECTION ( 'NONE',  ( 0.0000000000000000000, 0.0000000000000000000, -1.000000000000000000 ) ) ;
#107 = CIRCLE ( 'NONE', #332, 14.99999999999995000 ) ;
#108 = DIRECTION ( 'NONE',  ( 0.0000000000000000000, -1.000000000000000000, 0.0000000000000000000 ) ) ;
#109 =( NAMED_UNIT ( * ) PLANE_ANGLE_UNIT ( ) SI_UNIT ( $, .RADIAN. ) );
#110 = UNCERTAINTY_MEASURE_WITH_UNIT (LENGTH_MEASURE( 1.000000000000000100E-005 ), #307, 'distance_accuracy_value', 'NONE');
#111 = DIRECTION ( 'NONE',  ( 0.0000000000000000000, -1.000000000000000000, 0.0000000000000000000 ) ) ;
#112 =( NAMED_UNIT ( * ) PLANE_ANGLE_UNIT ( ) SI_UNIT ( $, .RADIAN. ) );
#113 = VERTEX_POINT ( 'NONE', #204 ) ;
#114 = VECTOR ( 'NONE', #183, 1000.000000000000000 ) ;
#115 = CIRCLE ( 'NONE', #255, 29.40000000000025100 ) ;
#116 = EDGE_LOOP ( 'NONE', ( #321, #72, #118, #273 ) ) ;
#117 =( GEOMETRIC_REPRESENTATION_CONTEXT ( 3 ) GLOBAL_UNCERTAINTY_ASSIGNED_CONTEXT ( ( #54 ) ) GLOBAL_UNIT_ASSIGNED_CONTEXT ( ( #305, #109, #274 ) ) REPRESENTATION_CONTEXT ( 'NONE', 'WORKASPACE' ) );
#118 = ORIENTED_EDGE ( 'NONE', *, *, #27, .T. ) ;
#119 = FACE_OUTER_BOUND ( 'NONE', #288, .T. ) ;
#120 = DIRECTION ( 'NONE',  ( 0.0000000000000000000, 0.0000000000000000000, 1.000000000000000000 ) ) ;
#121 = CARTESIAN_POINT ( 'NONE',  ( -0.5519199926577972300, 0.0000000000000000000, 0.0000000000000000000 ) ) ;
#122 = DIRECTION ( 'NONE',  ( -1.000000000000000000, -0.0000000000000000000, -0.0000000000000000000 ) ) ;
#123 = DIRECTION ( 'NONE',  ( -0.0000000000000000000, 1.000000000000000000, 1.224646799147353200E-016 ) ) ;
#124 = VERTEX_POINT ( 'NONE', #26 ) ;
#125 = ADVANCED_FACE ( 'NONE', ( #32 ), #57, .T. ) ;
#126 = ORIENTED_EDGE ( 'NONE', *, *, #253, .T. ) ;
#127 = CYLINDRICAL_SURFACE ( 'NONE', #160, 14.99999999999995200 ) ;
#128 = DIRECTION ( 'NONE',  ( 0.0000000000000000000, 1.000000000000000000, 0.0000000000000000000 ) ) ;
#129 = CARTESIAN_POINT ( 'NONE',  ( -0.5519199926577972300, 1.836970198721023700E-015, -14.99999999999995200 ) ) ;
#130 =( NAMED_UNIT ( * ) PLANE_ANGLE_UNIT ( ) SI_UNIT ( $, .RADIAN. ) );
#131 = ORIENTED_EDGE ( 'NONE', *, *, #216, .T. ) ;
#132 = DIRECTION ( 'NONE',  ( -0.0000000000000000000, 1.000000000000000000, 1.224646799147353200E-016 ) ) ;
#133 = AXIS2_PLACEMENT_3D ( 'NONE', #86, #83, #191 ) ;
#134 = ORIENTED_EDGE ( 'NONE', *, *, #46, .T. ) ;
#135 = SURFACE_STYLE_USAGE ( .BOTH. , #336 ) ;
#136 = DIRECTION ( 'NONE',  ( 0.0000000000000000000, 0.0000000000000000000, 1.000000000000000000 ) ) ;
#137 = EDGE_LOOP ( 'NONE', ( #230, #142, #9 ) ) ;
#138 = PRODUCT_DEFINITION_SHAPE ( 'NONE', 'NONE',  #309 ) ;
#139 = VERTEX_POINT ( 'NONE', #182 ) ;
#140 = ORIENTED_EDGE ( 'NONE', *, *, #281, .T. ) ;
#141 = CYLINDRICAL_SURFACE ( 'NONE', #1, 14.99999999999995200 ) ;
#142 = ORIENTED_EDGE ( 'NONE', *, *, #320, .T. ) ;
#143 =( NAMED_UNIT ( * ) PLANE_ANGLE_UNIT ( ) SI_UNIT ( $, .RADIAN. ) );
#144 = SPHERICAL_SURFACE ( 'NONE', #84, 29.40000000000025100 ) ;
#145 = DIRECTION ( 'NONE',  ( 0.0000000000000000000, -1.224646799147353500E-016, 1.000000000000000000 ) ) ;
#146 = EDGE_LOOP ( 'NONE', ( #323, #240, #262 ) ) ;
#147 = DIRECTION ( 'NONE',  ( 0.0000000000000000000, 1.000000000000000000, 0.0000000000000000000 ) ) ;
#148 = CARTESIAN_POINT ( 'NONE',  ( 206.1860697455990100, 0.0000000000000000000, 0.0000000000000000000 ) ) ;
#149 = ADVANCED_FACE ( 'NONE', ( #94 ), #322, .T. ) ;
#150 = FACE_OUTER_BOUND ( 'NONE', #67, .T. ) ;
#151 = FACE_OUTER_BOUND ( 'NONE', #78, .T. ) ;
#152 = SPHERICAL_SURFACE ( 'NONE', #245, 29.40000000000025100 ) ;
#153 = ORIENTED_EDGE ( 'NONE', *, *, #201, .F. ) ;
#154 = DIRECTION ( 'NONE',  ( -1.000000000000000000, -0.0000000000000000000, -0.0000000000000000000 ) ) ;
#155 = ORIENTED_EDGE ( 'NONE', *, *, #254, .T. ) ;
#156 = COLOUR_RGB ( '',1.000000000000000000, 1.000000000000000000, 1.000000000000000000 ) ;
#157 = DIRECTION ( 'NONE',  ( -1.000000000000000000, -0.0000000000000000000, -0.0000000000000000000 ) ) ;
#158 = SURFACE_STYLE_USAGE ( .BOTH. , #10 ) ;
#159 = CARTESIAN_POINT ( 'NONE',  ( 201.8005007387522200, 0.0000000000000000000, -9.857668930374055800E-014 ) ) ;
#160 = AXIS2_PLACEMENT_3D ( 'NONE', #121, #327, #185 ) ;
#161 = FILL_AREA_STYLE_COLOUR ( '', #342 ) ;
#162 = FILL_AREA_STYLE ('',( #280 ) ) ;
#163 = EDGE_CURVE ( 'NONE', #124, #294, #167, .T. ) ;
#164 = LINE ( 'NONE', #33, #329 ) ;
#165 = CARTESIAN_POINT ( 'NONE',  ( 205.2882081339675400, 0.0000000000000000000, 0.0000000000000000000 ) ) ;
#166 = EDGE_LOOP ( 'NONE', ( #21, #126, #205 ) ) ;
#167 = CIRCLE ( 'NONE', #267, 29.40000000000025100 ) ;
#168 = DIRECTION ( 'NONE',  ( 0.0000000000000000000, -1.224646799147353500E-016, 1.000000000000000000 ) ) ;
#169 = VERTEX_POINT ( 'NONE', #231 ) ;
#170 = EDGE_CURVE ( 'NONE', #223, #139, #241, .T. ) ;
#171 = UNCERTAINTY_MEASURE_WITH_UNIT (LENGTH_MEASURE( 1.000000000000000100E-005 ), #206, 'distance_accuracy_value', 'NONE');
#172 = STYLED_ITEM ( 'NONE', ( #196 ), #340 ) ;
#173 = CARTESIAN_POINT ( 'NONE',  ( 180.9005007387521300, 0.0000000000000000000, -2.168404344971008900E-016 ) ) ;
#174 = AXIS2_PLACEMENT_3D ( 'NONE', #202, #229, #29 ) ;
#175 = SPHERICAL_SURFACE ( 'NONE', #174, 29.40000000000025100 ) ;
#176 = DIRECTION ( 'NONE',  ( 0.0000000000000000000, -1.000000000000000000, 0.0000000000000000000 ) ) ;
#177 = VERTEX_POINT ( 'NONE', #344 ) ;
#178 = CARTESIAN_POINT ( 'NONE',  ( 180.9005007387521300, 0.0000000000000000000, -2.168404344971008900E-016 ) ) ;
#179 = DIRECTION ( 'NONE',  ( 0.0000000000000000000, 0.0000000000000000000, -1.000000000000000000 ) ) ;
#180 = EDGE_CURVE ( 'NONE', #113, #177, #265, .T. ) ;
#181 = ADVANCED_FACE ( 'NONE', ( #103 ), #175, .T. ) ;
#182 = CARTESIAN_POINT ( 'NONE',  ( 211.6023974937347700, 0.0000000000000000000, 14.99999999999995000 ) ) ;
#183 = DIRECTION ( 'NONE',  ( -1.000000000000000000, -0.0000000000000000000, -0.0000000000000000000 ) ) ;
#184 = FACE_OUTER_BOUND ( 'NONE', #25, .T. ) ;
#185 = DIRECTION ( 'NONE',  ( 0.0000000000000000000, 0.0000000000000000000, 1.000000000000000000 ) ) ;
#186 = AXIS2_PLACEMENT_3D ( 'NONE', #347, #123, #326 ) ;
#187 = CARTESIAN_POINT ( 'NONE',  ( 206.1860697455990100, 1.836970198721024100E-015, -14.99999999999995400 ) ) ;
#188 = DIRECTION ( 'NONE',  ( 0.0000000000000000000, 1.000000000000000000, 0.0000000000000000000 ) ) ;
#189 = FILL_AREA_STYLE ('',( #161 ) ) ;
#190 = EDGE_LOOP ( 'NONE', ( #14, #282, #153 ) ) ;
#191 = DIRECTION ( 'NONE',  ( 0.0000000000000000000, 0.0000000000000000000, 1.000000000000000000 ) ) ;
#192 = PRESENTATION_LAYER_ASSIGNMENT (  '', '', ( #172 ) ) ;
#193 = DIRECTION ( 'NONE',  ( 0.0000000000000000000, 0.0000000000000000000, 1.000000000000000000 ) ) ;
#194 = CIRCLE ( 'NONE', #284, 14.99999999999995400 ) ;
#195 = AXIS2_PLACEMENT_3D ( 'NONE', #6, #236, #213 ) ;
#196 = PRESENTATION_STYLE_ASSIGNMENT (( #158 ) ) ;
#197 = EDGE_CURVE ( 'NONE', #139, #177, #251, .T. ) ;
#198 = EDGE_LOOP ( 'NONE', ( #81, #134, #300, #314 ) ) ;
#199 = EDGE_CURVE ( 'NONE', #294, #169, #44, .T. ) ;
#200 = CIRCLE ( 'NONE', #101, 14.99999999999995400 ) ;
#201 = EDGE_CURVE ( 'NONE', #169, #294, #50, .T. ) ;
#202 = CARTESIAN_POINT ( 'NONE',  ( 180.9005007387521300, 0.0000000000000000000, -2.168404344971008900E-016 ) ) ;
#203 = CYLINDRICAL_SURFACE ( 'NONE', #316, 14.99999999999995400 ) ;
#204 = CARTESIAN_POINT ( 'NONE',  ( 210.3005007387523900, 0.0000000000000000000, 1.583390360249523800E-015 ) ) ;
#205 = ORIENTED_EDGE ( 'NONE', *, *, #299, .F. ) ;
#206 =( LENGTH_UNIT ( ) NAMED_UNIT ( * ) SI_UNIT ( .MILLI., .METRE. ) );
#207 = PRODUCT ( '145066', '145066', '', ( #61 ) ) ;
#208 = DIRECTION ( 'NONE',  ( 0.0000000000000000000, 1.000000000000000000, 0.0000000000000000000 ) ) ;
#209 = ORIENTED_EDGE ( 'NONE', *, *, #170, .T. ) ;
#210 = MECHANICAL_DESIGN_GEOMETRIC_PRESENTATION_REPRESENTATION (  '', ( #172 ), #224 ) ;
#211 = ADVANCED_FACE ( 'NONE', ( #184 ), #127, .T. ) ;
#212 = AXIS2_PLACEMENT_3D ( 'NONE', #58, #301, #269 ) ;
#213 = DIRECTION ( 'NONE',  ( 0.0000000000000000000, 0.0000000000000000000, 1.000000000000000000 ) ) ;
#214 = ORIENTED_EDGE ( 'NONE', *, *, #216, .F. ) ;
#215 = DIRECTION ( 'NONE',  ( -1.000000000000000000, -0.0000000000000000000, -0.0000000000000000000 ) ) ;
#216 = EDGE_CURVE ( 'NONE', #177, #69, #200, .T. ) ;
#217 = APPLICATION_CONTEXT ( 'automotive_design' ) ;
#218 = VERTEX_POINT ( 'NONE', #79 ) ;
#219 = DIRECTION ( 'NONE',  ( -0.0000000000000000000, 1.000000000000000000, 1.224646799147353200E-016 ) ) ;
#220 = ORIENTED_EDGE ( 'NONE', *, *, #180, .T. ) ;
#221 = CARTESIAN_POINT ( 'NONE',  ( 211.6023974937347700, 0.0000000000000000000, 0.0000000000000000000 ) ) ;
#222 = ORIENTED_EDGE ( 'NONE', *, *, #163, .F. ) ;
#223 = VERTEX_POINT ( 'NONE', #99 ) ;
#224 =( GEOMETRIC_REPRESENTATION_CONTEXT ( 3 ) GLOBAL_UNCERTAINTY_ASSIGNED_CONTEXT ( ( #317 ) ) GLOBAL_UNIT_ASSIGNED_CONTEXT ( ( #335, #130, #303 ) ) REPRESENTATION_CONTEXT ( 'NONE', 'WORKASPACE' ) );
#225 = CIRCLE ( 'NONE', #68, 33.99999999999997900 ) ;
#226 = SURFACE_STYLE_FILL_AREA ( #162 ) ;
#227 = AXIS2_PLACEMENT_3D ( 'NONE', #91, #286, #179 ) ;
#228 = CIRCLE ( 'NONE', #235, 14.99999999999995600 ) ;
#229 = DIRECTION ( 'NONE',  ( 0.0000000000000000000, 1.000000000000000000, 0.0000000000000000000 ) ) ;
#230 = ORIENTED_EDGE ( 'NONE', *, *, #180, .F. ) ;
#231 = CARTESIAN_POINT ( 'NONE',  ( 206.1860697455990100, 0.0000000000000000000, 14.99999999999995400 ) ) ;
#232 = DIRECTION ( 'NONE',  ( 0.0000000000000000000, 0.0000000000000000000, 1.000000000000000000 ) ) ;
#233 = SURFACE_SIDE_STYLE ('',( #3 ) ) ;
#234 = MANIFOLD_SOLID_BREP ( 'Ðý×ª3', #88 ) ;
#235 = AXIS2_PLACEMENT_3D ( 'NONE', #256, #157, #334 ) ;
#236 = DIRECTION ( 'NONE',  ( -1.000000000000000000, -0.0000000000000000000, -0.0000000000000000000 ) ) ;
#237 = ADVANCED_FACE ( 'NONE', ( #65 ), #331, .T. ) ;
#238 = VECTOR ( 'NONE', #8, 1000.000000000000000 ) ;
#239 = AXIS2_PLACEMENT_3D ( 'NONE', #62, #242, #28 ) ;
#240 = ORIENTED_EDGE ( 'NONE', *, *, #77, .T. ) ;
#241 = CIRCLE ( 'NONE', #258, 161.5000000000000000 ) ;
#242 = DIRECTION ( 'NONE',  ( -1.000000000000000000, -0.0000000000000000000, -0.0000000000000000000 ) ) ;
#243 = DIRECTION ( 'NONE',  ( 0.0000000000000000000, 0.0000000000000000000, 1.000000000000000000 ) ) ;
#244 = DIRECTION ( 'NONE',  ( 1.000000000000000000, 0.0000000000000000000, 0.0000000000000000000 ) ) ;
#245 = AXIS2_PLACEMENT_3D ( 'NONE', #20, #188, #333 ) ;
#246 = APPLICATION_PROTOCOL_DEFINITION ( 'draft international standard', 'automotive_design', 1998, #35 ) ;
#247 = DIRECTION ( 'NONE',  ( 0.0000000000000000000, 1.000000000000000000, 0.0000000000000000000 ) ) ;
#248 = FACE_OUTER_BOUND ( 'NONE', #315, .T. ) ;
#249 = CARTESIAN_POINT ( 'NONE',  ( 180.9005007387521300, 0.0000000000000000000, -2.168404344971008900E-016 ) ) ;
#250 = ORIENTED_EDGE ( 'NONE', *, *, #199, .F. ) ;
#251 = LINE ( 'NONE', #5, #114 ) ;
#252 = AXIS2_PLACEMENT_3D ( 'NONE', #290, #122, #95 ) ;
#253 = EDGE_CURVE ( 'NONE', #218, #346, #71, .T. ) ;
#254 = EDGE_CURVE ( 'NONE', #139, #63, #80, .T. ) ;
#255 = AXIS2_PLACEMENT_3D ( 'NONE', #49, #108, #106 ) ;
#256 = CARTESIAN_POINT ( 'NONE',  ( 205.2882081339675400, 0.0000000000000000000, 0.0000000000000000000 ) ) ;
#257 = COLOUR_RGB ( '',1.000000000000000000, 1.000000000000000000, 1.000000000000000000 ) ;
#258 = AXIS2_PLACEMENT_3D ( 'NONE', #289, #176, #70 ) ;
#259 = AXIS2_PLACEMENT_3D ( 'NONE', #173, #128, #120 ) ;
#260 = DIRECTION ( 'NONE',  ( -1.000000000000000000, -0.0000000000000000000, -0.0000000000000000000 ) ) ;
#261 = EDGE_CURVE ( 'NONE', #283, #218, #308, .T. ) ;
#262 = ORIENTED_EDGE ( 'NONE', *, *, #254, .F. ) ;
#263 = SURFACE_STYLE_USAGE ( .BOTH. , #233 ) ;
#264 = ADVANCED_FACE ( 'NONE', ( #150 ), #141, .T. ) ;
#265 = CIRCLE ( 'NONE', #227, 29.40000000000025100 ) ;
#266 = PRESENTATION_STYLE_ASSIGNMENT (( #135 ) ) ;
#267 = AXIS2_PLACEMENT_3D ( 'NONE', #178, #324, #145 ) ;
#268 = SURFACE_STYLE_FILL_AREA ( #189 ) ;
#269 = DIRECTION ( 'NONE',  ( 0.0000000000000000000, 0.0000000000000000000, 1.000000000000000000 ) ) ;
#270 = DIRECTION ( 'NONE',  ( -1.000000000000000000, -0.0000000000000000000, -0.0000000000000000000 ) ) ;
#271 = DIRECTION ( 'NONE',  ( 0.0000000000000000000, 0.0000000000000000000, 1.000000000000000000 ) ) ;
#272 = CARTESIAN_POINT ( 'NONE',  ( 0.0000000000000000000, 0.0000000000000000000, 0.0000000000000000000 ) ) ;
#273 = ORIENTED_EDGE ( 'NONE', *, *, #22, .F. ) ;
#274 =( NAMED_UNIT ( * ) SI_UNIT ( $, .STERADIAN. ) SOLID_ANGLE_UNIT ( ) );
#275 = DIRECTION ( 'NONE',  ( 0.0000000000000000000, 0.0000000000000000000, -1.000000000000000000 ) ) ;
#276 = MECHANICAL_DESIGN_GEOMETRIC_PRESENTATION_REPRESENTATION (  '', ( #39 ), #47 ) ;
#277 =( NAMED_UNIT ( * ) SI_UNIT ( $, .STERADIAN. ) SOLID_ANGLE_UNIT ( ) );
#278 = ORIENTED_EDGE ( 'NONE', *, *, #77, .F. ) ;
#279 = PRESENTATION_STYLE_ASSIGNMENT (( #263 ) ) ;
#280 = FILL_AREA_STYLE_COLOUR ( '', #156 ) ;
#281 = EDGE_CURVE ( 'NONE', #63, #139, #107, .T. ) ;
#282 = ORIENTED_EDGE ( 'NONE', *, *, #163, .T. ) ;
#283 = VERTEX_POINT ( 'NONE', #311 ) ;
#284 = AXIS2_PLACEMENT_3D ( 'NONE', #73, #260, #51 ) ;
#285 = AXIS2_PLACEMENT_3D ( 'NONE', #272, #82, #244 ) ;
#286 = DIRECTION ( 'NONE',  ( 0.0000000000000000000, -1.000000000000000000, 0.0000000000000000000 ) ) ;
#287 = AXIS2_PLACEMENT_3D ( 'NONE', #165, #338, #136 ) ;
#288 = EDGE_LOOP ( 'NONE', ( #43, #48, #7 ) ) ;
#289 = CARTESIAN_POINT ( 'NONE',  ( 50.80050073875241900, 0.0000000000000000000, 0.0000000000000000000 ) ) ;
#290 = CARTESIAN_POINT ( 'NONE',  ( 124.5233095260452400, 0.0000000000000000000, 0.0000000000000000000 ) ) ;
#291 = MANIFOLD_SOLID_BREP ( 'Ðý×ª1', #75 ) ;
#292 = ORIENTED_EDGE ( 'NONE', *, *, #197, .F. ) ;
#293 = CARTESIAN_POINT ( 'NONE',  ( 235.8005007387521900, 0.0000000000000000000, -1.006585888622910600E-013 ) ) ;
#294 = VERTEX_POINT ( 'NONE', #66 ) ;
#295 = ADVANCED_FACE ( 'NONE', ( #310 ), #144, .F. ) ;
#296 = AXIS2_PLACEMENT_3D ( 'NONE', #52, #208, #271 ) ;
#297 = SPHERICAL_SURFACE ( 'NONE', #133, 161.5000000000000000 ) ;
#298 = CARTESIAN_POINT ( 'NONE',  ( 211.6023974937347700, 1.836970198721023700E-015, -14.99999999999995000 ) ) ;
#299 = EDGE_CURVE ( 'NONE', #283, #346, #225, .T. ) ;
#300 = ORIENTED_EDGE ( 'NONE', *, *, #261, .F. ) ;
#301 = DIRECTION ( 'NONE',  ( -1.000000000000000000, -0.0000000000000000000, -0.0000000000000000000 ) ) ;
#302 = ORIENTED_EDGE ( 'NONE', *, *, #11, .F. ) ;
#303 =( NAMED_UNIT ( * ) SI_UNIT ( $, .STERADIAN. ) SOLID_ANGLE_UNIT ( ) );
#304 = CARTESIAN_POINT ( 'NONE',  ( 235.8005007387521900, 0.0000000000000000000, -1.006585888622910600E-013 ) ) ;
#305 =( LENGTH_UNIT ( ) NAMED_UNIT ( * ) SI_UNIT ( .MILLI., .METRE. ) );
#306 = CARTESIAN_POINT ( 'NONE',  ( 235.8005007387521900, 0.0000000000000000000, -1.006585888622910600E-013 ) ) ;
#307 =( LENGTH_UNIT ( ) NAMED_UNIT ( * ) SI_UNIT ( .MILLI., .METRE. ) );
#308 = CIRCLE ( 'NONE', #287, 14.99999999999995600 ) ;
#309 = PRODUCT_DEFINITION ( 'Î´Öª', '', #328, #23 ) ;
#310 = FACE_OUTER_BOUND ( 'NONE', #137, .T. ) ;
#311 = CARTESIAN_POINT ( 'NONE',  ( 205.2882081339675400, 0.0000000000000000000, 14.99999999999996100 ) ) ;
#312 = LINE ( 'NONE', #19, #238 ) ;
#313 = STYLED_ITEM ( 'NONE', ( #266 ), #291 ) ;
#314 = ORIENTED_EDGE ( 'NONE', *, *, #27, .F. ) ;
#315 = EDGE_LOOP ( 'NONE', ( #45, #220, #131 ) ) ;
#316 = AXIS2_PLACEMENT_3D ( 'NONE', #60, #215, #243 ) ;
#317 = UNCERTAINTY_MEASURE_WITH_UNIT (LENGTH_MEASURE( 1.000000000000000100E-005 ), #335, 'distance_accuracy_value', 'NONE');
#318 = SPHERICAL_SURFACE ( 'NONE', #259, 29.40000000000025100 ) ;
#319 = DIRECTION ( 'NONE',  ( -1.000000000000000000, -0.0000000000000000000, -0.0000000000000000000 ) ) ;
#320 = EDGE_CURVE ( 'NONE', #113, #69, #18, .T. ) ;
#321 = ORIENTED_EDGE ( 'NONE', *, *, #46, .F. ) ;
#322 = CYLINDRICAL_SURFACE ( 'NONE', #252, 14.99999999999995400 ) ;
#323 = ORIENTED_EDGE ( 'NONE', *, *, #170, .F. ) ;
#324 = DIRECTION ( 'NONE',  ( -0.0000000000000000000, 1.000000000000000000, 1.224646799147353200E-016 ) ) ;
#325 = CARTESIAN_POINT ( 'NONE',  ( 50.80050073875241900, 0.0000000000000000000, 0.0000000000000000000 ) ) ;
#326 = DIRECTION ( 'NONE',  ( 0.0000000000000000000, -1.224646799147353200E-016, 1.000000000000000000 ) ) ;
#327 = DIRECTION ( 'NONE',  ( -1.000000000000000000, -0.0000000000000000000, -0.0000000000000000000 ) ) ;
#328 = PRODUCT_DEFINITION_FORMATION_WITH_SPECIFIED_SOURCE ( 'ÈÎºÎ', '', #207, .NOT_KNOWN. ) ;
#329 = VECTOR ( 'NONE', #270, 1000.000000000000000 ) ;
#330 = ADVANCED_FACE ( 'NONE', ( #151 ), #297, .T. ) ;
#331 = SPHERICAL_SURFACE ( 'NONE', #296, 33.99999999999997900 ) ;
#332 = AXIS2_PLACEMENT_3D ( 'NONE', #221, #40, #193 ) ;
#333 = DIRECTION ( 'NONE',  ( 0.0000000000000000000, 0.0000000000000000000, 1.000000000000000000 ) ) ;
#334 = DIRECTION ( 'NONE',  ( 0.0000000000000000000, 0.0000000000000000000, 1.000000000000000000 ) ) ;
#335 =( LENGTH_UNIT ( ) NAMED_UNIT ( * ) SI_UNIT ( .MILLI., .METRE. ) );
#336 = SURFACE_SIDE_STYLE ('',( #226 ) ) ;
#337 = SPHERICAL_SURFACE ( 'NONE', #90, 33.99999999999997900 ) ;
#338 = DIRECTION ( 'NONE',  ( -1.000000000000000000, -0.0000000000000000000, -0.0000000000000000000 ) ) ;
#339 = ORIENTED_EDGE ( 'NONE', *, *, #197, .T. ) ;
#340 = ADVANCED_BREP_SHAPE_REPRESENTATION ( '145066', ( #291, #234, #285 ), #117 ) ;
#341 = PRODUCT_RELATED_PRODUCT_CATEGORY ( 'part', '', ( #207 ) ) ;
#342 = COLOUR_RGB ( '',1.000000000000000000, 1.000000000000000000, 1.000000000000000000 ) ;
#343 = DIRECTION ( 'NONE',  ( 0.0000000000000000000, 0.0000000000000000000, 1.000000000000000000 ) ) ;
#344 = CARTESIAN_POINT ( 'NONE',  ( 206.1860697455990100, 0.0000000000000000000, 14.99999999999995400 ) ) ;
#345 = DIRECTION ( 'NONE',  ( 0.0000000000000000000, 0.0000000000000000000, 1.000000000000000000 ) ) ;
#346 = VERTEX_POINT ( 'NONE', #159 ) ;
#347 = CARTESIAN_POINT ( 'NONE',  ( 50.80050073875241900, 0.0000000000000000000, 0.0000000000000000000 ) ) ;
ENDSEC;
END-ISO-10303-21;
