ISO-10303-21;
HEADER;
FILE_DESCRIPTION (( 'STEP AP214' ),
    '1' );
FILE_NAME ('145067.STEP',
    '2019-05-15T02:46:51',
    ( 'user' ),
    ( 'Î¢ÈíÖÐ¹ú' ),
    'SwSTEP 2.0',
    'SolidWorks 2016',
    '' );
FILE_SCHEMA (( 'AUTOMOTIVE_DESIGN' ));
ENDSEC;

DATA;
#1 = VERTEX_POINT ( 'NONE', #303 ) ;
#2 = EDGE_LOOP ( 'NONE', ( #154, #153, #326 ) ) ;
#3 = EDGE_CURVE ( 'NONE', #75, #158, #184, .T. ) ;
#4 = DIRECTION ( 'NONE',  ( -1.000000000000000000, -0.0000000000000000000, -0.0000000000000000000 ) ) ;
#5 = PRODUCT_DEFINITION ( 'Î´Öª', '', #26, #144 ) ;
#6 = CARTESIAN_POINT ( 'NONE',  ( 272.6005007387521500, 0.0000000000000000000, -1.719164005983981800E-013 ) ) ;
#7 = ORIENTED_EDGE ( 'NONE', *, *, #229, .F. ) ;
#8 = CARTESIAN_POINT ( 'NONE',  ( 124.5233095260452400, 1.836970198721020500E-015, -14.99999999999992400 ) ) ;
#9 = SPHERICAL_SURFACE ( 'NONE', #77, 219.8000000000000100 ) ;
#10 = SPHERICAL_SURFACE ( 'NONE', #209, 44.20000000000000300 ) ;
#11 = SURFACE_SIDE_STYLE ('',( #239 ) ) ;
#12 = CARTESIAN_POINT ( 'NONE',  ( 180.9005007387521300, 0.0000000000000000000, -2.168404344971008900E-016 ) ) ;
#13 = EDGE_LOOP ( 'NONE', ( #215, #313, #210 ) ) ;
#14 = CARTESIAN_POINT ( 'NONE',  ( 225.1005007387521500, 0.0000000000000000000, 2.489628991618550100E-015 ) ) ;
#15 = STYLED_ITEM ( 'NONE', ( #198 ), #141 ) ;
#16 = CIRCLE ( 'NONE', #179, 44.20000000000000300 ) ;
#17 = DIRECTION ( 'NONE',  ( 0.0000000000000000000, 1.000000000000000000, 0.0000000000000000000 ) ) ;
#18 = AXIS2_PLACEMENT_3D ( 'NONE', #12, #79, #84 ) ;
#19 = DIRECTION ( 'NONE',  ( 0.0000000000000000000, 1.000000000000000000, 0.0000000000000000000 ) ) ;
#20 = PRODUCT_DEFINITION_SHAPE ( 'NONE', 'NONE',  #5 ) ;
#21 = DIRECTION ( 'NONE',  ( -1.000000000000000000, -0.0000000000000000000, -0.0000000000000000000 ) ) ;
#22 = FACE_OUTER_BOUND ( 'NONE', #2, .T. ) ;
#23 = CARTESIAN_POINT ( 'NONE',  ( 272.6005007387521500, 0.0000000000000000000, -1.719164005983981800E-013 ) ) ;
#24 = EDGE_LOOP ( 'NONE', ( #104, #37, #270, #293 ) ) ;
#25 = VECTOR ( 'NONE', #204, 1000.000000000000000 ) ;
#26 = PRODUCT_DEFINITION_FORMATION_WITH_SPECIFIED_SOURCE ( 'ÈÎºÎ', '', #33, .NOT_KNOWN. ) ;
#27 = EDGE_LOOP ( 'NONE', ( #241, #142, #206, #112 ) ) ;
#28 = CIRCLE ( 'NONE', #18, 44.20000000000000300 ) ;
#29 = ADVANCED_FACE ( 'NONE', ( #252 ), #332, .T. ) ;
#30 = ORIENTED_EDGE ( 'NONE', *, *, #165, .T. ) ;
#31 = CARTESIAN_POINT ( 'NONE',  ( -0.5519199926577972300, 1.836970198721020900E-015, -14.99999999999992700 ) ) ;
#32 = AXIS2_PLACEMENT_3D ( 'NONE', #304, #109, #342 ) ;
#33 = PRODUCT ( '145067', '145067', '', ( #329 ) ) ;
#34 = DIRECTION ( 'NONE',  ( -1.000000000000000000, -0.0000000000000000000, -0.0000000000000000000 ) ) ;
#35 = ORIENTED_EDGE ( 'NONE', *, *, #138, .F. ) ;
#36 =( LENGTH_UNIT ( ) NAMED_UNIT ( * ) SI_UNIT ( .MILLI., .METRE. ) );
#37 = ORIENTED_EDGE ( 'NONE', *, *, #92, .T. ) ;
#38 = DIRECTION ( 'NONE',  ( 0.0000000000000000000, 0.0000000000000000000, -1.000000000000000000 ) ) ;
#39 = UNCERTAINTY_MEASURE_WITH_UNIT (LENGTH_MEASURE( 1.000000000000000100E-005 ), #36, 'distance_accuracy_value', 'NONE');
#40 = EDGE_LOOP ( 'NONE', ( #126, #235, #324 ) ) ;
#41 = ORIENTED_EDGE ( 'NONE', *, *, #157, .T. ) ;
#42 = CARTESIAN_POINT ( 'NONE',  ( 124.5233095260452400, 0.0000000000000000000, 14.99999999999992400 ) ) ;
#43 = PRODUCT_RELATED_PRODUCT_CATEGORY ( 'part', '', ( #33 ) ) ;
#44 = DIRECTION ( 'NONE',  ( 0.0000000000000000000, 0.0000000000000000000, 1.000000000000000000 ) ) ;
#45 = CARTESIAN_POINT ( 'NONE',  ( -0.5519199926577972300, 0.0000000000000000000, 14.99999999999992700 ) ) ;
#46 = CARTESIAN_POINT ( 'NONE',  ( 222.4774174113482800, 0.0000000000000000000, 14.99999999999992000 ) ) ;
#47 = EDGE_CURVE ( 'NONE', #48, #1, #119, .T. ) ;
#48 = VERTEX_POINT ( 'NONE', #14 ) ;
#49 = DIRECTION ( 'NONE',  ( 0.0000000000000000000, 0.0000000000000000000, 1.000000000000000000 ) ) ;
#50 = SPHERICAL_SURFACE ( 'NONE', #151, 56.00000000000000700 ) ;
#51 = MECHANICAL_DESIGN_GEOMETRIC_PRESENTATION_REPRESENTATION (  '', ( #15 ), #113 ) ;
#52 =( GEOMETRIC_REPRESENTATION_CONTEXT ( 3 ) GLOBAL_UNCERTAINTY_ASSIGNED_CONTEXT ( ( #243 ) ) GLOBAL_UNIT_ASSIGNED_CONTEXT ( ( #261, #171, #226 ) ) REPRESENTATION_CONTEXT ( 'NONE', 'WORKASPACE' ) );
#53 = MANIFOLD_SOLID_BREP ( 'Ðý×ª3', #228 ) ;
#54 = FACE_OUTER_BOUND ( 'NONE', #149, .T. ) ;
#55 = CIRCLE ( 'NONE', #131, 14.99999999999992400 ) ;
#56 = ORIENTED_EDGE ( 'NONE', *, *, #327, .T. ) ;
#57 = DIRECTION ( 'NONE',  ( -1.000000000000000000, -0.0000000000000000000, -0.0000000000000000000 ) ) ;
#58 = DIRECTION ( 'NONE',  ( 0.0000000000000000000, 1.000000000000000000, 0.0000000000000000000 ) ) ;
#59 = DIRECTION ( 'NONE',  ( -1.000000000000000000, -0.0000000000000000000, -0.0000000000000000000 ) ) ;
#60 = AXIS2_PLACEMENT_3D ( 'NONE', #325, #203, #102 ) ;
#61 = COLOUR_RGB ( '',1.000000000000000000, 1.000000000000000000, 1.000000000000000000 ) ;
#62 = DIRECTION ( 'NONE',  ( 0.0000000000000000000, 0.0000000000000000000, 1.000000000000000000 ) ) ;
#63 =( NAMED_UNIT ( * ) SI_UNIT ( $, .STERADIAN. ) SOLID_ANGLE_UNIT ( ) );
#64 = AXIS2_PLACEMENT_3D ( 'NONE', #230, #170, #256 ) ;
#65 = CARTESIAN_POINT ( 'NONE',  ( 225.1005007387521500, 0.0000000000000000000, 2.489628991618550100E-015 ) ) ;
#66 = AXIS2_PLACEMENT_3D ( 'NONE', #316, #19, #147 ) ;
#67 = CIRCLE ( 'NONE', #111, 14.99999999999993100 ) ;
#68 = DIRECTION ( 'NONE',  ( 0.0000000000000000000, 1.000000000000000000, 0.0000000000000000000 ) ) ;
#69 = CARTESIAN_POINT ( 'NONE',  ( 222.4774174113482800, 0.0000000000000000000, 0.0000000000000000000 ) ) ;
#70 = VERTEX_POINT ( 'NONE', #305 ) ;
#71 = CARTESIAN_POINT ( 'NONE',  ( 180.9005007387521300, 0.0000000000000000000, -2.168404344971008900E-016 ) ) ;
#72 = EDGE_CURVE ( 'NONE', #158, #121, #100, .T. ) ;
#73 = CIRCLE ( 'NONE', #193, 219.8000000000000100 ) ;
#74 = ADVANCED_FACE ( 'NONE', ( #249 ), #9, .T. ) ;
#75 = VERTEX_POINT ( 'NONE', #105 ) ;
#76 = CIRCLE ( 'NONE', #343, 14.99999999999992000 ) ;
#77 = AXIS2_PLACEMENT_3D ( 'NONE', #217, #58, #291 ) ;
#78 =( LENGTH_UNIT ( ) NAMED_UNIT ( * ) SI_UNIT ( .MILLI., .METRE. ) );
#79 = DIRECTION ( 'NONE',  ( -0.0000000000000000000, 1.000000000000000000, 1.224646799147353200E-016 ) ) ;
#80 = AXIS2_PLACEMENT_3D ( 'NONE', #335, #172, #330 ) ;
#81 = EDGE_LOOP ( 'NONE', ( #139, #41, #292, #86 ) ) ;
#82 = ORIENTED_EDGE ( 'NONE', *, *, #196, .F. ) ;
#83 = DIRECTION ( 'NONE',  ( 0.0000000000000000000, 0.0000000000000000000, 1.000000000000000000 ) ) ;
#84 = DIRECTION ( 'NONE',  ( 0.0000000000000000000, -1.224646799147353200E-016, 1.000000000000000000 ) ) ;
#85 = CARTESIAN_POINT ( 'NONE',  ( 180.9005007387521300, 0.0000000000000000000, -2.168404344971008900E-016 ) ) ;
#86 = ORIENTED_EDGE ( 'NONE', *, *, #208, .F. ) ;
#87 = CYLINDRICAL_SURFACE ( 'NONE', #95, 14.99999999999992400 ) ;
#88 =( NAMED_UNIT ( * ) PLANE_ANGLE_UNIT ( ) SI_UNIT ( $, .RADIAN. ) );
#89 = CARTESIAN_POINT ( 'NONE',  ( 124.5233095260452400, 0.0000000000000000000, 0.0000000000000000000 ) ) ;
#90 = DIRECTION ( 'NONE',  ( 0.0000000000000000000, 0.0000000000000000000, 1.000000000000000000 ) ) ;
#91 = LINE ( 'NONE', #31, #160 ) ;
#92 = EDGE_CURVE ( 'NONE', #266, #247, #219, .T. ) ;
#93 = EDGE_CURVE ( 'NONE', #70, #258, #91, .T. ) ;
#94 = VECTOR ( 'NONE', #339, 1000.000000000000000 ) ;
#95 = AXIS2_PLACEMENT_3D ( 'NONE', #143, #21, #180 ) ;
#96 = FILL_AREA_STYLE_COLOUR ( '', #231 ) ;
#97 = SURFACE_STYLE_FILL_AREA ( #161 ) ;
#98 = STYLED_ITEM ( 'NONE', ( #185 ), #322 ) ;
#99 = ADVANCED_FACE ( 'NONE', ( #176 ), #306, .T. ) ;
#100 = CIRCLE ( 'NONE', #302, 56.00000000000000700 ) ;
#101 = SPHERICAL_SURFACE ( 'NONE', #152, 44.20000000000000300 ) ;
#102 = DIRECTION ( 'NONE',  ( 0.0000000000000000000, 0.0000000000000000000, 1.000000000000000000 ) ) ;
#103 = ORIENTED_EDGE ( 'NONE', *, *, #47, .T. ) ;
#104 = ORIENTED_EDGE ( 'NONE', *, *, #157, .F. ) ;
#105 = CARTESIAN_POINT ( 'NONE',  ( 218.6468168978873100, 0.0000000000000000000, 14.99999999999992000 ) ) ;
#106 =( NAMED_UNIT ( * ) PLANE_ANGLE_UNIT ( ) SI_UNIT ( $, .RADIAN. ) );
#107 = DIRECTION ( 'NONE',  ( 0.0000000000000000000, 1.000000000000000000, 0.0000000000000000000 ) ) ;
#108 = EDGE_LOOP ( 'NONE', ( #183, #280, #276 ) ) ;
#109 = DIRECTION ( 'NONE',  ( -1.000000000000000000, -0.0000000000000000000, -0.0000000000000000000 ) ) ;
#110 = COLOUR_RGB ( '',1.000000000000000000, 1.000000000000000000, 1.000000000000000000 ) ;
#111 = AXIS2_PLACEMENT_3D ( 'NONE', #257, #120, #310 ) ;
#112 = ORIENTED_EDGE ( 'NONE', *, *, #223, .F. ) ;
#113 =( GEOMETRIC_REPRESENTATION_CONTEXT ( 3 ) GLOBAL_UNCERTAINTY_ASSIGNED_CONTEXT ( ( #39 ) ) GLOBAL_UNIT_ASSIGNED_CONTEXT ( ( #36, #253, #63 ) ) REPRESENTATION_CONTEXT ( 'NONE', 'WORKASPACE' ) );
#114 = CARTESIAN_POINT ( 'NONE',  ( 222.4774174113482800, 0.0000000000000000000, 0.0000000000000000000 ) ) ;
#115 = PRESENTATION_LAYER_ASSIGNMENT (  '', '', ( #98 ) ) ;
#116 = SURFACE_STYLE_USAGE ( .BOTH. , #199 ) ;
#117 = DIRECTION ( 'NONE',  ( 0.0000000000000000000, -1.000000000000000000, 0.0000000000000000000 ) ) ;
#118 = DIRECTION ( 'NONE',  ( 0.0000000000000000000, 0.0000000000000000000, 1.000000000000000000 ) ) ;
#119 = CIRCLE ( 'NONE', #80, 44.20000000000000300 ) ;
#120 = DIRECTION ( 'NONE',  ( -1.000000000000000000, -0.0000000000000000000, -0.0000000000000000000 ) ) ;
#121 = VERTEX_POINT ( 'NONE', #130 ) ;
#122 = VERTEX_POINT ( 'NONE', #288 ) ;
#123 = FACE_OUTER_BOUND ( 'NONE', #27, .T. ) ;
#124 = ADVANCED_FACE ( 'NONE', ( #54 ), #211, .T. ) ;
#125 = CARTESIAN_POINT ( 'NONE',  ( 226.5880744861033800, 0.0000000000000000000, 14.99999999999992400 ) ) ;
#126 = ORIENTED_EDGE ( 'NONE', *, *, #327, .F. ) ;
#127 = ORIENTED_EDGE ( 'NONE', *, *, #3, .T. ) ;
#128 = AXIS2_PLACEMENT_3D ( 'NONE', #232, #309, #118 ) ;
#129 = CARTESIAN_POINT ( 'NONE',  ( 0.0000000000000000000, 0.0000000000000000000, 0.0000000000000000000 ) ) ;
#130 = CARTESIAN_POINT ( 'NONE',  ( 216.6005007387521500, 0.0000000000000000000, -1.684873895607856000E-013 ) ) ;
#131 = AXIS2_PLACEMENT_3D ( 'NONE', #251, #220, #44 ) ;
#132 = MECHANICAL_DESIGN_GEOMETRIC_PRESENTATION_REPRESENTATION (  '', ( #98 ), #155 ) ;
#133 = SURFACE_STYLE_USAGE ( .BOTH. , #294 ) ;
#134 = DIRECTION ( 'NONE',  ( 0.0000000000000000000, 0.0000000000000000000, 1.000000000000000000 ) ) ;
#135 = CYLINDRICAL_SURFACE ( 'NONE', #128, 14.99999999999992700 ) ;
#136 = DIRECTION ( 'NONE',  ( 0.0000000000000000000, 1.000000000000000000, 0.0000000000000000000 ) ) ;
#137 = DIRECTION ( 'NONE',  ( 0.0000000000000000000, -1.224646799147353200E-016, 1.000000000000000000 ) ) ;
#138 = EDGE_CURVE ( 'NONE', #48, #258, #277, .T. ) ;
#139 = ORIENTED_EDGE ( 'NONE', *, *, #188, .T. ) ;
#140 = DIRECTION ( 'NONE',  ( 0.0000000000000000000, 0.0000000000000000000, 1.000000000000000000 ) ) ;
#141 = MANIFOLD_SOLID_BREP ( 'Ðý×ª1', #263 ) ;
#142 = ORIENTED_EDGE ( 'NONE', *, *, #93, .T. ) ;
#143 = CARTESIAN_POINT ( 'NONE',  ( 124.5233095260452400, 0.0000000000000000000, 0.0000000000000000000 ) ) ;
#144 = PRODUCT_DEFINITION_CONTEXT ( 'detailed design', #244, 'design' ) ;
#145 = CIRCLE ( 'NONE', #214, 14.99999999999993100 ) ;
#146 = CARTESIAN_POINT ( 'NONE',  ( 7.300500738752130100, 0.0000000000000000000, 0.0000000000000000000 ) ) ;
#147 = DIRECTION ( 'NONE',  ( 0.0000000000000000000, 0.0000000000000000000, 1.000000000000000000 ) ) ;
#148 = DIRECTION ( 'NONE',  ( 0.0000000000000000000, 0.0000000000000000000, 1.000000000000000000 ) ) ;
#149 = EDGE_LOOP ( 'NONE', ( #317, #30, #283, #236 ) ) ;
#150 = SPHERICAL_SURFACE ( 'NONE', #64, 44.20000000000000300 ) ;
#151 = AXIS2_PLACEMENT_3D ( 'NONE', #23, #68, #148 ) ;
#152 = AXIS2_PLACEMENT_3D ( 'NONE', #85, #107, #62 ) ;
#153 = ORIENTED_EDGE ( 'NONE', *, *, #138, .T. ) ;
#154 = ORIENTED_EDGE ( 'NONE', *, *, #47, .F. ) ;
#155 =( GEOMETRIC_REPRESENTATION_CONTEXT ( 3 ) GLOBAL_UNCERTAINTY_ASSIGNED_CONTEXT ( ( #307 ) ) GLOBAL_UNIT_ASSIGNED_CONTEXT ( ( #78, #88, #255 ) ) REPRESENTATION_CONTEXT ( 'NONE', 'WORKASPACE' ) );
#156 = ADVANCED_FACE ( 'NONE', ( #254 ), #101, .F. ) ;
#157 = EDGE_CURVE ( 'NONE', #266, #158, #333, .T. ) ;
#158 = VERTEX_POINT ( 'NONE', #298 ) ;
#159 = DIRECTION ( 'NONE',  ( 0.0000000000000000000, -1.224646799147353200E-016, 1.000000000000000000 ) ) ;
#160 = VECTOR ( 'NONE', #57, 1000.000000000000000 ) ;
#161 = FILL_AREA_STYLE ('',( #336 ) ) ;
#162 = CARTESIAN_POINT ( 'NONE',  ( 180.9005007387521300, 0.0000000000000000000, -2.168404344971008900E-016 ) ) ;
#163 = DIRECTION ( 'NONE',  ( -0.0000000000000000000, 1.000000000000000000, 1.224646799147353200E-016 ) ) ;
#164 = EDGE_LOOP ( 'NONE', ( #127, #218, #284 ) ) ;
#165 = EDGE_CURVE ( 'NONE', #70, #299, #55, .T. ) ;
#166 = ORIENTED_EDGE ( 'NONE', *, *, #334, .T. ) ;
#167 = FILL_AREA_STYLE_COLOUR ( '', #61 ) ;
#168 = SHAPE_DEFINITION_REPRESENTATION ( #20, #322 ) ;
#169 = DIRECTION ( 'NONE',  ( -0.0000000000000000000, 1.000000000000000000, 1.224646799147353200E-016 ) ) ;
#170 = DIRECTION ( 'NONE',  ( 0.0000000000000000000, 1.000000000000000000, 0.0000000000000000000 ) ) ;
#171 =( NAMED_UNIT ( * ) PLANE_ANGLE_UNIT ( ) SI_UNIT ( $, .RADIAN. ) );
#172 = DIRECTION ( 'NONE',  ( 0.0000000000000000000, -1.000000000000000000, 0.0000000000000000000 ) ) ;
#173 = AXIS2_PLACEMENT_3D ( 'NONE', #273, #177, #38 ) ;
#174 = ORIENTED_EDGE ( 'NONE', *, *, #341, .F. ) ;
#175 = AXIS2_PLACEMENT_3D ( 'NONE', #222, #34, #83 ) ;
#176 = FACE_OUTER_BOUND ( 'NONE', #234, .T. ) ;
#177 = DIRECTION ( 'NONE',  ( 0.0000000000000000000, -1.000000000000000000, 0.0000000000000000000 ) ) ;
#178 = DIRECTION ( 'NONE',  ( -1.000000000000000000, -0.0000000000000000000, -0.0000000000000000000 ) ) ;
#179 = AXIS2_PLACEMENT_3D ( 'NONE', #275, #117, #308 ) ;
#180 = DIRECTION ( 'NONE',  ( 0.0000000000000000000, 0.0000000000000000000, 1.000000000000000000 ) ) ;
#181 = AXIS2_PLACEMENT_3D ( 'NONE', #271, #178, #225 ) ;
#182 = DIRECTION ( 'NONE',  ( 0.0000000000000000000, 0.0000000000000000000, -1.000000000000000000 ) ) ;
#183 = ORIENTED_EDGE ( 'NONE', *, *, #334, .F. ) ;
#184 = CIRCLE ( 'NONE', #181, 14.99999999999992700 ) ;
#185 = PRESENTATION_STYLE_ASSIGNMENT (( #116 ) ) ;
#186 = APPLICATION_PROTOCOL_DEFINITION ( 'draft international standard', 'automotive_design', 1998, #197 ) ;
#187 = EDGE_CURVE ( 'NONE', #158, #75, #242, .T. ) ;
#188 = EDGE_CURVE ( 'NONE', #247, #266, #76, .T. ) ;
#189 = ORIENTED_EDGE ( 'NONE', *, *, #264, .T. ) ;
#190 = PRESENTATION_STYLE_ASSIGNMENT (( #133 ) ) ;
#191 = FACE_OUTER_BOUND ( 'NONE', #311, .T. ) ;
#192 = ADVANCED_FACE ( 'NONE', ( #191 ), #150, .T. ) ;
#193 = AXIS2_PLACEMENT_3D ( 'NONE', #246, #169, #290 ) ;
#194 = DIRECTION ( 'NONE',  ( 0.0000000000000000000, 0.0000000000000000000, 1.000000000000000000 ) ) ;
#195 = DIRECTION ( 'NONE',  ( 0.0000000000000000000, 0.0000000000000000000, 1.000000000000000000 ) ) ;
#196 = EDGE_CURVE ( 'NONE', #207, #247, #16, .T. ) ;
#197 = APPLICATION_CONTEXT ( 'automotive_design' ) ;
#198 = PRESENTATION_STYLE_ASSIGNMENT (( #224 ) ) ;
#199 = SURFACE_SIDE_STYLE ('',( #345 ) ) ;
#200 = SPHERICAL_SURFACE ( 'NONE', #66, 56.00000000000000700 ) ;
#201 = FILL_AREA_STYLE ('',( #167 ) ) ;
#202 = AXIS2_PLACEMENT_3D ( 'NONE', #296, #248, #134 ) ;
#203 = DIRECTION ( 'NONE',  ( 0.0000000000000000000, 1.000000000000000000, 0.0000000000000000000 ) ) ;
#204 = DIRECTION ( 'NONE',  ( -1.000000000000000000, -0.0000000000000000000, -0.0000000000000000000 ) ) ;
#205 = FACE_OUTER_BOUND ( 'NONE', #13, .T. ) ;
#206 = ORIENTED_EDGE ( 'NONE', *, *, #264, .F. ) ;
#207 = VERTEX_POINT ( 'NONE', #65 ) ;
#208 = EDGE_CURVE ( 'NONE', #247, #75, #237, .T. ) ;
#209 = AXIS2_PLACEMENT_3D ( 'NONE', #71, #17, #194 ) ;
#210 = ORIENTED_EDGE ( 'NONE', *, *, #281, .T. ) ;
#211 = CYLINDRICAL_SURFACE ( 'NONE', #202, 14.99999999999992700 ) ;
#212 = FACE_OUTER_BOUND ( 'NONE', #108, .T. ) ;
#213 = ADVANCED_FACE ( 'NONE', ( #300 ), #87, .T. ) ;
#214 = AXIS2_PLACEMENT_3D ( 'NONE', #69, #260, #297 ) ;
#215 = ORIENTED_EDGE ( 'NONE', *, *, #72, .F. ) ;
#216 = CARTESIAN_POINT ( 'NONE',  ( 222.4774174113482800, 0.0000000000000000000, 0.0000000000000000000 ) ) ;
#217 = CARTESIAN_POINT ( 'NONE',  ( 7.300500738752130100, 0.0000000000000000000, 0.0000000000000000000 ) ) ;
#218 = ORIENTED_EDGE ( 'NONE', *, *, #72, .T. ) ;
#219 = CIRCLE ( 'NONE', #344, 14.99999999999992000 ) ;
#220 = DIRECTION ( 'NONE',  ( -1.000000000000000000, -0.0000000000000000000, -0.0000000000000000000 ) ) ;
#221 = CIRCLE ( 'NONE', #32, 14.99999999999992400 ) ;
#222 = CARTESIAN_POINT ( 'NONE',  ( 218.6468168978873100, 0.0000000000000000000, 0.0000000000000000000 ) ) ;
#223 = EDGE_CURVE ( 'NONE', #299, #1, #287, .T. ) ;
#224 = SURFACE_STYLE_USAGE ( .BOTH. , #11 ) ;
#225 = DIRECTION ( 'NONE',  ( 0.0000000000000000000, 0.0000000000000000000, 1.000000000000000000 ) ) ;
#226 =( NAMED_UNIT ( * ) SI_UNIT ( $, .STERADIAN. ) SOLID_ANGLE_UNIT ( ) );
#227 = AXIS2_PLACEMENT_3D ( 'NONE', #338, #136, #49 ) ;
#228 = CLOSED_SHELL ( 'NONE', ( #99, #240, #318, #156, #124, #74 ) ) ;
#229 = EDGE_CURVE ( 'NONE', #122, #299, #282, .T. ) ;
#230 = CARTESIAN_POINT ( 'NONE',  ( 180.9005007387521300, 0.0000000000000000000, -2.168404344971008900E-016 ) ) ;
#231 = COLOUR_RGB ( '',1.000000000000000000, 1.000000000000000000, 1.000000000000000000 ) ;
#232 = CARTESIAN_POINT ( 'NONE',  ( -0.5519199926577972300, 0.0000000000000000000, 0.0000000000000000000 ) ) ;
#233 = CARTESIAN_POINT ( 'NONE',  ( 222.4774174113482800, 1.836970198721020900E-015, -14.99999999999992700 ) ) ;
#234 = EDGE_LOOP ( 'NONE', ( #7, #56, #174 ) ) ;
#235 = ORIENTED_EDGE ( 'NONE', *, *, #229, .T. ) ;
#236 = ORIENTED_EDGE ( 'NONE', *, *, #267, .F. ) ;
#237 = LINE ( 'NONE', #42, #94 ) ;
#238 = AXIS2_PLACEMENT_3D ( 'NONE', #89, #269, #140 ) ;
#239 = SURFACE_STYLE_FILL_AREA ( #201 ) ;
#240 = ADVANCED_FACE ( 'NONE', ( #123 ), #135, .T. ) ;
#241 = ORIENTED_EDGE ( 'NONE', *, *, #341, .T. ) ;
#242 = CIRCLE ( 'NONE', #175, 14.99999999999992700 ) ;
#243 = UNCERTAINTY_MEASURE_WITH_UNIT (LENGTH_MEASURE( 1.000000000000000100E-005 ), #261, 'distance_accuracy_value', 'NONE');
#244 = APPLICATION_CONTEXT ( 'automotive_design' ) ;
#245 = PRESENTATION_LAYER_ASSIGNMENT (  '', '', ( #295 ) ) ;
#246 = CARTESIAN_POINT ( 'NONE',  ( 7.300500738752130100, 0.0000000000000000000, 0.0000000000000000000 ) ) ;
#247 = VERTEX_POINT ( 'NONE', #46 ) ;
#248 = DIRECTION ( 'NONE',  ( -1.000000000000000000, -0.0000000000000000000, -0.0000000000000000000 ) ) ;
#249 = FACE_OUTER_BOUND ( 'NONE', #40, .T. ) ;
#250 =( NAMED_UNIT ( * ) SI_UNIT ( $, .STERADIAN. ) SOLID_ANGLE_UNIT ( ) );
#251 = CARTESIAN_POINT ( 'NONE',  ( 226.5880744861033800, 0.0000000000000000000, 0.0000000000000000000 ) ) ;
#252 = FACE_OUTER_BOUND ( 'NONE', #81, .T. ) ;
#253 =( NAMED_UNIT ( * ) PLANE_ANGLE_UNIT ( ) SI_UNIT ( $, .RADIAN. ) );
#254 = FACE_OUTER_BOUND ( 'NONE', #315, .T. ) ;
#255 =( NAMED_UNIT ( * ) SI_UNIT ( $, .STERADIAN. ) SOLID_ANGLE_UNIT ( ) );
#256 = DIRECTION ( 'NONE',  ( 0.0000000000000000000, 0.0000000000000000000, 1.000000000000000000 ) ) ;
#257 = CARTESIAN_POINT ( 'NONE',  ( 222.4774174113482800, 0.0000000000000000000, 0.0000000000000000000 ) ) ;
#258 = VERTEX_POINT ( 'NONE', #233 ) ;
#259 = VECTOR ( 'NONE', #59, 1000.000000000000000 ) ;
#260 = DIRECTION ( 'NONE',  ( -1.000000000000000000, -0.0000000000000000000, -0.0000000000000000000 ) ) ;
#261 =( LENGTH_UNIT ( ) NAMED_UNIT ( * ) SI_UNIT ( .MILLI., .METRE. ) );
#262 = AXIS2_PLACEMENT_3D ( 'NONE', #146, #340, #182 ) ;
#263 = CLOSED_SHELL ( 'NONE', ( #192, #29, #347, #265, #213, #286 ) ) ;
#264 = EDGE_CURVE ( 'NONE', #1, #258, #67, .T. ) ;
#265 = ADVANCED_FACE ( 'NONE', ( #205 ), #50, .T. ) ;
#266 = VERTEX_POINT ( 'NONE', #279 ) ;
#267 = EDGE_CURVE ( 'NONE', #258, #1, #145, .T. ) ;
#268 =( LENGTH_UNIT ( ) NAMED_UNIT ( * ) SI_UNIT ( .MILLI., .METRE. ) );
#269 = DIRECTION ( 'NONE',  ( -1.000000000000000000, -0.0000000000000000000, -0.0000000000000000000 ) ) ;
#270 = ORIENTED_EDGE ( 'NONE', *, *, #208, .T. ) ;
#271 = CARTESIAN_POINT ( 'NONE',  ( 218.6468168978873100, 0.0000000000000000000, 0.0000000000000000000 ) ) ;
#272 = FILL_AREA_STYLE ('',( #96 ) ) ;
#273 = CARTESIAN_POINT ( 'NONE',  ( 272.6005007387521500, 0.0000000000000000000, -1.719164005983981800E-013 ) ) ;
#274 = DIRECTION ( 'NONE',  ( -1.000000000000000000, -0.0000000000000000000, -0.0000000000000000000 ) ) ;
#275 = CARTESIAN_POINT ( 'NONE',  ( 180.9005007387521300, 0.0000000000000000000, -2.168404344971008900E-016 ) ) ;
#276 = ORIENTED_EDGE ( 'NONE', *, *, #92, .F. ) ;
#277 = CIRCLE ( 'NONE', #319, 44.20000000000000300 ) ;
#278 = SPHERICAL_SURFACE ( 'NONE', #227, 44.20000000000000300 ) ;
#279 = CARTESIAN_POINT ( 'NONE',  ( 222.4774174113482800, 1.836970198721020100E-015, -14.99999999999992000 ) ) ;
#280 = ORIENTED_EDGE ( 'NONE', *, *, #196, .T. ) ;
#281 = EDGE_CURVE ( 'NONE', #75, #121, #346, .T. ) ;
#282 = CIRCLE ( 'NONE', #262, 219.8000000000000100 ) ;
#283 = ORIENTED_EDGE ( 'NONE', *, *, #223, .T. ) ;
#284 = ORIENTED_EDGE ( 'NONE', *, *, #281, .F. ) ;
#285 = FACE_OUTER_BOUND ( 'NONE', #164, .T. ) ;
#286 = ADVANCED_FACE ( 'NONE', ( #212 ), #10, .T. ) ;
#287 = LINE ( 'NONE', #45, #25 ) ;
#288 = CARTESIAN_POINT ( 'NONE',  ( 227.1005007387521500, 0.0000000000000000000, 1.345886832262941300E-014 ) ) ;
#289 = UNCERTAINTY_MEASURE_WITH_UNIT (LENGTH_MEASURE( 1.000000000000000100E-005 ), #268, 'distance_accuracy_value', 'NONE');
#290 = DIRECTION ( 'NONE',  ( 0.0000000000000000000, -1.224646799147353200E-016, 1.000000000000000000 ) ) ;
#291 = DIRECTION ( 'NONE',  ( 0.0000000000000000000, 0.0000000000000000000, 1.000000000000000000 ) ) ;
#292 = ORIENTED_EDGE ( 'NONE', *, *, #3, .F. ) ;
#293 = ORIENTED_EDGE ( 'NONE', *, *, #187, .F. ) ;
#294 = SURFACE_SIDE_STYLE ('',( #97 ) ) ;
#295 = STYLED_ITEM ( 'NONE', ( #190 ), #53 ) ;
#296 = CARTESIAN_POINT ( 'NONE',  ( -0.5519199926577972300, 0.0000000000000000000, 0.0000000000000000000 ) ) ;
#297 = DIRECTION ( 'NONE',  ( 0.0000000000000000000, 0.0000000000000000000, 1.000000000000000000 ) ) ;
#298 = CARTESIAN_POINT ( 'NONE',  ( 218.6468168978873100, 1.836970198721020500E-015, -15.00000000000009200 ) ) ;
#299 = VERTEX_POINT ( 'NONE', #125 ) ;
#300 = FACE_OUTER_BOUND ( 'NONE', #24, .T. ) ;
#301 = MECHANICAL_DESIGN_GEOMETRIC_PRESENTATION_REPRESENTATION (  '', ( #295 ), #320 ) ;
#302 = AXIS2_PLACEMENT_3D ( 'NONE', #6, #328, #159 ) ;
#303 = CARTESIAN_POINT ( 'NONE',  ( 222.4774174113482800, 0.0000000000000000000, 14.99999999999992700 ) ) ;
#304 = CARTESIAN_POINT ( 'NONE',  ( 226.5880744861033800, 0.0000000000000000000, 0.0000000000000000000 ) ) ;
#305 = CARTESIAN_POINT ( 'NONE',  ( 226.5880744861033800, 1.836970198721020500E-015, -14.99999999999992400 ) ) ;
#306 = SPHERICAL_SURFACE ( 'NONE', #60, 219.8000000000000100 ) ;
#307 = UNCERTAINTY_MEASURE_WITH_UNIT (LENGTH_MEASURE( 1.000000000000000100E-005 ), #78, 'distance_accuracy_value', 'NONE');
#308 = DIRECTION ( 'NONE',  ( 0.0000000000000000000, 0.0000000000000000000, -1.000000000000000000 ) ) ;
#309 = DIRECTION ( 'NONE',  ( -1.000000000000000000, -0.0000000000000000000, -0.0000000000000000000 ) ) ;
#310 = DIRECTION ( 'NONE',  ( 0.0000000000000000000, 0.0000000000000000000, 1.000000000000000000 ) ) ;
#311 = EDGE_LOOP ( 'NONE', ( #82, #166, #312 ) ) ;
#312 = ORIENTED_EDGE ( 'NONE', *, *, #188, .F. ) ;
#313 = ORIENTED_EDGE ( 'NONE', *, *, #187, .T. ) ;
#314 = DIRECTION ( 'NONE',  ( 1.000000000000000000, 0.0000000000000000000, 0.0000000000000000000 ) ) ;
#315 = EDGE_LOOP ( 'NONE', ( #35, #103, #189 ) ) ;
#316 = CARTESIAN_POINT ( 'NONE',  ( 272.6005007387521500, 0.0000000000000000000, -1.719164005983981800E-013 ) ) ;
#317 = ORIENTED_EDGE ( 'NONE', *, *, #93, .F. ) ;
#318 = ADVANCED_FACE ( 'NONE', ( #22 ), #278, .F. ) ;
#319 = AXIS2_PLACEMENT_3D ( 'NONE', #162, #163, #137 ) ;
#320 =( GEOMETRIC_REPRESENTATION_CONTEXT ( 3 ) GLOBAL_UNCERTAINTY_ASSIGNED_CONTEXT ( ( #289 ) ) GLOBAL_UNIT_ASSIGNED_CONTEXT ( ( #268, #106, #250 ) ) REPRESENTATION_CONTEXT ( 'NONE', 'WORKASPACE' ) );
#321 = APPLICATION_PROTOCOL_DEFINITION ( 'draft international standard', 'automotive_design', 1998, #244 ) ;
#322 = ADVANCED_BREP_SHAPE_REPRESENTATION ( '145067', ( #141, #53, #337 ), #52 ) ;
#323 = DIRECTION ( 'NONE',  ( 0.0000000000000000000, 0.0000000000000000000, 1.000000000000000000 ) ) ;
#324 = ORIENTED_EDGE ( 'NONE', *, *, #165, .F. ) ;
#325 = CARTESIAN_POINT ( 'NONE',  ( 7.300500738752130100, 0.0000000000000000000, 0.0000000000000000000 ) ) ;
#326 = ORIENTED_EDGE ( 'NONE', *, *, #267, .T. ) ;
#327 = EDGE_CURVE ( 'NONE', #122, #70, #73, .T. ) ;
#328 = DIRECTION ( 'NONE',  ( -0.0000000000000000000, 1.000000000000000000, 1.224646799147353200E-016 ) ) ;
#329 = PRODUCT_CONTEXT ( 'NONE', #197, 'mechanical' ) ;
#330 = DIRECTION ( 'NONE',  ( 0.0000000000000000000, 0.0000000000000000000, -1.000000000000000000 ) ) ;
#331 = PRESENTATION_LAYER_ASSIGNMENT (  '', '', ( #15 ) ) ;
#332 = CYLINDRICAL_SURFACE ( 'NONE', #238, 14.99999999999992400 ) ;
#333 = LINE ( 'NONE', #8, #259 ) ;
#334 = EDGE_CURVE ( 'NONE', #207, #266, #28, .T. ) ;
#335 = CARTESIAN_POINT ( 'NONE',  ( 180.9005007387521300, 0.0000000000000000000, -2.168404344971008900E-016 ) ) ;
#336 = FILL_AREA_STYLE_COLOUR ( '', #110 ) ;
#337 = AXIS2_PLACEMENT_3D ( 'NONE', #129, #323, #314 ) ;
#338 = CARTESIAN_POINT ( 'NONE',  ( 180.9005007387521300, 0.0000000000000000000, -2.168404344971008900E-016 ) ) ;
#339 = DIRECTION ( 'NONE',  ( -1.000000000000000000, -0.0000000000000000000, -0.0000000000000000000 ) ) ;
#340 = DIRECTION ( 'NONE',  ( 0.0000000000000000000, -1.000000000000000000, 0.0000000000000000000 ) ) ;
#341 = EDGE_CURVE ( 'NONE', #299, #70, #221, .T. ) ;
#342 = DIRECTION ( 'NONE',  ( 0.0000000000000000000, 0.0000000000000000000, 1.000000000000000000 ) ) ;
#343 = AXIS2_PLACEMENT_3D ( 'NONE', #114, #274, #90 ) ;
#344 = AXIS2_PLACEMENT_3D ( 'NONE', #216, #4, #195 ) ;
#345 = SURFACE_STYLE_FILL_AREA ( #272 ) ;
#346 = CIRCLE ( 'NONE', #173, 56.00000000000000700 ) ;
#347 = ADVANCED_FACE ( 'NONE', ( #285 ), #200, .T. ) ;
ENDSEC;
END-ISO-10303-21;
