ISO-10303-21;
HEADER;
FILE_DESCRIPTION (( 'STEP AP214' ),
    '1' );
FILE_NAME ('145084.STEP',
    '2019-05-16T06:35:07',
    ( 'user' ),
    ( 'Î¢ÈíÖÐ¹ú' ),
    'SwSTEP 2.0',
    'SolidWorks 2016',
    '' );
FILE_SCHEMA (( 'AUTOMOTIVE_DESIGN' ));
ENDSEC;

DATA;
#1 = ADVANCED_BREP_SHAPE_REPRESENTATION ( '145084', ( #59, #125, #264 ), #66 ) ;
#2 = CARTESIAN_POINT ( 'NONE',  ( 269.4109166072300900, 0.0000000000000000000, 2.168404344971008900E-016 ) ) ;
#3 = EDGE_CURVE ( 'NONE', #280, #270, #236, .T. ) ;
#4 =( NAMED_UNIT ( * ) SI_UNIT ( $, .STERADIAN. ) SOLID_ANGLE_UNIT ( ) );
#5 = PRESENTATION_LAYER_ASSIGNMENT (  '', '', ( #107 ) ) ;
#6 = CARTESIAN_POINT ( 'NONE',  ( 269.4109166072300900, 0.0000000000000000000, 2.168404344971008900E-016 ) ) ;
#7 = SURFACE_SIDE_STYLE ('',( #149 ) ) ;
#8 = FACE_OUTER_BOUND ( 'NONE', #92, .T. ) ;
#9 = CIRCLE ( 'NONE', #53, 41.70000000000003100 ) ;
#10 = AXIS2_PLACEMENT_3D ( 'NONE', #174, #88, #144 ) ;
#11 = CARTESIAN_POINT ( 'NONE',  ( 311.1109166072301400, 0.0000000000000000000, 2.770229010719334100E-015 ) ) ;
#12 = DIRECTION ( 'NONE',  ( 0.0000000000000000000, 1.000000000000000000, -0.0000000000000000000 ) ) ;
#13 = ORIENTED_EDGE ( 'NONE', *, *, #129, .F. ) ;
#14 = DIRECTION ( 'NONE',  ( 0.0000000000000000000, 1.000000000000000000, 0.0000000000000000000 ) ) ;
#15 = ORIENTED_EDGE ( 'NONE', *, *, #3, .T. ) ;
#16 = PRODUCT_DEFINITION_SHAPE ( 'NONE', 'NONE',  #218 ) ;
#17 = ORIENTED_EDGE ( 'NONE', *, *, #184, .F. ) ;
#18 = VERTEX_POINT ( 'NONE', #11 ) ;
#19 = FACE_OUTER_BOUND ( 'NONE', #312, .T. ) ;
#20 = EDGE_CURVE ( 'NONE', #270, #207, #81, .T. ) ;
#21 = ORIENTED_EDGE ( 'NONE', *, *, #234, .T. ) ;
#22 = CARTESIAN_POINT ( 'NONE',  ( 0.0000000000000000000, 0.0000000000000000000, 0.0000000000000000000 ) ) ;
#23 = ADVANCED_FACE ( 'NONE', ( #278 ), #60, .T. ) ;
#24 = ORIENTED_EDGE ( 'NONE', *, *, #288, .F. ) ;
#25 = ORIENTED_EDGE ( 'NONE', *, *, #80, .F. ) ;
#26 = MECHANICAL_DESIGN_GEOMETRIC_PRESENTATION_REPRESENTATION (  '', ( #73 ), #62 ) ;
#27 = FACE_OUTER_BOUND ( 'NONE', #230, .T. ) ;
#28 = DIRECTION ( 'NONE',  ( -1.000000000000000000, -0.0000000000000000000, -0.0000000000000000000 ) ) ;
#29 = CARTESIAN_POINT ( 'NONE',  ( 311.1109166072301400, 0.0000000000000000000, 2.770229010719334100E-015 ) ) ;
#30 = SURFACE_SIDE_STYLE ('',( #56 ) ) ;
#31 = DIRECTION ( 'NONE',  ( 0.0000000000000000000, -1.000000000000000000, 0.0000000000000000000 ) ) ;
#32 = CIRCLE ( 'NONE', #91, 25.39999999999991000 ) ;
#33 = CARTESIAN_POINT ( 'NONE',  ( 124.5233095260452400, 3.110602869834276900E-015, -25.39999999999999900 ) ) ;
#34 = CIRCLE ( 'NONE', #221, 50.79999999999999700 ) ;
#35 = AXIS2_PLACEMENT_3D ( 'NONE', #146, #14, #302 ) ;
#36 = CARTESIAN_POINT ( 'NONE',  ( 66.41091660723009200, 0.0000000000000000000, 0.0000000000000000000 ) ) ;
#37 = ORIENTED_EDGE ( 'NONE', *, *, #232, .F. ) ;
#38 = CARTESIAN_POINT ( 'NONE',  ( 124.5233095260452400, 0.0000000000000000000, 0.0000000000000000000 ) ) ;
#39 = AXIS2_PLACEMENT_3D ( 'NONE', #38, #299, #303 ) ;
#40 = DIRECTION ( 'NONE',  ( 0.0000000000000000000, 0.0000000000000000000, -1.000000000000000000 ) ) ;
#41 = DIRECTION ( 'NONE',  ( 0.0000000000000000000, 0.0000000000000000000, -1.000000000000000000 ) ) ;
#42 = CARTESIAN_POINT ( 'NONE',  ( 66.41091660723009200, 0.0000000000000000000, 0.0000000000000000000 ) ) ;
#43 = DIRECTION ( 'NONE',  ( -1.000000000000000000, -0.0000000000000000000, -0.0000000000000000000 ) ) ;
#44 = AXIS2_PLACEMENT_3D ( 'NONE', #6, #296, #273 ) ;
#45 = PRODUCT ( '145084', '145084', '', ( #337 ) ) ;
#46 = DIRECTION ( 'NONE',  ( 0.0000000000000000000, 0.0000000000000000000, 1.000000000000000000 ) ) ;
#47 = EDGE_LOOP ( 'NONE', ( #309, #277, #338, #198 ) ) ;
#48 = CARTESIAN_POINT ( 'NONE',  ( 341.9109166072300900, 0.0000000000000000000, 2.168404328815137500E-016 ) ) ;
#49 = AXIS2_PLACEMENT_3D ( 'NONE', #333, #134, #334 ) ;
#50 = FACE_OUTER_BOUND ( 'NONE', #320, .T. ) ;
#51 = ORIENTED_EDGE ( 'NONE', *, *, #184, .T. ) ;
#52 = ADVANCED_FACE ( 'NONE', ( #8 ), #186, .T. ) ;
#53 = AXIS2_PLACEMENT_3D ( 'NONE', #2, #100, #249 ) ;
#54 =( GEOMETRIC_REPRESENTATION_CONTEXT ( 3 ) GLOBAL_UNCERTAINTY_ASSIGNED_CONTEXT ( ( #206 ) ) GLOBAL_UNIT_ASSIGNED_CONTEXT ( ( #293, #268, #4 ) ) REPRESENTATION_CONTEXT ( 'NONE', 'WORKASPACE' ) );
#55 = ORIENTED_EDGE ( 'NONE', *, *, #138, .F. ) ;
#56 = SURFACE_STYLE_FILL_AREA ( #121 ) ;
#57 = COLOUR_RGB ( '',1.000000000000000000, 1.000000000000000000, 1.000000000000000000 ) ;
#58 = AXIS2_PLACEMENT_3D ( 'NONE', #145, #226, #203 ) ;
#59 = MANIFOLD_SOLID_BREP ( 'Ðý×ª1', #204 ) ;
#60 = SPHERICAL_SURFACE ( 'NONE', #310, 247.7000000000000500 ) ;
#61 = CLOSED_SHELL ( 'NONE', ( #63, #246, #84, #111, #261, #23 ) ) ;
#62 =( GEOMETRIC_REPRESENTATION_CONTEXT ( 3 ) GLOBAL_UNCERTAINTY_ASSIGNED_CONTEXT ( ( #281 ) ) GLOBAL_UNIT_ASSIGNED_CONTEXT ( ( #331, #247, #87 ) ) REPRESENTATION_CONTEXT ( 'NONE', 'WORKASPACE' ) );
#63 = ADVANCED_FACE ( 'NONE', ( #50 ), #72, .T. ) ;
#64 = DIRECTION ( 'NONE',  ( -1.000000000000000000, -0.0000000000000000000, -0.0000000000000000000 ) ) ;
#65 = VECTOR ( 'NONE', #205, 1000.000000000000000 ) ;
#66 =( GEOMETRIC_REPRESENTATION_CONTEXT ( 3 ) GLOBAL_UNCERTAINTY_ASSIGNED_CONTEXT ( ( #214 ) ) GLOBAL_UNIT_ASSIGNED_CONTEXT ( ( #346, #319, #343 ) ) REPRESENTATION_CONTEXT ( 'NONE', 'WORKASPACE' ) );
#67 = FILL_AREA_STYLE_COLOUR ( '', #259 ) ;
#68 = APPLICATION_CONTEXT ( 'automotive_design' ) ;
#69 = DIRECTION ( 'NONE',  ( 0.0000000000000000000, 1.224646799147353200E-016, -1.000000000000000000 ) ) ;
#70 = EDGE_LOOP ( 'NONE', ( #154, #290, #104 ) ) ;
#71 = DIRECTION ( 'NONE',  ( 0.0000000000000000000, 0.0000000000000000000, 1.000000000000000000 ) ) ;
#72 = SPHERICAL_SURFACE ( 'NONE', #216, 247.7000000000000500 ) ;
#73 = STYLED_ITEM ( 'NONE', ( #340 ), #125 ) ;
#74 = SURFACE_STYLE_USAGE ( .BOTH. , #30 ) ;
#75 = CARTESIAN_POINT ( 'NONE',  ( -0.5519199926577972300, 0.0000000000000000000, 0.0000000000000000000 ) ) ;
#76 = ORIENTED_EDGE ( 'NONE', *, *, #20, .T. ) ;
#77 = DIRECTION ( 'NONE',  ( -0.0000000000000000000, 1.000000000000000000, 1.224646799147353200E-016 ) ) ;
#78 = AXIS2_PLACEMENT_3D ( 'NONE', #132, #64, #102 ) ;
#79 = ORIENTED_EDGE ( 'NONE', *, *, #326, .F. ) ;
#80 = EDGE_CURVE ( 'NONE', #280, #207, #34, .T. ) ;
#81 = CIRCLE ( 'NONE', #262, 50.79999999999999700 ) ;
#82 = AXIS2_PLACEMENT_3D ( 'NONE', #297, #311, #126 ) ;
#83 = SPHERICAL_SURFACE ( 'NONE', #35, 41.70000000000003100 ) ;
#84 = ADVANCED_FACE ( 'NONE', ( #215 ), #83, .F. ) ;
#85 = AXIS2_PLACEMENT_3D ( 'NONE', #267, #101, #46 ) ;
#86 = ADVANCED_FACE ( 'NONE', ( #27 ), #135, .T. ) ;
#87 =( NAMED_UNIT ( * ) SI_UNIT ( $, .STERADIAN. ) SOLID_ANGLE_UNIT ( ) );
#88 = DIRECTION ( 'NONE',  ( 0.0000000000000000000, 1.000000000000000000, 0.0000000000000000000 ) ) ;
#89 = CARTESIAN_POINT ( 'NONE',  ( 297.9168260949806500, 0.0000000000000000000, 0.0000000000000000000 ) ) ;
#90 = ORIENTED_EDGE ( 'NONE', *, *, #238, .T. ) ;
#91 = AXIS2_PLACEMENT_3D ( 'NONE', #242, #294, #99 ) ;
#92 = EDGE_LOOP ( 'NONE', ( #105, #260, #245, #17 ) ) ;
#93 = DIRECTION ( 'NONE',  ( 0.0000000000000000000, 0.0000000000000000000, -1.000000000000000000 ) ) ;
#94 = CARTESIAN_POINT ( 'NONE',  ( 302.4825056225768700, 0.0000000000000000000, 25.39999999999999900 ) ) ;
#95 = CARTESIAN_POINT ( 'NONE',  ( 302.4825056225768700, 3.110602869834276900E-015, -25.39999999999999900 ) ) ;
#96 = DIRECTION ( 'NONE',  ( 0.0000000000000000000, 0.0000000000000000000, 1.000000000000000000 ) ) ;
#97 = DIRECTION ( 'NONE',  ( 0.0000000000000000000, -1.224646799147353200E-016, 1.000000000000000000 ) ) ;
#98 = VERTEX_POINT ( 'NONE', #225 ) ;
#99 = DIRECTION ( 'NONE',  ( 0.0000000000000000000, 0.0000000000000000000, 1.000000000000000000 ) ) ;
#100 = DIRECTION ( 'NONE',  ( 0.0000000000000000000, -1.000000000000000000, 0.0000000000000000000 ) ) ;
#101 = DIRECTION ( 'NONE',  ( -1.000000000000000000, -0.0000000000000000000, -0.0000000000000000000 ) ) ;
#102 = DIRECTION ( 'NONE',  ( 0.0000000000000000000, 0.0000000000000000000, 1.000000000000000000 ) ) ;
#103 = CARTESIAN_POINT ( 'NONE',  ( 269.4109166072300900, 0.0000000000000000000, 2.168404344971008900E-016 ) ) ;
#104 = ORIENTED_EDGE ( 'NONE', *, *, #20, .F. ) ;
#105 = ORIENTED_EDGE ( 'NONE', *, *, #171, .T. ) ;
#106 = ADVANCED_FACE ( 'NONE', ( #19 ), #157, .T. ) ;
#107 = STYLED_ITEM ( 'NONE', ( #217 ), #59 ) ;
#108 = ORIENTED_EDGE ( 'NONE', *, *, #171, .F. ) ;
#109 = VECTOR ( 'NONE', #229, 1000.000000000000000 ) ;
#110 = DIRECTION ( 'NONE',  ( 0.0000000000000000000, -1.000000000000000000, 0.0000000000000000000 ) ) ;
#111 = ADVANCED_FACE ( 'NONE', ( #263 ), #208, .F. ) ;
#112 = ORIENTED_EDGE ( 'NONE', *, *, #307, .F. ) ;
#113 = SPHERICAL_SURFACE ( 'NONE', #189, 41.70000000000003100 ) ;
#114 = AXIS2_PLACEMENT_3D ( 'NONE', #103, #110, #93 ) ;
#115 = AXIS2_PLACEMENT_3D ( 'NONE', #345, #131, #272 ) ;
#116 = LINE ( 'NONE', #316, #173 ) ;
#117 = EDGE_LOOP ( 'NONE', ( #79, #295, #55 ) ) ;
#118 = VERTEX_POINT ( 'NONE', #94 ) ;
#119 = CIRCLE ( 'NONE', #82, 41.70000000000003100 ) ;
#120 = ADVANCED_FACE ( 'NONE', ( #256 ), #306, .T. ) ;
#121 = FILL_AREA_STYLE ('',( #228 ) ) ;
#122 = STYLED_ITEM ( 'NONE', ( #139 ), #1 ) ;
#123 = VERTEX_POINT ( 'NONE', #151 ) ;
#124 = DIRECTION ( 'NONE',  ( 0.0000000000000000000, 1.000000000000000000, 0.0000000000000000000 ) ) ;
#125 = MANIFOLD_SOLID_BREP ( 'Ðý×ª3', #61 ) ;
#126 = DIRECTION ( 'NONE',  ( 0.0000000000000000000, -1.224646799147353200E-016, 1.000000000000000000 ) ) ;
#127 = CARTESIAN_POINT ( 'NONE',  ( 297.9168260949806500, 0.0000000000000000000, -25.40000000000002700 ) ) ;
#128 = CARTESIAN_POINT ( 'NONE',  ( 269.4109166072300900, 0.0000000000000000000, 2.168404344971008900E-016 ) ) ;
#129 = EDGE_CURVE ( 'NONE', #123, #98, #211, .T. ) ;
#130 = FACE_OUTER_BOUND ( 'NONE', #117, .T. ) ;
#131 = DIRECTION ( 'NONE',  ( -1.000000000000000000, -0.0000000000000000000, -0.0000000000000000000 ) ) ;
#132 = CARTESIAN_POINT ( 'NONE',  ( 302.4825056225768700, 0.0000000000000000000, 0.0000000000000000000 ) ) ;
#133 = ORIENTED_EDGE ( 'NONE', *, *, #191, .T. ) ;
#134 = DIRECTION ( 'NONE',  ( -0.0000000000000000000, -1.000000000000000000, -0.0000000000000000000 ) ) ;
#135 = SPHERICAL_SURFACE ( 'NONE', #49, 50.79999999999999700 ) ;
#136 = DIRECTION ( 'NONE',  ( 0.0000000000000000000, 1.000000000000000000, 0.0000000000000000000 ) ) ;
#137 = FACE_OUTER_BOUND ( 'NONE', #233, .T. ) ;
#138 = EDGE_CURVE ( 'NONE', #317, #118, #188, .T. ) ;
#139 = PRESENTATION_STYLE_ASSIGNMENT (( #258 ) ) ;
#140 = AXIS2_PLACEMENT_3D ( 'NONE', #178, #201, #298 ) ;
#141 = CIRCLE ( 'NONE', #313, 247.7000000000000500 ) ;
#142 = ORIENTED_EDGE ( 'NONE', *, *, #220, .T. ) ;
#143 = EDGE_CURVE ( 'NONE', #18, #118, #9, .T. ) ;
#144 = DIRECTION ( 'NONE',  ( 0.0000000000000000000, 0.0000000000000000000, 1.000000000000000000 ) ) ;
#145 = CARTESIAN_POINT ( 'NONE',  ( 302.4825056225768700, 0.0000000000000000000, 0.0000000000000000000 ) ) ;
#146 = CARTESIAN_POINT ( 'NONE',  ( 269.4109166072300900, 0.0000000000000000000, 2.168404344971008900E-016 ) ) ;
#147 = MECHANICAL_DESIGN_GEOMETRIC_PRESENTATION_REPRESENTATION (  '', ( #107 ), #54 ) ;
#148 = ORIENTED_EDGE ( 'NONE', *, *, #129, .T. ) ;
#149 = SURFACE_STYLE_FILL_AREA ( #176 ) ;
#150 = SURFACE_STYLE_FILL_AREA ( #266 ) ;
#151 = CARTESIAN_POINT ( 'NONE',  ( 314.1109166072301400, 0.0000000000000000000, 1.516725060743997100E-014 ) ) ;
#152 = CARTESIAN_POINT ( 'NONE',  ( 66.41091660723009200, 0.0000000000000000000, 0.0000000000000000000 ) ) ;
#153 = AXIS2_PLACEMENT_3D ( 'NONE', #193, #321, #71 ) ;
#154 = ORIENTED_EDGE ( 'NONE', *, *, #274, .T. ) ;
#155 = DIRECTION ( 'NONE',  ( -1.000000000000000000, -0.0000000000000000000, -0.0000000000000000000 ) ) ;
#156 = CIRCLE ( 'NONE', #44, 41.70000000000003100 ) ;
#157 = SPHERICAL_SURFACE ( 'NONE', #153, 41.70000000000003100 ) ;
#158 = ADVANCED_FACE ( 'NONE', ( #130 ), #113, .T. ) ;
#159 = DIRECTION ( 'NONE',  ( 1.000000000000000000, 0.0000000000000000000, 0.0000000000000000000 ) ) ;
#160 = DIRECTION ( 'NONE',  ( 0.0000000000000000000, 0.0000000000000000000, 1.000000000000000000 ) ) ;
#161 = ORIENTED_EDGE ( 'NONE', *, *, #143, .F. ) ;
#162 = LINE ( 'NONE', #33, #65 ) ;
#163 = CIRCLE ( 'NONE', #58, 25.39999999999992000 ) ;
#164 = LINE ( 'NONE', #210, #318 ) ;
#165 = CARTESIAN_POINT ( 'NONE',  ( 302.4825056225768700, 0.0000000000000000000, 0.0000000000000000000 ) ) ;
#166 = DIRECTION ( 'NONE',  ( 0.0000000000000000000, -1.000000000000000000, -1.224646799147353200E-016 ) ) ;
#167 = ORIENTED_EDGE ( 'NONE', *, *, #231, .F. ) ;
#168 = VERTEX_POINT ( 'NONE', #275 ) ;
#169 = DIRECTION ( 'NONE',  ( 0.0000000000000000000, 0.0000000000000000000, 1.000000000000000000 ) ) ;
#170 = CARTESIAN_POINT ( 'NONE',  ( 302.4825056225768700, 3.110602869834267800E-015, -25.39999999999992000 ) ) ;
#171 = EDGE_CURVE ( 'NONE', #118, #317, #194, .T. ) ;
#172 = CIRCLE ( 'NONE', #140, 25.39999999999991000 ) ;
#173 = VECTOR ( 'NONE', #271, 1000.000000000000000 ) ;
#174 = CARTESIAN_POINT ( 'NONE',  ( 269.4109166072300900, 0.0000000000000000000, 2.168404344971008900E-016 ) ) ;
#175 = FACE_OUTER_BOUND ( 'NONE', #301, .T. ) ;
#176 = FILL_AREA_STYLE ('',( #67 ) ) ;
#177 = DIRECTION ( 'NONE',  ( 0.0000000000000000000, 0.0000000000000000000, 1.000000000000000000 ) ) ;
#178 = CARTESIAN_POINT ( 'NONE',  ( 312.8051738455026800, 0.0000000000000000000, 0.0000000000000000000 ) ) ;
#179 = CARTESIAN_POINT ( 'NONE',  ( 297.9168260949806500, -3.110602869834280400E-015, 25.40000000000002700 ) ) ;
#180 = VERTEX_POINT ( 'NONE', #170 ) ;
#181 = SHAPE_DEFINITION_REPRESENTATION ( #16, #1 ) ;
#182 = ORIENTED_EDGE ( 'NONE', *, *, #191, .F. ) ;
#183 = SURFACE_STYLE_USAGE ( .BOTH. , #7 ) ;
#184 = EDGE_CURVE ( 'NONE', #118, #280, #330, .T. ) ;
#185 = CYLINDRICAL_SURFACE ( 'NONE', #265, 25.39999999999991700 ) ;
#186 = CYLINDRICAL_SURFACE ( 'NONE', #39, 25.39999999999999900 ) ;
#187 = AXIS2_PLACEMENT_3D ( 'NONE', #48, #202, #40 ) ;
#188 = CIRCLE ( 'NONE', #85, 25.39999999999999900 ) ;
#189 = AXIS2_PLACEMENT_3D ( 'NONE', #128, #136, #177 ) ;
#190 = UNCERTAINTY_MEASURE_WITH_UNIT (LENGTH_MEASURE( 1.000000000000000100E-005 ), #328, 'distance_accuracy_value', 'NONE');
#191 = EDGE_CURVE ( 'NONE', #98, #168, #32, .T. ) ;
#192 = SURFACE_SIDE_STYLE ('',( #150 ) ) ;
#193 = CARTESIAN_POINT ( 'NONE',  ( 269.4109166072300900, 0.0000000000000000000, 2.168404344971008900E-016 ) ) ;
#194 = CIRCLE ( 'NONE', #78, 25.39999999999999900 ) ;
#195 =( NAMED_UNIT ( * ) PLANE_ANGLE_UNIT ( ) SI_UNIT ( $, .RADIAN. ) );
#196 = DIRECTION ( 'NONE',  ( 0.0000000000000000000, 0.0000000000000000000, 1.000000000000000000 ) ) ;
#197 = AXIS2_PLACEMENT_3D ( 'NONE', #89, #155, #324 ) ;
#198 = ORIENTED_EDGE ( 'NONE', *, *, #234, .F. ) ;
#199 = CYLINDRICAL_SURFACE ( 'NONE', #115, 25.39999999999999900 ) ;
#200 = EDGE_LOOP ( 'NONE', ( #289, #252, #142 ) ) ;
#201 = DIRECTION ( 'NONE',  ( -1.000000000000000000, -0.0000000000000000000, -0.0000000000000000000 ) ) ;
#202 = DIRECTION ( 'NONE',  ( -0.0000000000000000000, -1.000000000000000000, -0.0000000000000000000 ) ) ;
#203 = DIRECTION ( 'NONE',  ( 0.0000000000000000000, 0.0000000000000000000, 1.000000000000000000 ) ) ;
#204 = CLOSED_SHELL ( 'NONE', ( #106, #52, #120, #86, #243, #158 ) ) ;
#205 = DIRECTION ( 'NONE',  ( -1.000000000000000000, -0.0000000000000000000, -0.0000000000000000000 ) ) ;
#206 = UNCERTAINTY_MEASURE_WITH_UNIT (LENGTH_MEASURE( 1.000000000000000100E-005 ), #293, 'distance_accuracy_value', 'NONE');
#207 = VERTEX_POINT ( 'NONE', #329 ) ;
#208 = SPHERICAL_SURFACE ( 'NONE', #10, 41.70000000000003100 ) ;
#209 = CIRCLE ( 'NONE', #282, 25.39999999999999900 ) ;
#210 = CARTESIAN_POINT ( 'NONE',  ( -0.5519199926577972300, 0.0000000000000000000, 25.39999999999991700 ) ) ;
#211 = CIRCLE ( 'NONE', #315, 247.7000000000000500 ) ;
#212 = DIRECTION ( 'NONE',  ( 0.0000000000000000000, 0.0000000000000000000, 1.000000000000000000 ) ) ;
#213 = PRODUCT_DEFINITION_CONTEXT ( 'detailed design', #304, 'design' ) ;
#214 = UNCERTAINTY_MEASURE_WITH_UNIT (LENGTH_MEASURE( 1.000000000000000100E-005 ), #346, 'distance_accuracy_value', 'NONE');
#215 = FACE_OUTER_BOUND ( 'NONE', #276, .T. ) ;
#216 = AXIS2_PLACEMENT_3D ( 'NONE', #42, #223, #254 ) ;
#217 = PRESENTATION_STYLE_ASSIGNMENT (( #74 ) ) ;
#218 = PRODUCT_DEFINITION ( 'Î´Öª', '', #235, #213 ) ;
#219 = CYLINDRICAL_SURFACE ( 'NONE', #325, 25.39999999999991700 ) ;
#220 = EDGE_CURVE ( 'NONE', #255, #180, #163, .T. ) ;
#221 = AXIS2_PLACEMENT_3D ( 'NONE', #336, #166, #69 ) ;
#222 = PRESENTATION_LAYER_ASSIGNMENT (  '', '', ( #122 ) ) ;
#223 = DIRECTION ( 'NONE',  ( 0.0000000000000000000, 1.000000000000000000, 0.0000000000000000000 ) ) ;
#224 = CARTESIAN_POINT ( 'NONE',  ( 341.9109166072300900, 0.0000000000000000000, 2.168404328815137500E-016 ) ) ;
#225 = CARTESIAN_POINT ( 'NONE',  ( 312.8051738455026800, 3.110602869834266200E-015, -25.39999999999991000 ) ) ;
#226 = DIRECTION ( 'NONE',  ( -1.000000000000000000, -0.0000000000000000000, -0.0000000000000000000 ) ) ;
#227 = FACE_OUTER_BOUND ( 'NONE', #47, .T. ) ;
#228 = FILL_AREA_STYLE_COLOUR ( '', #57 ) ;
#229 = DIRECTION ( 'NONE',  ( -1.000000000000000000, -0.0000000000000000000, -0.0000000000000000000 ) ) ;
#230 = EDGE_LOOP ( 'NONE', ( #25, #15, #76 ) ) ;
#231 = EDGE_CURVE ( 'NONE', #180, #255, #279, .T. ) ;
#232 = EDGE_CURVE ( 'NONE', #317, #270, #162, .T. ) ;
#233 = EDGE_LOOP ( 'NONE', ( #240, #133, #21, #167 ) ) ;
#234 = EDGE_CURVE ( 'NONE', #168, #255, #164, .T. ) ;
#235 = PRODUCT_DEFINITION_FORMATION_WITH_SPECIFIED_SOURCE ( 'ÈÎºÎ', '', #45, .NOT_KNOWN. ) ;
#236 = CIRCLE ( 'NONE', #197, 25.39999999999999900 ) ;
#237 =( NAMED_UNIT ( * ) SI_UNIT ( $, .STERADIAN. ) SOLID_ANGLE_UNIT ( ) );
#238 = EDGE_CURVE ( 'NONE', #269, #180, #119, .T. ) ;
#239 = DIRECTION ( 'NONE',  ( -1.000000000000000000, -0.0000000000000000000, -0.0000000000000000000 ) ) ;
#240 = ORIENTED_EDGE ( 'NONE', *, *, #347, .F. ) ;
#241 = CARTESIAN_POINT ( 'NONE',  ( 297.9168260949806500, 0.0000000000000000000, 0.0000000000000000000 ) ) ;
#242 = CARTESIAN_POINT ( 'NONE',  ( 312.8051738455026800, 0.0000000000000000000, 0.0000000000000000000 ) ) ;
#243 = ADVANCED_FACE ( 'NONE', ( #175 ), #199, .T. ) ;
#244 = ORIENTED_EDGE ( 'NONE', *, *, #138, .T. ) ;
#245 = ORIENTED_EDGE ( 'NONE', *, *, #3, .F. ) ;
#246 = ADVANCED_FACE ( 'NONE', ( #227 ), #185, .T. ) ;
#247 =( NAMED_UNIT ( * ) PLANE_ANGLE_UNIT ( ) SI_UNIT ( $, .RADIAN. ) );
#248 = CARTESIAN_POINT ( 'NONE',  ( 302.4825056225768700, 0.0000000000000000000, 25.39999999999992000 ) ) ;
#249 = DIRECTION ( 'NONE',  ( 0.0000000000000000000, 0.0000000000000000000, -1.000000000000000000 ) ) ;
#250 = EDGE_CURVE ( 'NONE', #269, #255, #314, .T. ) ;
#251 = CARTESIAN_POINT ( 'NONE',  ( -0.5519199926577972300, 0.0000000000000000000, 0.0000000000000000000 ) ) ;
#252 = ORIENTED_EDGE ( 'NONE', *, *, #250, .T. ) ;
#253 = ORIENTED_EDGE ( 'NONE', *, *, #274, .F. ) ;
#254 = DIRECTION ( 'NONE',  ( 0.0000000000000000000, 0.0000000000000000000, 1.000000000000000000 ) ) ;
#255 = VERTEX_POINT ( 'NONE', #248 ) ;
#256 = FACE_OUTER_BOUND ( 'NONE', #70, .T. ) ;
#257 =( GEOMETRIC_REPRESENTATION_CONTEXT ( 3 ) GLOBAL_UNCERTAINTY_ASSIGNED_CONTEXT ( ( #190 ) ) GLOBAL_UNIT_ASSIGNED_CONTEXT ( ( #328, #195, #237 ) ) REPRESENTATION_CONTEXT ( 'NONE', 'WORKASPACE' ) );
#258 = SURFACE_STYLE_USAGE ( .BOTH. , #192 ) ;
#259 = COLOUR_RGB ( '',1.000000000000000000, 1.000000000000000000, 1.000000000000000000 ) ;
#260 = ORIENTED_EDGE ( 'NONE', *, *, #232, .T. ) ;
#261 = ADVANCED_FACE ( 'NONE', ( #137 ), #219, .T. ) ;
#262 = AXIS2_PLACEMENT_3D ( 'NONE', #224, #12, #196 ) ;
#263 = FACE_OUTER_BOUND ( 'NONE', #200, .T. ) ;
#264 = AXIS2_PLACEMENT_3D ( 'NONE', #22, #160, #159 ) ;
#265 = AXIS2_PLACEMENT_3D ( 'NONE', #75, #300, #169 ) ;
#266 = FILL_AREA_STYLE ('',( #322 ) ) ;
#267 = CARTESIAN_POINT ( 'NONE',  ( 302.4825056225768700, 0.0000000000000000000, 0.0000000000000000000 ) ) ;
#268 =( NAMED_UNIT ( * ) PLANE_ANGLE_UNIT ( ) SI_UNIT ( $, .RADIAN. ) );
#269 = VERTEX_POINT ( 'NONE', #29 ) ;
#270 = VERTEX_POINT ( 'NONE', #127 ) ;
#271 = DIRECTION ( 'NONE',  ( -1.000000000000000000, -0.0000000000000000000, -0.0000000000000000000 ) ) ;
#272 = DIRECTION ( 'NONE',  ( 0.0000000000000000000, 0.0000000000000000000, 1.000000000000000000 ) ) ;
#273 = DIRECTION ( 'NONE',  ( 0.0000000000000000000, -1.224646799147353200E-016, 1.000000000000000000 ) ) ;
#274 = EDGE_CURVE ( 'NONE', #270, #280, #209, .T. ) ;
#275 = CARTESIAN_POINT ( 'NONE',  ( 312.8051738455026800, 0.0000000000000000000, 25.39999999999991000 ) ) ;
#276 = EDGE_LOOP ( 'NONE', ( #308, #90, #283 ) ) ;
#277 = ORIENTED_EDGE ( 'NONE', *, *, #347, .T. ) ;
#278 = FACE_OUTER_BOUND ( 'NONE', #342, .T. ) ;
#279 = CIRCLE ( 'NONE', #305, 25.39999999999992000 ) ;
#280 = VERTEX_POINT ( 'NONE', #179 ) ;
#281 = UNCERTAINTY_MEASURE_WITH_UNIT (LENGTH_MEASURE( 1.000000000000000100E-005 ), #331, 'distance_accuracy_value', 'NONE');
#282 = AXIS2_PLACEMENT_3D ( 'NONE', #241, #43, #212 ) ;
#283 = ORIENTED_EDGE ( 'NONE', *, *, #231, .T. ) ;
#284 = ORIENTED_EDGE ( 'NONE', *, *, #307, .T. ) ;
#285 = MECHANICAL_DESIGN_GEOMETRIC_PRESENTATION_REPRESENTATION (  '', ( #122 ), #257 ) ;
#286 = DIRECTION ( 'NONE',  ( 0.0000000000000000000, 0.0000000000000000000, 1.000000000000000000 ) ) ;
#287 = CARTESIAN_POINT ( 'NONE',  ( 66.41091660723009200, 0.0000000000000000000, 0.0000000000000000000 ) ) ;
#288 = EDGE_CURVE ( 'NONE', #168, #98, #172, .T. ) ;
#289 = ORIENTED_EDGE ( 'NONE', *, *, #238, .F. ) ;
#290 = ORIENTED_EDGE ( 'NONE', *, *, #80, .T. ) ;
#291 = DIRECTION ( 'NONE',  ( -1.000000000000000000, -0.0000000000000000000, -0.0000000000000000000 ) ) ;
#292 = CARTESIAN_POINT ( 'NONE',  ( 124.5233095260452400, 0.0000000000000000000, 25.39999999999999900 ) ) ;
#293 =( LENGTH_UNIT ( ) NAMED_UNIT ( * ) SI_UNIT ( .MILLI., .METRE. ) );
#294 = DIRECTION ( 'NONE',  ( -1.000000000000000000, -0.0000000000000000000, -0.0000000000000000000 ) ) ;
#295 = ORIENTED_EDGE ( 'NONE', *, *, #143, .T. ) ;
#296 = DIRECTION ( 'NONE',  ( -0.0000000000000000000, 1.000000000000000000, 1.224646799147353200E-016 ) ) ;
#297 = CARTESIAN_POINT ( 'NONE',  ( 269.4109166072300900, 0.0000000000000000000, 2.168404344971008900E-016 ) ) ;
#298 = DIRECTION ( 'NONE',  ( 0.0000000000000000000, 0.0000000000000000000, 1.000000000000000000 ) ) ;
#299 = DIRECTION ( 'NONE',  ( -1.000000000000000000, -0.0000000000000000000, -0.0000000000000000000 ) ) ;
#300 = DIRECTION ( 'NONE',  ( -1.000000000000000000, -0.0000000000000000000, -0.0000000000000000000 ) ) ;
#301 = EDGE_LOOP ( 'NONE', ( #37, #244, #51, #253 ) ) ;
#302 = DIRECTION ( 'NONE',  ( 0.0000000000000000000, 0.0000000000000000000, 1.000000000000000000 ) ) ;
#303 = DIRECTION ( 'NONE',  ( 0.0000000000000000000, 0.0000000000000000000, 1.000000000000000000 ) ) ;
#304 = APPLICATION_CONTEXT ( 'automotive_design' ) ;
#305 = AXIS2_PLACEMENT_3D ( 'NONE', #165, #291, #327 ) ;
#306 = SPHERICAL_SURFACE ( 'NONE', #187, 50.79999999999999700 ) ;
#307 = EDGE_CURVE ( 'NONE', #123, #168, #141, .T. ) ;
#308 = ORIENTED_EDGE ( 'NONE', *, *, #250, .F. ) ;
#309 = ORIENTED_EDGE ( 'NONE', *, *, #288, .T. ) ;
#310 = AXIS2_PLACEMENT_3D ( 'NONE', #36, #124, #96 ) ;
#311 = DIRECTION ( 'NONE',  ( -0.0000000000000000000, 1.000000000000000000, 1.224646799147353200E-016 ) ) ;
#312 = EDGE_LOOP ( 'NONE', ( #161, #323, #108 ) ) ;
#313 = AXIS2_PLACEMENT_3D ( 'NONE', #152, #31, #41 ) ;
#314 = CIRCLE ( 'NONE', #114, 41.70000000000003100 ) ;
#315 = AXIS2_PLACEMENT_3D ( 'NONE', #287, #77, #97 ) ;
#316 = CARTESIAN_POINT ( 'NONE',  ( -0.5519199926577972300, 3.110602869834266600E-015, -25.39999999999991700 ) ) ;
#317 = VERTEX_POINT ( 'NONE', #95 ) ;
#318 = VECTOR ( 'NONE', #28, 1000.000000000000000 ) ;
#319 =( NAMED_UNIT ( * ) PLANE_ANGLE_UNIT ( ) SI_UNIT ( $, .RADIAN. ) );
#320 = EDGE_LOOP ( 'NONE', ( #112, #148, #24 ) ) ;
#321 = DIRECTION ( 'NONE',  ( 0.0000000000000000000, 1.000000000000000000, 0.0000000000000000000 ) ) ;
#322 = FILL_AREA_STYLE_COLOUR ( '', #335 ) ;
#323 = ORIENTED_EDGE ( 'NONE', *, *, #326, .T. ) ;
#324 = DIRECTION ( 'NONE',  ( 0.0000000000000000000, 0.0000000000000000000, 1.000000000000000000 ) ) ;
#325 = AXIS2_PLACEMENT_3D ( 'NONE', #251, #239, #286 ) ;
#326 = EDGE_CURVE ( 'NONE', #18, #317, #156, .T. ) ;
#327 = DIRECTION ( 'NONE',  ( 0.0000000000000000000, 0.0000000000000000000, 1.000000000000000000 ) ) ;
#328 =( LENGTH_UNIT ( ) NAMED_UNIT ( * ) SI_UNIT ( .MILLI., .METRE. ) );
#329 = CARTESIAN_POINT ( 'NONE',  ( 291.1109166072300800, 0.0000000000000000000, -2.893762436952763100E-015 ) ) ;
#330 = LINE ( 'NONE', #292, #109 ) ;
#331 =( LENGTH_UNIT ( ) NAMED_UNIT ( * ) SI_UNIT ( .MILLI., .METRE. ) );
#332 = APPLICATION_PROTOCOL_DEFINITION ( 'draft international standard', 'automotive_design', 1998, #304 ) ;
#333 = CARTESIAN_POINT ( 'NONE',  ( 341.9109166072300900, 0.0000000000000000000, 2.168404328815137500E-016 ) ) ;
#334 = DIRECTION ( 'NONE',  ( 0.0000000000000000000, 0.0000000000000000000, -1.000000000000000000 ) ) ;
#335 = COLOUR_RGB ( '',1.000000000000000000, 1.000000000000000000, 1.000000000000000000 ) ;
#336 = CARTESIAN_POINT ( 'NONE',  ( 341.9109166072300900, 0.0000000000000000000, 2.168404328815137500E-016 ) ) ;
#337 = PRODUCT_CONTEXT ( 'NONE', #68, 'mechanical' ) ;
#338 = ORIENTED_EDGE ( 'NONE', *, *, #220, .F. ) ;
#339 = PRESENTATION_LAYER_ASSIGNMENT (  '', '', ( #73 ) ) ;
#340 = PRESENTATION_STYLE_ASSIGNMENT (( #183 ) ) ;
#341 = PRODUCT_RELATED_PRODUCT_CATEGORY ( 'part', '', ( #45 ) ) ;
#342 = EDGE_LOOP ( 'NONE', ( #13, #284, #182 ) ) ;
#343 =( NAMED_UNIT ( * ) SI_UNIT ( $, .STERADIAN. ) SOLID_ANGLE_UNIT ( ) );
#344 = APPLICATION_PROTOCOL_DEFINITION ( 'draft international standard', 'automotive_design', 1998, #68 ) ;
#345 = CARTESIAN_POINT ( 'NONE',  ( 124.5233095260452400, 0.0000000000000000000, 0.0000000000000000000 ) ) ;
#346 =( LENGTH_UNIT ( ) NAMED_UNIT ( * ) SI_UNIT ( .MILLI., .METRE. ) );
#347 = EDGE_CURVE ( 'NONE', #98, #180, #116, .T. ) ;
ENDSEC;
END-ISO-10303-21;
