ISO-10303-21;
HEADER;
FILE_DESCRIPTION (( 'STEP AP214' ),
    '1' );
FILE_NAME ('145085.STEP',
    '2019-05-16T07:47:17',
    ( 'user' ),
    ( 'Î¢ÈíÖÐ¹ú' ),
    'SwSTEP 2.0',
    'SolidWorks 2016',
    '' );
FILE_SCHEMA (( 'AUTOMOTIVE_DESIGN' ));
ENDSEC;

DATA;
#1 = AXIS2_PLACEMENT_3D ( 'NONE', #342, #186, #333 ) ;
#2 = AXIS2_PLACEMENT_3D ( 'NONE', #87, #38, #95 ) ;
#3 = DIRECTION ( 'NONE',  ( -0.0000000000000000000, 1.000000000000000000, 1.224646799147353200E-016 ) ) ;
#4 = UNCERTAINTY_MEASURE_WITH_UNIT (LENGTH_MEASURE( 1.000000000000000100E-005 ), #22, 'distance_accuracy_value', 'NONE');
#5 = ORIENTED_EDGE ( 'NONE', *, *, #225, .T. ) ;
#6 = AXIS2_PLACEMENT_3D ( 'NONE', #177, #81, #347 ) ;
#7 = DIRECTION ( 'NONE',  ( 0.0000000000000000000, 1.000000000000000000, 0.0000000000000000000 ) ) ;
#8 = FACE_OUTER_BOUND ( 'NONE', #20, .T. ) ;
#9 = ORIENTED_EDGE ( 'NONE', *, *, #26, .F. ) ;
#10 = VERTEX_POINT ( 'NONE', #267 ) ;
#11 = ORIENTED_EDGE ( 'NONE', *, *, #33, .F. ) ;
#12 = DIRECTION ( 'NONE',  ( -1.000000000000000000, -0.0000000000000000000, -0.0000000000000000000 ) ) ;
#13 = EDGE_CURVE ( 'NONE', #325, #257, #45, .T. ) ;
#14 = SPHERICAL_SURFACE ( 'NONE', #85, 46.39999999999999900 ) ;
#15 = ORIENTED_EDGE ( 'NONE', *, *, #28, .F. ) ;
#16 = EDGE_CURVE ( 'NONE', #272, #229, #54, .T. ) ;
#17 = VECTOR ( 'NONE', #99, 1000.000000000000000 ) ;
#18 = STYLED_ITEM ( 'NONE', ( #101 ), #277 ) ;
#19 = CARTESIAN_POINT ( 'NONE',  ( 354.7109166072301000, 0.0000000000000000000, -8.888639138452287700E-014 ) ) ;
#20 = EDGE_LOOP ( 'NONE', ( #262, #44, #199, #287 ) ) ;
#21 = EDGE_LOOP ( 'NONE', ( #250, #288, #291 ) ) ;
#22 =( LENGTH_UNIT ( ) NAMED_UNIT ( * ) SI_UNIT ( .MILLI., .METRE. ) );
#23 = DIRECTION ( 'NONE',  ( 0.0000000000000000000, -1.224646799147353000E-016, 1.000000000000000000 ) ) ;
#24 = AXIS2_PLACEMENT_3D ( 'NONE', #264, #220, #77 ) ;
#25 = CIRCLE ( 'NONE', #1, 46.39999999999999900 ) ;
#26 = EDGE_CURVE ( 'NONE', #332, #249, #41, .T. ) ;
#27 = ORIENTED_EDGE ( 'NONE', *, *, #282, .F. ) ;
#28 = EDGE_CURVE ( 'NONE', #325, #251, #67, .T. ) ;
#29 = UNCERTAINTY_MEASURE_WITH_UNIT (LENGTH_MEASURE( 1.000000000000000100E-005 ), #36, 'distance_accuracy_value', 'NONE');
#30 = CARTESIAN_POINT ( 'NONE',  ( 316.5025187411785600, 0.0000000000000000000, 0.0000000000000000000 ) ) ;
#31 = PRODUCT_CONTEXT ( 'NONE', #47, 'mechanical' ) ;
#32 = FACE_OUTER_BOUND ( 'NONE', #114, .T. ) ;
#33 = EDGE_CURVE ( 'NONE', #332, #115, #25, .T. ) ;
#34 =( LENGTH_UNIT ( ) NAMED_UNIT ( * ) SI_UNIT ( .MILLI., .METRE. ) );
#35 = CARTESIAN_POINT ( 'NONE',  ( 70.61091660723012400, 0.0000000000000000000, 0.0000000000000000000 ) ) ;
#36 =( LENGTH_UNIT ( ) NAMED_UNIT ( * ) SI_UNIT ( .MILLI., .METRE. ) );
#37 = EDGE_CURVE ( 'NONE', #229, #272, #187, .T. ) ;
#38 = DIRECTION ( 'NONE',  ( 0.0000000000000000000, 1.000000000000000000, 0.0000000000000000000 ) ) ;
#39 = CARTESIAN_POINT ( 'NONE',  ( -0.5519199926577972300, 3.110602869834272900E-015, -25.39999999999996300 ) ) ;
#40 = EDGE_CURVE ( 'NONE', #115, #272, #298, .T. ) ;
#41 = CIRCLE ( 'NONE', #216, 46.39999999999999900 ) ;
#42 = CIRCLE ( 'NONE', #106, 54.90000000000000600 ) ;
#43 = SPHERICAL_SURFACE ( 'NONE', #316, 247.2000000000000200 ) ;
#44 = ORIENTED_EDGE ( 'NONE', *, *, #282, .T. ) ;
#45 = CIRCLE ( 'NONE', #336, 25.39999999999994900 ) ;
#46 =( GEOMETRIC_REPRESENTATION_CONTEXT ( 3 ) GLOBAL_UNCERTAINTY_ASSIGNED_CONTEXT ( ( #248 ) ) GLOBAL_UNIT_ASSIGNED_CONTEXT ( ( #34, #150, #335 ) ) REPRESENTATION_CONTEXT ( 'NONE', 'WORKASPACE' ) );
#47 = APPLICATION_CONTEXT ( 'automotive_design' ) ;
#48 = DIRECTION ( 'NONE',  ( 0.0000000000000000000, 1.000000000000000000, 0.0000000000000000000 ) ) ;
#49 = CARTESIAN_POINT ( 'NONE',  ( 316.5025187411785600, 0.0000000000000000000, 0.0000000000000000000 ) ) ;
#50 =( NAMED_UNIT ( * ) SI_UNIT ( $, .STERADIAN. ) SOLID_ANGLE_UNIT ( ) );
#51 = DIRECTION ( 'NONE',  ( 0.0000000000000000000, 0.0000000000000000000, 1.000000000000000000 ) ) ;
#52 = COLOUR_RGB ( '',1.000000000000000000, 1.000000000000000000, 1.000000000000000000 ) ;
#53 = EDGE_LOOP ( 'NONE', ( #9, #219, #141 ) ) ;
#54 = CIRCLE ( 'NONE', #285, 25.39999999999996300 ) ;
#55 = VERTEX_POINT ( 'NONE', #256 ) ;
#56 = DIRECTION ( 'NONE',  ( 0.0000000000000000000, 0.0000000000000000000, 1.000000000000000000 ) ) ;
#57 = AXIS2_PLACEMENT_3D ( 'NONE', #157, #227, #202 ) ;
#58 = FILL_AREA_STYLE_COLOUR ( '', #161 ) ;
#59 = CIRCLE ( 'NONE', #61, 25.39999999999995600 ) ;
#60 = ORIENTED_EDGE ( 'NONE', *, *, #37, .F. ) ;
#61 = AXIS2_PLACEMENT_3D ( 'NONE', #108, #123, #232 ) ;
#62 = CARTESIAN_POINT ( 'NONE',  ( 306.0400834522490600, 0.0000000000000000000, 25.39999999999996300 ) ) ;
#63 = SPHERICAL_SURFACE ( 'NONE', #340, 46.39999999999999900 ) ;
#64 = SHAPE_DEFINITION_REPRESENTATION ( #312, #277 ) ;
#65 = CIRCLE ( 'NONE', #242, 247.2000000000000200 ) ;
#66 = ORIENTED_EDGE ( 'NONE', *, *, #279, .F. ) ;
#67 = LINE ( 'NONE', #39, #190 ) ;
#68 = EDGE_CURVE ( 'NONE', #10, #251, #96, .T. ) ;
#69 = FACE_OUTER_BOUND ( 'NONE', #281, .T. ) ;
#70 = ORIENTED_EDGE ( 'NONE', *, *, #73, .F. ) ;
#71 = ORIENTED_EDGE ( 'NONE', *, *, #68, .F. ) ;
#72 = CIRCLE ( 'NONE', #265, 54.90000000000000600 ) ;
#73 = EDGE_CURVE ( 'NONE', #257, #325, #217, .T. ) ;
#74 = ADVANCED_FACE ( 'NONE', ( #189 ), #210, .T. ) ;
#75 = EDGE_CURVE ( 'NONE', #55, #251, #170, .T. ) ;
#76 =( NAMED_UNIT ( * ) PLANE_ANGLE_UNIT ( ) SI_UNIT ( $, .RADIAN. ) );
#77 = DIRECTION ( 'NONE',  ( 0.0000000000000000000, 0.0000000000000000000, 1.000000000000000000 ) ) ;
#78 = DIRECTION ( 'NONE',  ( -1.000000000000000000, -0.0000000000000000000, -0.0000000000000000000 ) ) ;
#79 = DIRECTION ( 'NONE',  ( 0.0000000000000000000, -1.224646799147353000E-016, 1.000000000000000000 ) ) ;
#80 = CARTESIAN_POINT ( 'NONE',  ( 308.2413170687241900, 0.0000000000000000000, 25.39999999999995600 ) ) ;
#81 = DIRECTION ( 'NONE',  ( -1.000000000000000000, -0.0000000000000000000, -0.0000000000000000000 ) ) ;
#82 = PRODUCT_DEFINITION_CONTEXT ( 'detailed design', #276, 'design' ) ;
#83 = SPHERICAL_SURFACE ( 'NONE', #2, 247.2000000000000200 ) ;
#84 = ORIENTED_EDGE ( 'NONE', *, *, #13, .T. ) ;
#85 = AXIS2_PLACEMENT_3D ( 'NONE', #329, #197, #98 ) ;
#86 = ORIENTED_EDGE ( 'NONE', *, *, #16, .T. ) ;
#87 = CARTESIAN_POINT ( 'NONE',  ( 70.61091660723012400, 0.0000000000000000000, 0.0000000000000000000 ) ) ;
#88 = SURFACE_STYLE_FILL_AREA ( #127 ) ;
#89 =( NAMED_UNIT ( * ) PLANE_ANGLE_UNIT ( ) SI_UNIT ( $, .RADIAN. ) );
#90 = AXIS2_PLACEMENT_3D ( 'NONE', #118, #194, #169 ) ;
#91 = ORIENTED_EDGE ( 'NONE', *, *, #13, .F. ) ;
#92 = PRODUCT_DEFINITION ( 'Î´Öª', '', #165, #82 ) ;
#93 = CARTESIAN_POINT ( 'NONE',  ( 269.4109166072300900, 0.0000000000000000000, 2.168404344971008900E-016 ) ) ;
#94 =( NAMED_UNIT ( * ) PLANE_ANGLE_UNIT ( ) SI_UNIT ( $, .RADIAN. ) );
#95 = DIRECTION ( 'NONE',  ( 0.0000000000000000000, 0.0000000000000000000, 1.000000000000000000 ) ) ;
#96 = CIRCLE ( 'NONE', #188, 25.39999999999997700 ) ;
#97 = DIRECTION ( 'NONE',  ( -1.000000000000000000, -0.0000000000000000000, -0.0000000000000000000 ) ) ;
#98 = DIRECTION ( 'NONE',  ( 0.0000000000000000000, 0.0000000000000000000, 1.000000000000000000 ) ) ;
#99 = DIRECTION ( 'NONE',  ( -1.000000000000000000, -0.0000000000000000000, -0.0000000000000000000 ) ) ;
#100 = MECHANICAL_DESIGN_GEOMETRIC_PRESENTATION_REPRESENTATION (  '', ( #176 ), #162 ) ;
#101 = PRESENTATION_STYLE_ASSIGNMENT (( #259 ) ) ;
#102 = CARTESIAN_POINT ( 'NONE',  ( 299.8109166072300700, 0.0000000000000000000, -8.552473592086339600E-014 ) ) ;
#103 = CARTESIAN_POINT ( 'NONE',  ( 354.7109166072301000, 0.0000000000000000000, -8.888639138452287700E-014 ) ) ;
#104 = FACE_OUTER_BOUND ( 'NONE', #171, .T. ) ;
#105 = LINE ( 'NONE', #154, #160 ) ;
#106 = AXIS2_PLACEMENT_3D ( 'NONE', #128, #266, #292 ) ;
#107 = APPLICATION_PROTOCOL_DEFINITION ( 'draft international standard', 'automotive_design', 1998, #47 ) ;
#108 = CARTESIAN_POINT ( 'NONE',  ( 308.2413170687241900, 0.0000000000000000000, 0.0000000000000000000 ) ) ;
#109 = FILL_AREA_STYLE ('',( #58 ) ) ;
#110 =( GEOMETRIC_REPRESENTATION_CONTEXT ( 3 ) GLOBAL_UNCERTAINTY_ASSIGNED_CONTEXT ( ( #4 ) ) GLOBAL_UNIT_ASSIGNED_CONTEXT ( ( #22, #76, #166 ) ) REPRESENTATION_CONTEXT ( 'NONE', 'WORKASPACE' ) );
#111 = FACE_OUTER_BOUND ( 'NONE', #53, .T. ) ;
#112 = DIRECTION ( 'NONE',  ( -1.000000000000000000, -0.0000000000000000000, -0.0000000000000000000 ) ) ;
#113 = EDGE_LOOP ( 'NONE', ( #307, #263, #153 ) ) ;
#114 = EDGE_LOOP ( 'NONE', ( #172, #211, #71, #283 ) ) ;
#115 = VERTEX_POINT ( 'NONE', #191 ) ;
#116 = CARTESIAN_POINT ( 'NONE',  ( 269.4109166072300900, 0.0000000000000000000, 2.168404344971008900E-016 ) ) ;
#117 = CARTESIAN_POINT ( 'NONE',  ( -0.5519199926577972300, 0.0000000000000000000, 0.0000000000000000000 ) ) ;
#118 = CARTESIAN_POINT ( 'NONE',  ( 308.2413170687241900, 0.0000000000000000000, 0.0000000000000000000 ) ) ;
#119 = CARTESIAN_POINT ( 'NONE',  ( 306.0400834522490600, 0.0000000000000000000, 0.0000000000000000000 ) ) ;
#120 = DIRECTION ( 'NONE',  ( -1.000000000000000000, -0.0000000000000000000, -0.0000000000000000000 ) ) ;
#121 = LINE ( 'NONE', #269, #17 ) ;
#122 = DIRECTION ( 'NONE',  ( 0.0000000000000000000, -1.000000000000000000, 0.0000000000000000000 ) ) ;
#123 = DIRECTION ( 'NONE',  ( -1.000000000000000000, -0.0000000000000000000, -0.0000000000000000000 ) ) ;
#124 = AXIS2_PLACEMENT_3D ( 'NONE', #252, #215, #174 ) ;
#125 = ORIENTED_EDGE ( 'NONE', *, *, #295, .F. ) ;
#126 = EDGE_LOOP ( 'NONE', ( #15, #84, #338, #240 ) ) ;
#127 = FILL_AREA_STYLE ('',( #237 ) ) ;
#128 = CARTESIAN_POINT ( 'NONE',  ( 354.7109166072301000, 0.0000000000000000000, -8.888639138452287700E-014 ) ) ;
#129 = SPHERICAL_SURFACE ( 'NONE', #236, 54.90000000000000600 ) ;
#130 = AXIS2_PLACEMENT_3D ( 'NONE', #49, #112, #131 ) ;
#131 = DIRECTION ( 'NONE',  ( 0.0000000000000000000, 0.0000000000000000000, 1.000000000000000000 ) ) ;
#132 = CYLINDRICAL_SURFACE ( 'NONE', #193, 25.39999999999995900 ) ;
#133 = ADVANCED_FACE ( 'NONE', ( #223 ), #14, .T. ) ;
#134 = VERTEX_POINT ( 'NONE', #179 ) ;
#135 = STYLED_ITEM ( 'NONE', ( #346 ), #238 ) ;
#136 = CIRCLE ( 'NONE', #24, 25.39999999999997700 ) ;
#137 = PRESENTATION_STYLE_ASSIGNMENT (( #314 ) ) ;
#138 = DIRECTION ( 'NONE',  ( 0.0000000000000000000, 0.0000000000000000000, -1.000000000000000000 ) ) ;
#139 = DIRECTION ( 'NONE',  ( -1.000000000000000000, -0.0000000000000000000, -0.0000000000000000000 ) ) ;
#140 = SPHERICAL_SURFACE ( 'NONE', #228, 54.90000000000000600 ) ;
#141 = ORIENTED_EDGE ( 'NONE', *, *, #225, .F. ) ;
#142 = SURFACE_SIDE_STYLE ('',( #88 ) ) ;
#143 = DIRECTION ( 'NONE',  ( 0.0000000000000000000, 0.0000000000000000000, 1.000000000000000000 ) ) ;
#144 = PRESENTATION_LAYER_ASSIGNMENT (  '', '', ( #135 ) ) ;
#145 = DIRECTION ( 'NONE',  ( 0.0000000000000000000, 1.000000000000000000, 0.0000000000000000000 ) ) ;
#146 = PRESENTATION_LAYER_ASSIGNMENT (  '', '', ( #18 ) ) ;
#147 = DIRECTION ( 'NONE',  ( 0.0000000000000000000, -1.000000000000000000, 0.0000000000000000000 ) ) ;
#148 = PRODUCT ( '145085', '145085', '', ( #31 ) ) ;
#149 = MANIFOLD_SOLID_BREP ( 'Ðý×ª3', #178 ) ;
#150 =( NAMED_UNIT ( * ) PLANE_ANGLE_UNIT ( ) SI_UNIT ( $, .RADIAN. ) );
#151 = AXIS2_PLACEMENT_3D ( 'NONE', #116, #253, #303 ) ;
#152 = CARTESIAN_POINT ( 'NONE',  ( 70.61091660723012400, 0.0000000000000000000, 0.0000000000000000000 ) ) ;
#153 = ORIENTED_EDGE ( 'NONE', *, *, #68, .T. ) ;
#154 = CARTESIAN_POINT ( 'NONE',  ( 124.5233095260452400, 0.0000000000000000000, 25.39999999999995900 ) ) ;
#155 = FILL_AREA_STYLE ('',( #206 ) ) ;
#156 = DIRECTION ( 'NONE',  ( 0.0000000000000000000, 0.0000000000000000000, 1.000000000000000000 ) ) ;
#157 = CARTESIAN_POINT ( 'NONE',  ( 0.0000000000000000000, 0.0000000000000000000, 0.0000000000000000000 ) ) ;
#158 = SURFACE_SIDE_STYLE ('',( #239 ) ) ;
#159 = ADVANCED_FACE ( 'NONE', ( #290 ), #304, .F. ) ;
#160 = VECTOR ( 'NONE', #97, 1000.000000000000000 ) ;
#161 = COLOUR_RGB ( '',1.000000000000000000, 1.000000000000000000, 1.000000000000000000 ) ;
#162 =( GEOMETRIC_REPRESENTATION_CONTEXT ( 3 ) GLOBAL_UNCERTAINTY_ASSIGNED_CONTEXT ( ( #301 ) ) GLOBAL_UNIT_ASSIGNED_CONTEXT ( ( #233, #94, #50 ) ) REPRESENTATION_CONTEXT ( 'NONE', 'WORKASPACE' ) );
#163 = EDGE_LOOP ( 'NONE', ( #11, #224, #27 ) ) ;
#164 = DIRECTION ( 'NONE',  ( 0.0000000000000000000, 1.000000000000000000, 0.0000000000000000000 ) ) ;
#165 = PRODUCT_DEFINITION_FORMATION_WITH_SPECIFIED_SOURCE ( 'ÈÎºÎ', '', #148, .NOT_KNOWN. ) ;
#166 =( NAMED_UNIT ( * ) SI_UNIT ( $, .STERADIAN. ) SOLID_ANGLE_UNIT ( ) );
#167 = DIRECTION ( 'NONE',  ( -1.000000000000000000, -0.0000000000000000000, -0.0000000000000000000 ) ) ;
#168 =( NAMED_UNIT ( * ) SI_UNIT ( $, .STERADIAN. ) SOLID_ANGLE_UNIT ( ) );
#169 = DIRECTION ( 'NONE',  ( 0.0000000000000000000, 0.0000000000000000000, 1.000000000000000000 ) ) ;
#170 = CIRCLE ( 'NONE', #214, 46.39999999999999900 ) ;
#171 = EDGE_LOOP ( 'NONE', ( #218, #86, #323 ) ) ;
#172 = ORIENTED_EDGE ( 'NONE', *, *, #73, .T. ) ;
#173 = CARTESIAN_POINT ( 'NONE',  ( 269.4109166072300900, 0.0000000000000000000, 2.168404344971008900E-016 ) ) ;
#174 = DIRECTION ( 'NONE',  ( 0.0000000000000000000, 0.0000000000000000000, 1.000000000000000000 ) ) ;
#175 = CARTESIAN_POINT ( 'NONE',  ( 316.5025187411785600, 0.0000000000000000000, 25.39999999999994900 ) ) ;
#176 = STYLED_ITEM ( 'NONE', ( #137 ), #149 ) ;
#177 = CARTESIAN_POINT ( 'NONE',  ( -0.5519199926577972300, 0.0000000000000000000, 0.0000000000000000000 ) ) ;
#178 = CLOSED_SHELL ( 'NONE', ( #328, #268, #345, #159, #330, #293 ) ) ;
#179 = CARTESIAN_POINT ( 'NONE',  ( 317.8109166072301300, 0.0000000000000000000, 1.513663443746128400E-014 ) ) ;
#180 = DIRECTION ( 'NONE',  ( 0.0000000000000000000, -1.000000000000000000, 0.0000000000000000000 ) ) ;
#181 = DIRECTION ( 'NONE',  ( -1.000000000000000000, -0.0000000000000000000, -0.0000000000000000000 ) ) ;
#182 = MECHANICAL_DESIGN_GEOMETRIC_PRESENTATION_REPRESENTATION (  '', ( #135 ), #46 ) ;
#183 = CARTESIAN_POINT ( 'NONE',  ( 269.4109166072300900, 0.0000000000000000000, 2.168404344971008900E-016 ) ) ;
#184 = ORIENTED_EDGE ( 'NONE', *, *, #279, .T. ) ;
#185 = CLOSED_SHELL ( 'NONE', ( #284, #74, #321, #274, #243, #133 ) ) ;
#186 = DIRECTION ( 'NONE',  ( -0.0000000000000000000, 1.000000000000000000, 1.224646799147353200E-016 ) ) ;
#187 = CIRCLE ( 'NONE', #209, 25.39999999999996300 ) ;
#188 = AXIS2_PLACEMENT_3D ( 'NONE', #309, #139, #143 ) ;
#189 = FACE_OUTER_BOUND ( 'NONE', #339, .T. ) ;
#190 = VECTOR ( 'NONE', #12, 1000.000000000000000 ) ;
#191 = CARTESIAN_POINT ( 'NONE',  ( 308.2413170687241900, 3.110602869834272500E-015, -25.39999999999995600 ) ) ;
#192 = ORIENTED_EDGE ( 'NONE', *, *, #40, .T. ) ;
#193 = AXIS2_PLACEMENT_3D ( 'NONE', #235, #337, #156 ) ;
#194 = DIRECTION ( 'NONE',  ( -1.000000000000000000, -0.0000000000000000000, -0.0000000000000000000 ) ) ;
#195 = CARTESIAN_POINT ( 'NONE',  ( 269.4109166072300900, 0.0000000000000000000, 2.168404344971008900E-016 ) ) ;
#196 = CIRCLE ( 'NONE', #201, 46.39999999999999900 ) ;
#197 = DIRECTION ( 'NONE',  ( 0.0000000000000000000, 1.000000000000000000, 0.0000000000000000000 ) ) ;
#198 = CIRCLE ( 'NONE', #231, 247.2000000000000200 ) ;
#199 = ORIENTED_EDGE ( 'NONE', *, *, #295, .T. ) ;
#200 = DIRECTION ( 'NONE',  ( 0.0000000000000000000, 0.0000000000000000000, 1.000000000000000000 ) ) ;
#201 = AXIS2_PLACEMENT_3D ( 'NONE', #173, #221, #203 ) ;
#202 = DIRECTION ( 'NONE',  ( 1.000000000000000000, 0.0000000000000000000, 0.0000000000000000000 ) ) ;
#203 = DIRECTION ( 'NONE',  ( 0.0000000000000000000, 0.0000000000000000000, -1.000000000000000000 ) ) ;
#204 = FACE_OUTER_BOUND ( 'NONE', #21, .T. ) ;
#205 = ORIENTED_EDGE ( 'NONE', *, *, #234, .F. ) ;
#206 = FILL_AREA_STYLE_COLOUR ( '', #52 ) ;
#207 = SURFACE_SIDE_STYLE ('',( #313 ) ) ;
#208 = CARTESIAN_POINT ( 'NONE',  ( 306.0400834522490600, 3.110602869834273300E-015, -25.40000000000005500 ) ) ;
#209 = AXIS2_PLACEMENT_3D ( 'NONE', #119, #167, #51 ) ;
#210 = CYLINDRICAL_SURFACE ( 'NONE', #124, 25.39999999999995900 ) ;
#211 = ORIENTED_EDGE ( 'NONE', *, *, #28, .T. ) ;
#212 = EDGE_LOOP ( 'NONE', ( #299, #184, #91 ) ) ;
#213 = DIRECTION ( 'NONE',  ( -1.000000000000000000, -0.0000000000000000000, -0.0000000000000000000 ) ) ;
#214 = AXIS2_PLACEMENT_3D ( 'NONE', #183, #3, #79 ) ;
#215 = DIRECTION ( 'NONE',  ( -1.000000000000000000, -0.0000000000000000000, -0.0000000000000000000 ) ) ;
#216 = AXIS2_PLACEMENT_3D ( 'NONE', #93, #180, #296 ) ;
#217 = CIRCLE ( 'NONE', #130, 25.39999999999994900 ) ;
#218 = ORIENTED_EDGE ( 'NONE', *, *, #319, .F. ) ;
#219 = ORIENTED_EDGE ( 'NONE', *, *, #33, .T. ) ;
#220 = DIRECTION ( 'NONE',  ( -1.000000000000000000, -0.0000000000000000000, -0.0000000000000000000 ) ) ;
#221 = DIRECTION ( 'NONE',  ( 0.0000000000000000000, -1.000000000000000000, 0.0000000000000000000 ) ) ;
#222 = CARTESIAN_POINT ( 'NONE',  ( 316.5025187411785600, 3.110602869834272100E-015, -25.39999999999994900 ) ) ;
#223 = FACE_OUTER_BOUND ( 'NONE', #163, .T. ) ;
#224 = ORIENTED_EDGE ( 'NONE', *, *, #26, .T. ) ;
#225 = EDGE_CURVE ( 'NONE', #249, #115, #255, .T. ) ;
#226 = DIRECTION ( 'NONE',  ( 0.0000000000000000000, 0.0000000000000000000, 1.000000000000000000 ) ) ;
#227 = DIRECTION ( 'NONE',  ( 0.0000000000000000000, 0.0000000000000000000, 1.000000000000000000 ) ) ;
#228 = AXIS2_PLACEMENT_3D ( 'NONE', #103, #145, #275 ) ;
#229 = VERTEX_POINT ( 'NONE', #62 ) ;
#230 = DIRECTION ( 'NONE',  ( 0.0000000000000000000, 1.000000000000000000, 0.0000000000000000000 ) ) ;
#231 = AXIS2_PLACEMENT_3D ( 'NONE', #152, #147, #315 ) ;
#232 = DIRECTION ( 'NONE',  ( 0.0000000000000000000, 0.0000000000000000000, 1.000000000000000000 ) ) ;
#233 =( LENGTH_UNIT ( ) NAMED_UNIT ( * ) SI_UNIT ( .MILLI., .METRE. ) );
#234 = EDGE_CURVE ( 'NONE', #55, #10, #196, .T. ) ;
#235 = CARTESIAN_POINT ( 'NONE',  ( 124.5233095260452400, 0.0000000000000000000, 0.0000000000000000000 ) ) ;
#236 = AXIS2_PLACEMENT_3D ( 'NONE', #258, #7, #226 ) ;
#237 = FILL_AREA_STYLE_COLOUR ( '', #331 ) ;
#238 = MANIFOLD_SOLID_BREP ( 'Ðý×ª1', #185 ) ;
#239 = SURFACE_STYLE_FILL_AREA ( #109 ) ;
#240 = ORIENTED_EDGE ( 'NONE', *, *, #310, .F. ) ;
#241 = MECHANICAL_DESIGN_GEOMETRIC_PRESENTATION_REPRESENTATION (  '', ( #18 ), #110 ) ;
#242 = AXIS2_PLACEMENT_3D ( 'NONE', #297, #320, #23 ) ;
#243 = ADVANCED_FACE ( 'NONE', ( #8 ), #132, .T. ) ;
#244 = APPLICATION_PROTOCOL_DEFINITION ( 'draft international standard', 'automotive_design', 1998, #276 ) ;
#245 =( GEOMETRIC_REPRESENTATION_CONTEXT ( 3 ) GLOBAL_UNCERTAINTY_ASSIGNED_CONTEXT ( ( #29 ) ) GLOBAL_UNIT_ASSIGNED_CONTEXT ( ( #36, #89, #168 ) ) REPRESENTATION_CONTEXT ( 'NONE', 'WORKASPACE' ) );
#246 = CARTESIAN_POINT ( 'NONE',  ( 124.5233095260452400, 3.110602869834272500E-015, -25.39999999999995900 ) ) ;
#247 = EDGE_CURVE ( 'NONE', #229, #305, #72, .T. ) ;
#248 = UNCERTAINTY_MEASURE_WITH_UNIT (LENGTH_MEASURE( 1.000000000000000100E-005 ), #34, 'distance_accuracy_value', 'NONE');
#249 = VERTEX_POINT ( 'NONE', #80 ) ;
#250 = ORIENTED_EDGE ( 'NONE', *, *, #37, .T. ) ;
#251 = VERTEX_POINT ( 'NONE', #322 ) ;
#252 = CARTESIAN_POINT ( 'NONE',  ( 124.5233095260452400, 0.0000000000000000000, 0.0000000000000000000 ) ) ;
#253 = DIRECTION ( 'NONE',  ( 0.0000000000000000000, 1.000000000000000000, 0.0000000000000000000 ) ) ;
#254 = EDGE_CURVE ( 'NONE', #134, #325, #65, .T. ) ;
#255 = CIRCLE ( 'NONE', #90, 25.39999999999995600 ) ;
#256 = CARTESIAN_POINT ( 'NONE',  ( 315.8109166072300700, 0.0000000000000000000, 3.058021008518960000E-015 ) ) ;
#257 = VERTEX_POINT ( 'NONE', #175 ) ;
#258 = CARTESIAN_POINT ( 'NONE',  ( 354.7109166072301000, 0.0000000000000000000, -8.888639138452287700E-014 ) ) ;
#259 = SURFACE_STYLE_USAGE ( .BOTH. , #158 ) ;
#260 = CARTESIAN_POINT ( 'NONE',  ( 269.4109166072300900, 0.0000000000000000000, 2.168404344971008900E-016 ) ) ;
#261 = VECTOR ( 'NONE', #181, 1000.000000000000000 ) ;
#262 = ORIENTED_EDGE ( 'NONE', *, *, #40, .F. ) ;
#263 = ORIENTED_EDGE ( 'NONE', *, *, #234, .T. ) ;
#264 = CARTESIAN_POINT ( 'NONE',  ( 308.2413170687241900, 0.0000000000000000000, 0.0000000000000000000 ) ) ;
#265 = AXIS2_PLACEMENT_3D ( 'NONE', #19, #122, #138 ) ;
#266 = DIRECTION ( 'NONE',  ( -0.0000000000000000000, 1.000000000000000000, 1.224646799147353200E-016 ) ) ;
#267 = CARTESIAN_POINT ( 'NONE',  ( 308.2413170687241900, 0.0000000000000000000, 25.39999999999997000 ) ) ;
#268 = ADVANCED_FACE ( 'NONE', ( #32 ), #317, .T. ) ;
#269 = CARTESIAN_POINT ( 'NONE',  ( -0.5519199926577972300, 0.0000000000000000000, 25.39999999999996300 ) ) ;
#270 = CARTESIAN_POINT ( 'NONE',  ( 306.0400834522490600, 0.0000000000000000000, 0.0000000000000000000 ) ) ;
#271 = SPHERICAL_SURFACE ( 'NONE', #327, 46.39999999999999900 ) ;
#272 = VERTEX_POINT ( 'NONE', #208 ) ;
#273 = CARTESIAN_POINT ( 'NONE',  ( 315.8109166072300700, 0.0000000000000000000, 3.058021008518960000E-015 ) ) ;
#274 = ADVANCED_FACE ( 'NONE', ( #104 ), #129, .T. ) ;
#275 = DIRECTION ( 'NONE',  ( 0.0000000000000000000, 0.0000000000000000000, 1.000000000000000000 ) ) ;
#276 = APPLICATION_CONTEXT ( 'automotive_design' ) ;
#277 = ADVANCED_BREP_SHAPE_REPRESENTATION ( '145085', ( #238, #149, #57 ), #245 ) ;
#278 = DIRECTION ( 'NONE',  ( 0.0000000000000000000, 0.0000000000000000000, 1.000000000000000000 ) ) ;
#279 = EDGE_CURVE ( 'NONE', #134, #257, #198, .T. ) ;
#280 = FACE_OUTER_BOUND ( 'NONE', #212, .T. ) ;
#281 = EDGE_LOOP ( 'NONE', ( #66, #311, #70 ) ) ;
#282 = EDGE_CURVE ( 'NONE', #115, #249, #59, .T. ) ;
#283 = ORIENTED_EDGE ( 'NONE', *, *, #302, .F. ) ;
#284 = ADVANCED_FACE ( 'NONE', ( #111 ), #271, .T. ) ;
#285 = AXIS2_PLACEMENT_3D ( 'NONE', #270, #78, #56 ) ;
#286 = FACE_OUTER_BOUND ( 'NONE', #318, .T. ) ;
#287 = ORIENTED_EDGE ( 'NONE', *, *, #16, .F. ) ;
#288 = ORIENTED_EDGE ( 'NONE', *, *, #319, .T. ) ;
#289 = FACE_OUTER_BOUND ( 'NONE', #126, .T. ) ;
#290 = FACE_OUTER_BOUND ( 'NONE', #113, .T. ) ;
#291 = ORIENTED_EDGE ( 'NONE', *, *, #247, .F. ) ;
#292 = DIRECTION ( 'NONE',  ( 0.0000000000000000000, -1.224646799147353200E-016, 1.000000000000000000 ) ) ;
#293 = ADVANCED_FACE ( 'NONE', ( #280 ), #43, .T. ) ;
#294 = SURFACE_STYLE_USAGE ( .BOTH. , #207 ) ;
#295 = EDGE_CURVE ( 'NONE', #249, #229, #105, .T. ) ;
#296 = DIRECTION ( 'NONE',  ( 0.0000000000000000000, 0.0000000000000000000, -1.000000000000000000 ) ) ;
#297 = CARTESIAN_POINT ( 'NONE',  ( 70.61091660723012400, 0.0000000000000000000, 0.0000000000000000000 ) ) ;
#298 = LINE ( 'NONE', #246, #261 ) ;
#299 = ORIENTED_EDGE ( 'NONE', *, *, #254, .F. ) ;
#300 = AXIS2_PLACEMENT_3D ( 'NONE', #117, #120, #200 ) ;
#301 = UNCERTAINTY_MEASURE_WITH_UNIT (LENGTH_MEASURE( 1.000000000000000100E-005 ), #233, 'distance_accuracy_value', 'NONE');
#302 = EDGE_CURVE ( 'NONE', #257, #10, #121, .T. ) ;
#303 = DIRECTION ( 'NONE',  ( 0.0000000000000000000, 0.0000000000000000000, 1.000000000000000000 ) ) ;
#304 = SPHERICAL_SURFACE ( 'NONE', #151, 46.39999999999999900 ) ;
#305 = VERTEX_POINT ( 'NONE', #102 ) ;
#306 = PRESENTATION_LAYER_ASSIGNMENT (  '', '', ( #176 ) ) ;
#307 = ORIENTED_EDGE ( 'NONE', *, *, #75, .F. ) ;
#308 = DIRECTION ( 'NONE',  ( 0.0000000000000000000, 0.0000000000000000000, 1.000000000000000000 ) ) ;
#309 = CARTESIAN_POINT ( 'NONE',  ( 308.2413170687241900, 0.0000000000000000000, 0.0000000000000000000 ) ) ;
#310 = EDGE_CURVE ( 'NONE', #251, #10, #136, .T. ) ;
#311 = ORIENTED_EDGE ( 'NONE', *, *, #254, .T. ) ;
#312 = PRODUCT_DEFINITION_SHAPE ( 'NONE', 'NONE',  #92 ) ;
#313 = SURFACE_STYLE_FILL_AREA ( #155 ) ;
#314 = SURFACE_STYLE_USAGE ( .BOTH. , #142 ) ;
#315 = DIRECTION ( 'NONE',  ( 0.0000000000000000000, 0.0000000000000000000, -1.000000000000000000 ) ) ;
#316 = AXIS2_PLACEMENT_3D ( 'NONE', #35, #230, #343 ) ;
#317 = CYLINDRICAL_SURFACE ( 'NONE', #300, 25.39999999999996300 ) ;
#318 = EDGE_LOOP ( 'NONE', ( #205, #324, #334 ) ) ;
#319 = EDGE_CURVE ( 'NONE', #272, #305, #42, .T. ) ;
#320 = DIRECTION ( 'NONE',  ( -0.0000000000000000000, 1.000000000000000000, 1.224646799147353200E-016 ) ) ;
#321 = ADVANCED_FACE ( 'NONE', ( #204 ), #140, .T. ) ;
#322 = CARTESIAN_POINT ( 'NONE',  ( 308.2413170687241900, 3.110602869834273300E-015, -25.39999999999997000 ) ) ;
#323 = ORIENTED_EDGE ( 'NONE', *, *, #247, .T. ) ;
#324 = ORIENTED_EDGE ( 'NONE', *, *, #75, .T. ) ;
#325 = VERTEX_POINT ( 'NONE', #222 ) ;
#326 = CYLINDRICAL_SURFACE ( 'NONE', #6, 25.39999999999996300 ) ;
#327 = AXIS2_PLACEMENT_3D ( 'NONE', #195, #164, #341 ) ;
#328 = ADVANCED_FACE ( 'NONE', ( #69 ), #83, .T. ) ;
#329 = CARTESIAN_POINT ( 'NONE',  ( 269.4109166072300900, 0.0000000000000000000, 2.168404344971008900E-016 ) ) ;
#330 = ADVANCED_FACE ( 'NONE', ( #289 ), #326, .T. ) ;
#331 = COLOUR_RGB ( '',1.000000000000000000, 1.000000000000000000, 1.000000000000000000 ) ;
#332 = VERTEX_POINT ( 'NONE', #273 ) ;
#333 = DIRECTION ( 'NONE',  ( 0.0000000000000000000, -1.224646799147353000E-016, 1.000000000000000000 ) ) ;
#334 = ORIENTED_EDGE ( 'NONE', *, *, #310, .T. ) ;
#335 =( NAMED_UNIT ( * ) SI_UNIT ( $, .STERADIAN. ) SOLID_ANGLE_UNIT ( ) );
#336 = AXIS2_PLACEMENT_3D ( 'NONE', #30, #213, #308 ) ;
#337 = DIRECTION ( 'NONE',  ( -1.000000000000000000, -0.0000000000000000000, -0.0000000000000000000 ) ) ;
#338 = ORIENTED_EDGE ( 'NONE', *, *, #302, .T. ) ;
#339 = EDGE_LOOP ( 'NONE', ( #5, #192, #60, #125 ) ) ;
#340 = AXIS2_PLACEMENT_3D ( 'NONE', #260, #48, #278 ) ;
#341 = DIRECTION ( 'NONE',  ( 0.0000000000000000000, 0.0000000000000000000, 1.000000000000000000 ) ) ;
#342 = CARTESIAN_POINT ( 'NONE',  ( 269.4109166072300900, 0.0000000000000000000, 2.168404344971008900E-016 ) ) ;
#343 = DIRECTION ( 'NONE',  ( 0.0000000000000000000, 0.0000000000000000000, 1.000000000000000000 ) ) ;
#344 = PRODUCT_RELATED_PRODUCT_CATEGORY ( 'part', '', ( #148 ) ) ;
#345 = ADVANCED_FACE ( 'NONE', ( #286 ), #63, .F. ) ;
#346 = PRESENTATION_STYLE_ASSIGNMENT (( #294 ) ) ;
#347 = DIRECTION ( 'NONE',  ( 0.0000000000000000000, 0.0000000000000000000, 1.000000000000000000 ) ) ;
ENDSEC;
END-ISO-10303-21;
