ISO-10303-21;
HEADER;
FILE_DESCRIPTION (( 'STEP AP214' ),
    '1' );
FILE_NAME ('145086.STEP',
    '2019-05-16T08:08:46',
    ( 'user' ),
    ( 'Î¢ÈíÖÐ¹ú' ),
    'SwSTEP 2.0',
    'SolidWorks 2016',
    '' );
FILE_SCHEMA (( 'AUTOMOTIVE_DESIGN' ));
ENDSEC;

DATA;
#1 = SURFACE_STYLE_USAGE ( .BOTH. , #81 ) ;
#2 = CARTESIAN_POINT ( 'NONE',  ( 269.4109166072300900, 0.0000000000000000000, 2.168404344971008900E-016 ) ) ;
#3 = ORIENTED_EDGE ( 'NONE', *, *, #309, .T. ) ;
#4 = FILL_AREA_STYLE ('',( #238 ) ) ;
#5 = PRODUCT_RELATED_PRODUCT_CATEGORY ( 'part', '', ( #215 ) ) ;
#6 = PRODUCT_DEFINITION_FORMATION_WITH_SPECIFIED_SOURCE ( 'ÈÎºÎ', '', #215, .NOT_KNOWN. ) ;
#7 = CARTESIAN_POINT ( 'NONE',  ( 368.7109166072301000, 0.0000000000000000000, -1.084850806756118500E-013 ) ) ;
#8 = DIRECTION ( 'NONE',  ( 0.0000000000000000000, 0.0000000000000000000, -1.000000000000000000 ) ) ;
#9 = DIRECTION ( 'NONE',  ( 0.0000000000000000000, 0.0000000000000000000, 1.000000000000000000 ) ) ;
#10 = DIRECTION ( 'NONE',  ( 0.0000000000000000000, 0.0000000000000000000, 1.000000000000000000 ) ) ;
#11 = VERTEX_POINT ( 'NONE', #200 ) ;
#12 = DIRECTION ( 'NONE',  ( 0.0000000000000000000, 0.0000000000000000000, 1.000000000000000000 ) ) ;
#13 = DIRECTION ( 'NONE',  ( 0.0000000000000000000, 1.000000000000000000, 0.0000000000000000000 ) ) ;
#14 = DIRECTION ( 'NONE',  ( 1.000000000000000000, 0.0000000000000000000, 0.0000000000000000000 ) ) ;
#15 = VECTOR ( 'NONE', #190, 1000.000000000000000 ) ;
#16 = ORIENTED_EDGE ( 'NONE', *, *, #173, .F. ) ;
#17 = STYLED_ITEM ( 'NONE', ( #297 ), #209 ) ;
#18 = EDGE_CURVE ( 'NONE', #32, #157, #130, .T. ) ;
#19 = ADVANCED_FACE ( 'NONE', ( #49 ), #325, .T. ) ;
#20 = FACE_OUTER_BOUND ( 'NONE', #112, .T. ) ;
#21 = EDGE_LOOP ( 'NONE', ( #137, #334, #329, #308 ) ) ;
#22 = UNCERTAINTY_MEASURE_WITH_UNIT (LENGTH_MEASURE( 1.000000000000000100E-005 ), #141, 'distance_accuracy_value', 'NONE');
#23 = VERTEX_POINT ( 'NONE', #283 ) ;
#24 = PRESENTATION_LAYER_ASSIGNMENT (  '', '', ( #36 ) ) ;
#25 = DIRECTION ( 'NONE',  ( 0.0000000000000000000, 0.0000000000000000000, 1.000000000000000000 ) ) ;
#26 = AXIS2_PLACEMENT_3D ( 'NONE', #306, #144, #245 ) ;
#27 = SURFACE_STYLE_USAGE ( .BOTH. , #188 ) ;
#28 = EDGE_LOOP ( 'NONE', ( #83, #331, #3, #228 ) ) ;
#29 = FACE_OUTER_BOUND ( 'NONE', #261, .T. ) ;
#30 =( NAMED_UNIT ( * ) SI_UNIT ( $, .STERADIAN. ) SOLID_ANGLE_UNIT ( ) );
#31 = AXIS2_PLACEMENT_3D ( 'NONE', #254, #110, #114 ) ;
#32 = VERTEX_POINT ( 'NONE', #197 ) ;
#33 = LINE ( 'NONE', #246, #277 ) ;
#34 = FACE_OUTER_BOUND ( 'NONE', #21, .T. ) ;
#35 = SURFACE_STYLE_FILL_AREA ( #327 ) ;
#36 = STYLED_ITEM ( 'NONE', ( #166 ), #263 ) ;
#37 = DIRECTION ( 'NONE',  ( 0.0000000000000000000, -1.224646799147353200E-016, 1.000000000000000000 ) ) ;
#38 = AXIS2_PLACEMENT_3D ( 'NONE', #316, #280, #43 ) ;
#39 =( NAMED_UNIT ( * ) PLANE_ANGLE_UNIT ( ) SI_UNIT ( $, .RADIAN. ) );
#40 = DIRECTION ( 'NONE',  ( 0.0000000000000000000, 1.000000000000000000, 0.0000000000000000000 ) ) ;
#41 = FACE_OUTER_BOUND ( 'NONE', #268, .T. ) ;
#42 = CARTESIAN_POINT ( 'NONE',  ( 302.3027092831350200, 3.110602869834273300E-015, -25.40000000000007700 ) ) ;
#43 = DIRECTION ( 'NONE',  ( 0.0000000000000000000, 0.0000000000000000000, 1.000000000000000000 ) ) ;
#44 = AXIS2_PLACEMENT_3D ( 'NONE', #82, #291, #8 ) ;
#45 = EDGE_CURVE ( 'NONE', #171, #11, #208, .T. ) ;
#46 = ORIENTED_EDGE ( 'NONE', *, *, #317, .F. ) ;
#47 = CARTESIAN_POINT ( 'NONE',  ( 316.7214217006081200, 3.110602869834269800E-015, -25.39999999999993800 ) ) ;
#48 = PRODUCT_DEFINITION_CONTEXT ( 'detailed design', #107, 'design' ) ;
#49 = FACE_OUTER_BOUND ( 'NONE', #28, .T. ) ;
#50 = LINE ( 'NONE', #67, #15 ) ;
#51 = ORIENTED_EDGE ( 'NONE', *, *, #214, .T. ) ;
#52 = AXIS2_PLACEMENT_3D ( 'NONE', #310, #40, #338 ) ;
#53 = AXIS2_PLACEMENT_3D ( 'NONE', #332, #174, #142 ) ;
#54 = EDGE_CURVE ( 'NONE', #318, #70, #55, .T. ) ;
#55 = CIRCLE ( 'NONE', #108, 25.39999999999995900 ) ;
#56 = SHAPE_DEFINITION_REPRESENTATION ( #79, #263 ) ;
#57 = FACE_OUTER_BOUND ( 'NONE', #343, .T. ) ;
#58 =( GEOMETRIC_REPRESENTATION_CONTEXT ( 3 ) GLOBAL_UNCERTAINTY_ASSIGNED_CONTEXT ( ( #122 ) ) GLOBAL_UNIT_ASSIGNED_CONTEXT ( ( #189, #104, #158 ) ) REPRESENTATION_CONTEXT ( 'NONE', 'WORKASPACE' ) );
#59 = DIRECTION ( 'NONE',  ( 0.0000000000000000000, 0.0000000000000000000, 1.000000000000000000 ) ) ;
#60 = FILL_AREA_STYLE ('',( #216 ) ) ;
#61 = ORIENTED_EDGE ( 'NONE', *, *, #45, .F. ) ;
#62 = DIRECTION ( 'NONE',  ( 0.0000000000000000000, -1.000000000000000000, 0.0000000000000000000 ) ) ;
#63 = AXIS2_PLACEMENT_3D ( 'NONE', #198, #74, #328 ) ;
#64 = CLOSED_SHELL ( 'NONE', ( #290, #181, #148, #207, #19, #184 ) ) ;
#65 = ORIENTED_EDGE ( 'NONE', *, *, #54, .T. ) ;
#66 = CARTESIAN_POINT ( 'NONE',  ( -45.48908339276985700, 0.0000000000000000000, 0.0000000000000000000 ) ) ;
#67 = CARTESIAN_POINT ( 'NONE',  ( -0.5519199926577972300, 3.110602869834270200E-015, -25.39999999999994200 ) ) ;
#68 = ADVANCED_FACE ( 'NONE', ( #105 ), #153, .T. ) ;
#69 = CIRCLE ( 'NONE', #124, 363.0999999999999700 ) ;
#70 = VERTEX_POINT ( 'NONE', #42 ) ;
#71 = FACE_OUTER_BOUND ( 'NONE', #186, .T. ) ;
#72 = FACE_OUTER_BOUND ( 'NONE', #126, .T. ) ;
#73 = PRESENTATION_LAYER_ASSIGNMENT (  '', '', ( #17 ) ) ;
#74 = DIRECTION ( 'NONE',  ( 0.0000000000000000000, 1.000000000000000000, 0.0000000000000000000 ) ) ;
#75 = SPHERICAL_SURFACE ( 'NONE', #52, 44.20000000000006700 ) ;
#76 = CIRCLE ( 'NONE', #225, 44.20000000000006700 ) ;
#77 = EDGE_CURVE ( 'NONE', #177, #11, #250, .T. ) ;
#78 = EDGE_CURVE ( 'NONE', #11, #171, #267, .T. ) ;
#79 = PRODUCT_DEFINITION_SHAPE ( 'NONE', 'NONE',  #201 ) ;
#80 = ORIENTED_EDGE ( 'NONE', *, *, #299, .T. ) ;
#81 = SURFACE_SIDE_STYLE ('',( #210 ) ) ;
#82 = CARTESIAN_POINT ( 'NONE',  ( -45.48908339276985700, 0.0000000000000000000, 0.0000000000000000000 ) ) ;
#83 = ORIENTED_EDGE ( 'NONE', *, *, #154, .F. ) ;
#84 = CARTESIAN_POINT ( 'NONE',  ( -0.5519199926577972300, 0.0000000000000000000, 0.0000000000000000000 ) ) ;
#85 = PRESENTATION_LAYER_ASSIGNMENT (  '', '', ( #212 ) ) ;
#86 = DIRECTION ( 'NONE',  ( -1.000000000000000000, -0.0000000000000000000, -0.0000000000000000000 ) ) ;
#87 = DIRECTION ( 'NONE',  ( 0.0000000000000000000, 0.0000000000000000000, -1.000000000000000000 ) ) ;
#88 = SPHERICAL_SURFACE ( 'NONE', #149, 44.20000000000006000 ) ;
#89 = CARTESIAN_POINT ( 'NONE',  ( 305.5838346537467500, 0.0000000000000000000, 0.0000000000000000000 ) ) ;
#90 = AXIS2_PLACEMENT_3D ( 'NONE', #89, #274, #59 ) ;
#91 = DIRECTION ( 'NONE',  ( -1.000000000000000000, -0.0000000000000000000, -0.0000000000000000000 ) ) ;
#92 = AXIS2_PLACEMENT_3D ( 'NONE', #7, #223, #118 ) ;
#93 = CARTESIAN_POINT ( 'NONE',  ( 269.4109166072300900, 0.0000000000000000000, 2.168404344971008900E-016 ) ) ;
#94 = ORIENTED_EDGE ( 'NONE', *, *, #77, .T. ) ;
#95 = DIRECTION ( 'NONE',  ( 0.0000000000000000000, 1.000000000000000000, 0.0000000000000000000 ) ) ;
#96 = ORIENTED_EDGE ( 'NONE', *, *, #227, .F. ) ;
#97 = ORIENTED_EDGE ( 'NONE', *, *, #346, .F. ) ;
#98 = APPLICATION_CONTEXT ( 'automotive_design' ) ;
#99 = DIRECTION ( 'NONE',  ( 0.0000000000000000000, 0.0000000000000000000, 1.000000000000000000 ) ) ;
#100 = SURFACE_SIDE_STYLE ('',( #35 ) ) ;
#101 = CARTESIAN_POINT ( 'NONE',  ( 124.5233095260452400, 0.0000000000000000000, 25.39999999999995900 ) ) ;
#102 = ORIENTED_EDGE ( 'NONE', *, *, #299, .F. ) ;
#103 = EDGE_CURVE ( 'NONE', #70, #244, #336, .T. ) ;
#104 =( NAMED_UNIT ( * ) PLANE_ANGLE_UNIT ( ) SI_UNIT ( $, .RADIAN. ) );
#105 = FACE_OUTER_BOUND ( 'NONE', #302, .T. ) ;
#106 = ADVANCED_FACE ( 'NONE', ( #288 ), #236, .T. ) ;
#107 = APPLICATION_CONTEXT ( 'automotive_design' ) ;
#108 = AXIS2_PLACEMENT_3D ( 'NONE', #115, #138, #269 ) ;
#109 = MECHANICAL_DESIGN_GEOMETRIC_PRESENTATION_REPRESENTATION (  '', ( #36 ), #58 ) ;
#110 = DIRECTION ( 'NONE',  ( 0.0000000000000000000, 1.000000000000000000, 0.0000000000000000000 ) ) ;
#111 = UNCERTAINTY_MEASURE_WITH_UNIT (LENGTH_MEASURE( 1.000000000000000100E-005 ), #164, 'distance_accuracy_value', 'NONE');
#112 = EDGE_LOOP ( 'NONE', ( #102, #127, #97 ) ) ;
#113 = ADVANCED_FACE ( 'NONE', ( #278 ), #88, .F. ) ;
#114 = DIRECTION ( 'NONE',  ( 0.0000000000000000000, 0.0000000000000000000, 1.000000000000000000 ) ) ;
#115 = CARTESIAN_POINT ( 'NONE',  ( 302.3027092831350200, 0.0000000000000000000, 0.0000000000000000000 ) ) ;
#116 = CARTESIAN_POINT ( 'NONE',  ( 317.6109166072301400, 0.0000000000000000000, 2.223346263852019600E-014 ) ) ;
#117 = ORIENTED_EDGE ( 'NONE', *, *, #18, .T. ) ;
#118 = DIRECTION ( 'NONE',  ( 0.0000000000000000000, 0.0000000000000000000, 1.000000000000000000 ) ) ;
#119 = CARTESIAN_POINT ( 'NONE',  ( 269.4109166072300900, 0.0000000000000000000, 2.168404344971008900E-016 ) ) ;
#120 = DIRECTION ( 'NONE',  ( 0.0000000000000000000, 0.0000000000000000000, 1.000000000000000000 ) ) ;
#121 = EDGE_LOOP ( 'NONE', ( #230, #123, #133, #61 ) ) ;
#122 = UNCERTAINTY_MEASURE_WITH_UNIT (LENGTH_MEASURE( 1.000000000000000100E-005 ), #189, 'distance_accuracy_value', 'NONE');
#123 = ORIENTED_EDGE ( 'NONE', *, *, #346, .T. ) ;
#124 = AXIS2_PLACEMENT_3D ( 'NONE', #262, #145, #163 ) ;
#125 =( NAMED_UNIT ( * ) SI_UNIT ( $, .STERADIAN. ) SOLID_ANGLE_UNIT ( ) );
#126 = EDGE_LOOP ( 'NONE', ( #65, #185, #160 ) ) ;
#127 = ORIENTED_EDGE ( 'NONE', *, *, #317, .T. ) ;
#128 = VECTOR ( 'NONE', #260, 1000.000000000000000 ) ;
#129 = SPHERICAL_SURFACE ( 'NONE', #53, 44.20000000000006000 ) ;
#130 = CIRCLE ( 'NONE', #257, 44.20000000000006700 ) ;
#131 = MECHANICAL_DESIGN_GEOMETRIC_PRESENTATION_REPRESENTATION (  '', ( #212 ), #345 ) ;
#132 = ADVANCED_FACE ( 'NONE', ( #29 ), #191, .T. ) ;
#133 = ORIENTED_EDGE ( 'NONE', *, *, #281, .T. ) ;
#134 = SURFACE_STYLE_FILL_AREA ( #4 ) ;
#135 = DIRECTION ( 'NONE',  ( 0.0000000000000000000, 0.0000000000000000000, 1.000000000000000000 ) ) ;
#136 = CARTESIAN_POINT ( 'NONE',  ( 305.5838346537467500, 3.110602869834270600E-015, -25.39999999999994500 ) ) ;
#137 = ORIENTED_EDGE ( 'NONE', *, *, #227, .T. ) ;
#138 = DIRECTION ( 'NONE',  ( -1.000000000000000000, -0.0000000000000000000, -0.0000000000000000000 ) ) ;
#139 = SPHERICAL_SURFACE ( 'NONE', #140, 44.20000000000006700 ) ;
#140 = AXIS2_PLACEMENT_3D ( 'NONE', #93, #95, #275 ) ;
#141 =( LENGTH_UNIT ( ) NAMED_UNIT ( * ) SI_UNIT ( .MILLI., .METRE. ) );
#142 = DIRECTION ( 'NONE',  ( 0.0000000000000000000, 0.0000000000000000000, 1.000000000000000000 ) ) ;
#143 = LINE ( 'NONE', #194, #251 ) ;
#144 = DIRECTION ( 'NONE',  ( -1.000000000000000000, -0.0000000000000000000, -0.0000000000000000000 ) ) ;
#145 = DIRECTION ( 'NONE',  ( -0.0000000000000000000, 1.000000000000000000, 1.224646799147353200E-016 ) ) ;
#146 = SPHERICAL_SURFACE ( 'NONE', #63, 363.0999999999999700 ) ;
#147 = FILL_AREA_STYLE_COLOUR ( '', #289 ) ;
#148 = ADVANCED_FACE ( 'NONE', ( #72 ), #180, .T. ) ;
#149 = AXIS2_PLACEMENT_3D ( 'NONE', #151, #203, #25 ) ;
#150 =( LENGTH_UNIT ( ) NAMED_UNIT ( * ) SI_UNIT ( .MILLI., .METRE. ) );
#151 = CARTESIAN_POINT ( 'NONE',  ( 269.4109166072300900, 0.0000000000000000000, 2.168404344971008900E-016 ) ) ;
#152 = AXIS2_PLACEMENT_3D ( 'NONE', #159, #199, #305 ) ;
#153 = CYLINDRICAL_SURFACE ( 'NONE', #293, 25.39999999999994200 ) ;
#154 = EDGE_CURVE ( 'NONE', #23, #70, #143, .T. ) ;
#155 = EDGE_LOOP ( 'NONE', ( #240, #217, #176 ) ) ;
#156 = AXIS2_PLACEMENT_3D ( 'NONE', #165, #175, #265 ) ;
#157 = VERTEX_POINT ( 'NONE', #204 ) ;
#158 =( NAMED_UNIT ( * ) SI_UNIT ( $, .STERADIAN. ) SOLID_ANGLE_UNIT ( ) );
#159 = CARTESIAN_POINT ( 'NONE',  ( 269.4109166072300900, 0.0000000000000000000, 2.168404344971008900E-016 ) ) ;
#160 = ORIENTED_EDGE ( 'NONE', *, *, #214, .F. ) ;
#161 = DIRECTION ( 'NONE',  ( -1.000000000000000000, -0.0000000000000000000, -0.0000000000000000000 ) ) ;
#162 = CIRCLE ( 'NONE', #324, 71.09999999999999400 ) ;
#163 = DIRECTION ( 'NONE',  ( 0.0000000000000000000, -1.224646799147353200E-016, 1.000000000000000000 ) ) ;
#164 =( LENGTH_UNIT ( ) NAMED_UNIT ( * ) SI_UNIT ( .MILLI., .METRE. ) );
#165 = CARTESIAN_POINT ( 'NONE',  ( 302.3027092831350200, 0.0000000000000000000, 0.0000000000000000000 ) ) ;
#166 = PRESENTATION_STYLE_ASSIGNMENT (( #1 ) ) ;
#167 = ORIENTED_EDGE ( 'NONE', *, *, #103, .F. ) ;
#168 = DIRECTION ( 'NONE',  ( -1.000000000000000000, -0.0000000000000000000, -0.0000000000000000000 ) ) ;
#169 = ADVANCED_FACE ( 'NONE', ( #20 ), #146, .T. ) ;
#170 = CARTESIAN_POINT ( 'NONE',  ( 368.7109166072301000, 0.0000000000000000000, -1.084850806756118500E-013 ) ) ;
#171 = VERTEX_POINT ( 'NONE', #136 ) ;
#172 = DIRECTION ( 'NONE',  ( -1.000000000000000000, -0.0000000000000000000, -0.0000000000000000000 ) ) ;
#173 = EDGE_CURVE ( 'NONE', #301, #314, #341, .T. ) ;
#174 = DIRECTION ( 'NONE',  ( 0.0000000000000000000, 1.000000000000000000, 0.0000000000000000000 ) ) ;
#175 = DIRECTION ( 'NONE',  ( -1.000000000000000000, -0.0000000000000000000, -0.0000000000000000000 ) ) ;
#176 = ORIENTED_EDGE ( 'NONE', *, *, #45, .T. ) ;
#177 = VERTEX_POINT ( 'NONE', #218 ) ;
#178 = EDGE_CURVE ( 'NONE', #23, #157, #321, .T. ) ;
#179 = ORIENTED_EDGE ( 'NONE', *, *, #18, .F. ) ;
#180 = SPHERICAL_SURFACE ( 'NONE', #92, 71.09999999999999400 ) ;
#181 = ADVANCED_FACE ( 'NONE', ( #34 ), #326, .T. ) ;
#182 = DIRECTION ( 'NONE',  ( -0.0000000000000000000, 1.000000000000000000, 1.224646799147353200E-016 ) ) ;
#183 = AXIS2_PLACEMENT_3D ( 'NONE', #292, #10, #14 ) ;
#184 = ADVANCED_FACE ( 'NONE', ( #57 ), #75, .T. ) ;
#185 = ORIENTED_EDGE ( 'NONE', *, *, #103, .T. ) ;
#186 = EDGE_LOOP ( 'NONE', ( #255, #94, #235 ) ) ;
#187 =( GEOMETRIC_REPRESENTATION_CONTEXT ( 3 ) GLOBAL_UNCERTAINTY_ASSIGNED_CONTEXT ( ( #111 ) ) GLOBAL_UNIT_ASSIGNED_CONTEXT ( ( #164, #39, #232 ) ) REPRESENTATION_CONTEXT ( 'NONE', 'WORKASPACE' ) );
#188 = SURFACE_SIDE_STYLE ('',( #134 ) ) ;
#189 =( LENGTH_UNIT ( ) NAMED_UNIT ( * ) SI_UNIT ( .MILLI., .METRE. ) );
#190 = DIRECTION ( 'NONE',  ( -1.000000000000000000, -0.0000000000000000000, -0.0000000000000000000 ) ) ;
#191 = SPHERICAL_SURFACE ( 'NONE', #253, 363.0999999999999700 ) ;
#192 = ORIENTED_EDGE ( 'NONE', *, *, #315, .T. ) ;
#193 = DIRECTION ( 'NONE',  ( -1.000000000000000000, -0.0000000000000000000, -0.0000000000000000000 ) ) ;
#194 = CARTESIAN_POINT ( 'NONE',  ( 124.5233095260452400, 3.110602869834272500E-015, -25.39999999999995900 ) ) ;
#195 = AXIS2_PLACEMENT_3D ( 'NONE', #242, #339, #12 ) ;
#196 = ORIENTED_EDGE ( 'NONE', *, *, #315, .F. ) ;
#197 = CARTESIAN_POINT ( 'NONE',  ( 313.6109166072301900, 0.0000000000000000000, 2.923309860612755800E-015 ) ) ;
#198 = CARTESIAN_POINT ( 'NONE',  ( -45.48908339276985700, 0.0000000000000000000, 0.0000000000000000000 ) ) ;
#199 = DIRECTION ( 'NONE',  ( -0.0000000000000000000, 1.000000000000000000, 1.224646799147353200E-016 ) ) ;
#200 = CARTESIAN_POINT ( 'NONE',  ( 305.5838346537467500, 0.0000000000000000000, 25.39999999999994500 ) ) ;
#201 = PRODUCT_DEFINITION ( 'Î´Öª', '', #6, #48 ) ;
#202 = CARTESIAN_POINT ( 'NONE',  ( 368.7109166072301000, 0.0000000000000000000, -1.084850806756118500E-013 ) ) ;
#203 = DIRECTION ( 'NONE',  ( 0.0000000000000000000, 1.000000000000000000, 0.0000000000000000000 ) ) ;
#204 = CARTESIAN_POINT ( 'NONE',  ( 305.5838346537467500, 0.0000000000000000000, 25.39999999999995900 ) ) ;
#205 = ORIENTED_EDGE ( 'NONE', *, *, #281, .F. ) ;
#206 = SPHERICAL_SURFACE ( 'NONE', #31, 71.09999999999999400 ) ;
#207 = ADVANCED_FACE ( 'NONE', ( #41 ), #206, .T. ) ;
#208 = CIRCLE ( 'NONE', #26, 25.39999999999994500 ) ;
#209 = MANIFOLD_SOLID_BREP ( 'Ðý×ª1', #64 ) ;
#210 = SURFACE_STYLE_FILL_AREA ( #60 ) ;
#211 = PRODUCT_CONTEXT ( 'NONE', #98, 'mechanical' ) ;
#212 = STYLED_ITEM ( 'NONE', ( #231 ), #322 ) ;
#213 = SURFACE_STYLE_USAGE ( .BOTH. , #100 ) ;
#214 = EDGE_CURVE ( 'NONE', #318, #244, #162, .T. ) ;
#215 = PRODUCT ( '145086', '145086', '', ( #211 ) ) ;
#216 = FILL_AREA_STYLE_COLOUR ( '', #285 ) ;
#217 = ORIENTED_EDGE ( 'NONE', *, *, #248, .T. ) ;
#218 = CARTESIAN_POINT ( 'NONE',  ( 313.6109166072301900, 0.0000000000000000000, 2.923309860612755000E-015 ) ) ;
#219 = AXIS2_PLACEMENT_3D ( 'NONE', #239, #168, #298 ) ;
#220 = CIRCLE ( 'NONE', #152, 44.20000000000006000 ) ;
#221 = APPLICATION_PROTOCOL_DEFINITION ( 'draft international standard', 'automotive_design', 1998, #98 ) ;
#222 = EDGE_LOOP ( 'NONE', ( #179, #192, #96 ) ) ;
#223 = DIRECTION ( 'NONE',  ( 0.0000000000000000000, 1.000000000000000000, 0.0000000000000000000 ) ) ;
#224 =( GEOMETRIC_REPRESENTATION_CONTEXT ( 3 ) GLOBAL_UNCERTAINTY_ASSIGNED_CONTEXT ( ( #22 ) ) GLOBAL_UNIT_ASSIGNED_CONTEXT ( ( #141, #241, #125 ) ) REPRESENTATION_CONTEXT ( 'NONE', 'WORKASPACE' ) );
#225 = AXIS2_PLACEMENT_3D ( 'NONE', #2, #182, #37 ) ;
#226 = AXIS2_PLACEMENT_3D ( 'NONE', #323, #172, #9 ) ;
#227 = EDGE_CURVE ( 'NONE', #157, #23, #330, .T. ) ;
#228 = ORIENTED_EDGE ( 'NONE', *, *, #312, .F. ) ;
#229 = ADVANCED_FACE ( 'NONE', ( #71 ), #129, .F. ) ;
#230 = ORIENTED_EDGE ( 'NONE', *, *, #237, .F. ) ;
#231 = PRESENTATION_STYLE_ASSIGNMENT (( #213 ) ) ;
#232 =( NAMED_UNIT ( * ) SI_UNIT ( $, .STERADIAN. ) SOLID_ANGLE_UNIT ( ) );
#233 = AXIS2_PLACEMENT_3D ( 'NONE', #170, #273, #264 ) ;
#234 = CARTESIAN_POINT ( 'NONE',  ( 316.7214217006081200, 0.0000000000000000000, 25.39999999999993800 ) ) ;
#235 = ORIENTED_EDGE ( 'NONE', *, *, #78, .T. ) ;
#236 = CYLINDRICAL_SURFACE ( 'NONE', #226, 25.39999999999994200 ) ;
#237 = EDGE_CURVE ( 'NONE', #314, #171, #50, .T. ) ;
#238 = FILL_AREA_STYLE_COLOUR ( '', #294 ) ;
#239 = CARTESIAN_POINT ( 'NONE',  ( 316.7214217006081200, 0.0000000000000000000, 0.0000000000000000000 ) ) ;
#240 = ORIENTED_EDGE ( 'NONE', *, *, #77, .F. ) ;
#241 =( NAMED_UNIT ( * ) PLANE_ANGLE_UNIT ( ) SI_UNIT ( $, .RADIAN. ) );
#242 = CARTESIAN_POINT ( 'NONE',  ( 124.5233095260452400, 0.0000000000000000000, 0.0000000000000000000 ) ) ;
#243 = ORIENTED_EDGE ( 'NONE', *, *, #237, .T. ) ;
#244 = VERTEX_POINT ( 'NONE', #287 ) ;
#245 = DIRECTION ( 'NONE',  ( 0.0000000000000000000, 0.0000000000000000000, 1.000000000000000000 ) ) ;
#246 = CARTESIAN_POINT ( 'NONE',  ( -0.5519199926577972300, 0.0000000000000000000, 25.39999999999994200 ) ) ;
#247 = CARTESIAN_POINT ( 'NONE',  ( 305.5838346537467500, 0.0000000000000000000, 0.0000000000000000000 ) ) ;
#248 = EDGE_CURVE ( 'NONE', #177, #171, #220, .T. ) ;
#249 = DIRECTION ( 'NONE',  ( 0.0000000000000000000, 0.0000000000000000000, 1.000000000000000000 ) ) ;
#250 = CIRCLE ( 'NONE', #286, 44.20000000000006000 ) ;
#251 = VECTOR ( 'NONE', #296, 1000.000000000000000 ) ;
#252 = DIRECTION ( 'NONE',  ( 0.0000000000000000000, 0.0000000000000000000, 1.000000000000000000 ) ) ;
#253 = AXIS2_PLACEMENT_3D ( 'NONE', #66, #13, #99 ) ;
#254 = CARTESIAN_POINT ( 'NONE',  ( 368.7109166072301000, 0.0000000000000000000, -1.084850806756118500E-013 ) ) ;
#255 = ORIENTED_EDGE ( 'NONE', *, *, #248, .F. ) ;
#256 = CIRCLE ( 'NONE', #44, 363.0999999999999700 ) ;
#257 = AXIS2_PLACEMENT_3D ( 'NONE', #119, #282, #279 ) ;
#258 =( NAMED_UNIT ( * ) PLANE_ANGLE_UNIT ( ) SI_UNIT ( $, .RADIAN. ) );
#259 = AXIS2_PLACEMENT_3D ( 'NONE', #276, #161, #120 ) ;
#260 = DIRECTION ( 'NONE',  ( -1.000000000000000000, -0.0000000000000000000, -0.0000000000000000000 ) ) ;
#261 = EDGE_LOOP ( 'NONE', ( #46, #80, #16 ) ) ;
#262 = CARTESIAN_POINT ( 'NONE',  ( -45.48908339276985700, 0.0000000000000000000, 0.0000000000000000000 ) ) ;
#263 = ADVANCED_BREP_SHAPE_REPRESENTATION ( '145086', ( #209, #322, #183 ), #187 ) ;
#264 = DIRECTION ( 'NONE',  ( 0.0000000000000000000, -1.224646799147353200E-016, 1.000000000000000000 ) ) ;
#265 = DIRECTION ( 'NONE',  ( 0.0000000000000000000, 0.0000000000000000000, 1.000000000000000000 ) ) ;
#266 = LINE ( 'NONE', #101, #128 ) ;
#267 = CIRCLE ( 'NONE', #300, 25.39999999999994500 ) ;
#268 = EDGE_LOOP ( 'NONE', ( #167, #271, #51 ) ) ;
#269 = DIRECTION ( 'NONE',  ( 0.0000000000000000000, 0.0000000000000000000, 1.000000000000000000 ) ) ;
#270 = CARTESIAN_POINT ( 'NONE',  ( 302.3027092831350200, 0.0000000000000000000, 25.39999999999996300 ) ) ;
#271 = ORIENTED_EDGE ( 'NONE', *, *, #312, .T. ) ;
#272 = FACE_OUTER_BOUND ( 'NONE', #222, .T. ) ;
#273 = DIRECTION ( 'NONE',  ( -0.0000000000000000000, 1.000000000000000000, 1.224646799147353200E-016 ) ) ;
#274 = DIRECTION ( 'NONE',  ( -1.000000000000000000, -0.0000000000000000000, -0.0000000000000000000 ) ) ;
#275 = DIRECTION ( 'NONE',  ( 0.0000000000000000000, 0.0000000000000000000, 1.000000000000000000 ) ) ;
#276 = CARTESIAN_POINT ( 'NONE',  ( 124.5233095260452400, 0.0000000000000000000, 0.0000000000000000000 ) ) ;
#277 = VECTOR ( 'NONE', #91, 1000.000000000000000 ) ;
#278 = FACE_OUTER_BOUND ( 'NONE', #155, .T. ) ;
#279 = DIRECTION ( 'NONE',  ( 0.0000000000000000000, 0.0000000000000000000, -1.000000000000000000 ) ) ;
#280 = DIRECTION ( 'NONE',  ( -1.000000000000000000, -0.0000000000000000000, -0.0000000000000000000 ) ) ;
#281 = EDGE_CURVE ( 'NONE', #301, #11, #33, .T. ) ;
#282 = DIRECTION ( 'NONE',  ( 0.0000000000000000000, -1.000000000000000000, 0.0000000000000000000 ) ) ;
#283 = CARTESIAN_POINT ( 'NONE',  ( 305.5838346537467500, 3.110602869834272500E-015, -25.39999999999995900 ) ) ;
#284 = CIRCLE ( 'NONE', #38, 25.39999999999993800 ) ;
#285 = COLOUR_RGB ( '',1.000000000000000000, 1.000000000000000000, 1.000000000000000000 ) ;
#286 = AXIS2_PLACEMENT_3D ( 'NONE', #340, #62, #87 ) ;
#287 = CARTESIAN_POINT ( 'NONE',  ( 297.6109166072300800, 0.0000000000000000000, -1.041314613046430100E-013 ) ) ;
#288 = FACE_OUTER_BOUND ( 'NONE', #121, .T. ) ;
#289 = COLOUR_RGB ( '',1.000000000000000000, 1.000000000000000000, 1.000000000000000000 ) ;
#290 = ADVANCED_FACE ( 'NONE', ( #272 ), #139, .T. ) ;
#291 = DIRECTION ( 'NONE',  ( 0.0000000000000000000, -1.000000000000000000, 0.0000000000000000000 ) ) ;
#292 = CARTESIAN_POINT ( 'NONE',  ( 0.0000000000000000000, 0.0000000000000000000, 0.0000000000000000000 ) ) ;
#293 = AXIS2_PLACEMENT_3D ( 'NONE', #84, #304, #249 ) ;
#294 = COLOUR_RGB ( '',1.000000000000000000, 1.000000000000000000, 1.000000000000000000 ) ;
#295 = ORIENTED_EDGE ( 'NONE', *, *, #173, .T. ) ;
#296 = DIRECTION ( 'NONE',  ( -1.000000000000000000, -0.0000000000000000000, -0.0000000000000000000 ) ) ;
#297 = PRESENTATION_STYLE_ASSIGNMENT (( #27 ) ) ;
#298 = DIRECTION ( 'NONE',  ( 0.0000000000000000000, 0.0000000000000000000, 1.000000000000000000 ) ) ;
#299 = EDGE_CURVE ( 'NONE', #313, #314, #69, .T. ) ;
#300 = AXIS2_PLACEMENT_3D ( 'NONE', #247, #193, #252 ) ;
#301 = VERTEX_POINT ( 'NONE', #234 ) ;
#302 = EDGE_LOOP ( 'NONE', ( #295, #243, #347, #205 ) ) ;
#303 = UNCERTAINTY_MEASURE_WITH_UNIT (LENGTH_MEASURE( 1.000000000000000100E-005 ), #150, 'distance_accuracy_value', 'NONE');
#304 = DIRECTION ( 'NONE',  ( -1.000000000000000000, -0.0000000000000000000, -0.0000000000000000000 ) ) ;
#305 = DIRECTION ( 'NONE',  ( 0.0000000000000000000, -1.224646799147353200E-016, 1.000000000000000000 ) ) ;
#306 = CARTESIAN_POINT ( 'NONE',  ( 305.5838346537467500, 0.0000000000000000000, 0.0000000000000000000 ) ) ;
#307 = CARTESIAN_POINT ( 'NONE',  ( 305.5838346537467500, 0.0000000000000000000, 0.0000000000000000000 ) ) ;
#308 = ORIENTED_EDGE ( 'NONE', *, *, #309, .F. ) ;
#309 = EDGE_CURVE ( 'NONE', #157, #318, #266, .T. ) ;
#310 = CARTESIAN_POINT ( 'NONE',  ( 269.4109166072300900, 0.0000000000000000000, 2.168404344971008900E-016 ) ) ;
#311 = DIRECTION ( 'NONE',  ( 0.0000000000000000000, 0.0000000000000000000, -1.000000000000000000 ) ) ;
#312 = EDGE_CURVE ( 'NONE', #70, #318, #335, .T. ) ;
#313 = VERTEX_POINT ( 'NONE', #116 ) ;
#314 = VERTEX_POINT ( 'NONE', #47 ) ;
#315 = EDGE_CURVE ( 'NONE', #32, #23, #76, .T. ) ;
#316 = CARTESIAN_POINT ( 'NONE',  ( 316.7214217006081200, 0.0000000000000000000, 0.0000000000000000000 ) ) ;
#317 = EDGE_CURVE ( 'NONE', #313, #301, #256, .T. ) ;
#318 = VERTEX_POINT ( 'NONE', #270 ) ;
#319 = ORIENTED_EDGE ( 'NONE', *, *, #178, .F. ) ;
#320 = APPLICATION_PROTOCOL_DEFINITION ( 'draft international standard', 'automotive_design', 1998, #107 ) ;
#321 = CIRCLE ( 'NONE', #90, 25.39999999999995900 ) ;
#322 = MANIFOLD_SOLID_BREP ( 'Ðý×ª3', #344 ) ;
#323 = CARTESIAN_POINT ( 'NONE',  ( -0.5519199926577972300, 0.0000000000000000000, 0.0000000000000000000 ) ) ;
#324 = AXIS2_PLACEMENT_3D ( 'NONE', #202, #333, #311 ) ;
#325 = CYLINDRICAL_SURFACE ( 'NONE', #259, 25.39999999999995900 ) ;
#326 = CYLINDRICAL_SURFACE ( 'NONE', #195, 25.39999999999995900 ) ;
#327 = FILL_AREA_STYLE ('',( #147 ) ) ;
#328 = DIRECTION ( 'NONE',  ( 0.0000000000000000000, 0.0000000000000000000, 1.000000000000000000 ) ) ;
#329 = ORIENTED_EDGE ( 'NONE', *, *, #54, .F. ) ;
#330 = CIRCLE ( 'NONE', #342, 25.39999999999995900 ) ;
#331 = ORIENTED_EDGE ( 'NONE', *, *, #178, .T. ) ;
#332 = CARTESIAN_POINT ( 'NONE',  ( 269.4109166072300900, 0.0000000000000000000, 2.168404344971008900E-016 ) ) ;
#333 = DIRECTION ( 'NONE',  ( 0.0000000000000000000, -1.000000000000000000, 0.0000000000000000000 ) ) ;
#334 = ORIENTED_EDGE ( 'NONE', *, *, #154, .T. ) ;
#335 = CIRCLE ( 'NONE', #156, 25.39999999999995900 ) ;
#336 = CIRCLE ( 'NONE', #233, 71.09999999999999400 ) ;
#337 = MECHANICAL_DESIGN_GEOMETRIC_PRESENTATION_REPRESENTATION (  '', ( #17 ), #224 ) ;
#338 = DIRECTION ( 'NONE',  ( 0.0000000000000000000, 0.0000000000000000000, 1.000000000000000000 ) ) ;
#339 = DIRECTION ( 'NONE',  ( -1.000000000000000000, -0.0000000000000000000, -0.0000000000000000000 ) ) ;
#340 = CARTESIAN_POINT ( 'NONE',  ( 269.4109166072300900, 0.0000000000000000000, 2.168404344971008900E-016 ) ) ;
#341 = CIRCLE ( 'NONE', #219, 25.39999999999993800 ) ;
#342 = AXIS2_PLACEMENT_3D ( 'NONE', #307, #86, #135 ) ;
#343 = EDGE_LOOP ( 'NONE', ( #196, #117, #319 ) ) ;
#344 = CLOSED_SHELL ( 'NONE', ( #132, #68, #113, #229, #106, #169 ) ) ;
#345 =( GEOMETRIC_REPRESENTATION_CONTEXT ( 3 ) GLOBAL_UNCERTAINTY_ASSIGNED_CONTEXT ( ( #303 ) ) GLOBAL_UNIT_ASSIGNED_CONTEXT ( ( #150, #258, #30 ) ) REPRESENTATION_CONTEXT ( 'NONE', 'WORKASPACE' ) );
#346 = EDGE_CURVE ( 'NONE', #314, #301, #284, .T. ) ;
#347 = ORIENTED_EDGE ( 'NONE', *, *, #78, .F. ) ;
ENDSEC;
END-ISO-10303-21;
