ISO-10303-21;
HEADER;
FILE_DESCRIPTION (( 'STEP AP214' ),
    '1' );
FILE_NAME ('145090.STEP',
    '2019-05-24T08:22:01',
    ( '' ),
    ( '' ),
    'SwSTEP 2.0',
    'SolidWorks 2016',
    '' );
FILE_SCHEMA (( 'AUTOMOTIVE_DESIGN' ));
ENDSEC;

DATA;
#1 = VERTEX_POINT ( 'NONE', #220 ) ;
#2 = ORIENTED_EDGE ( 'NONE', *, *, #81, .F. ) ;
#3 = AXIS2_PLACEMENT_3D ( 'NONE', #186, #270, #215 ) ;
#4 = DIRECTION ( 'NONE',  ( -0.0000000000000000000, 1.000000000000000000, 1.224646799147353200E-016 ) ) ;
#5 = EDGE_LOOP ( 'NONE', ( #180, #253, #205 ) ) ;
#6 = ORIENTED_EDGE ( 'NONE', *, *, #79, .F. ) ;
#7 = EDGE_CURVE ( 'NONE', #212, #13, #182, .T. ) ;
#8 = DIRECTION ( 'NONE',  ( -0.0000000000000000000, 1.000000000000000000, 1.224646799147353200E-016 ) ) ;
#9 = EDGE_CURVE ( 'NONE', #219, #121, #216, .T. ) ;
#10 = UNCERTAINTY_MEASURE_WITH_UNIT (LENGTH_MEASURE( 1.000000000000000100E-005 ), #154, 'distance_accuracy_value', 'NONE');
#11 = DIRECTION ( 'NONE',  ( 0.0000000000000000000, 0.0000000000000000000, 1.000000000000000000 ) ) ;
#12 = SURFACE_STYLE_FILL_AREA ( #285 ) ;
#13 = VERTEX_POINT ( 'NONE', #109 ) ;
#14 = DIRECTION ( 'NONE',  ( 0.0000000000000000000, 0.0000000000000000000, -1.000000000000000000 ) ) ;
#15 =( NAMED_UNIT ( * ) SI_UNIT ( $, .STERADIAN. ) SOLID_ANGLE_UNIT ( ) );
#16 = CARTESIAN_POINT ( 'NONE',  ( 257.6217824430913800, 0.0000000000000000000, 2.168404344971008900E-016 ) ) ;
#17 = ORIENTED_EDGE ( 'NONE', *, *, #207, .T. ) ;
#18 = PRESENTATION_LAYER_ASSIGNMENT (  '', '', ( #328 ) ) ;
#19 = DIRECTION ( 'NONE',  ( 0.0000000000000000000, 1.000000000000000000, 0.0000000000000000000 ) ) ;
#20 = DIRECTION ( 'NONE',  ( 0.0000000000000000000, 0.0000000000000000000, 1.000000000000000000 ) ) ;
#21 = DIRECTION ( 'NONE',  ( -1.000000000000000000, -0.0000000000000000000, -0.0000000000000000000 ) ) ;
#22 = EDGE_LOOP ( 'NONE', ( #6, #197, #107, #278 ) ) ;
#23 = DIRECTION ( 'NONE',  ( 0.0000000000000000000, 0.0000000000000000000, 1.000000000000000000 ) ) ;
#24 = DIRECTION ( 'NONE',  ( 0.0000000000000000000, 0.0000000000000000000, 1.000000000000000000 ) ) ;
#25 = AXIS2_PLACEMENT_3D ( 'NONE', #199, #203, #116 ) ;
#26 = CYLINDRICAL_SURFACE ( 'NONE', #85, 25.39999999999999500 ) ;
#27 = VERTEX_POINT ( 'NONE', #140 ) ;
#28 = PRODUCT_CONTEXT ( 'NONE', #105, 'mechanical' ) ;
#29 = AXIS2_PLACEMENT_3D ( 'NONE', #224, #327, #248 ) ;
#30 = AXIS2_PLACEMENT_3D ( 'NONE', #304, #59, #245 ) ;
#31 = SHAPE_DEFINITION_REPRESENTATION ( #66, #134 ) ;
#32 = ADVANCED_FACE ( 'NONE', ( #297 ), #264, .T. ) ;
#33 = CIRCLE ( 'NONE', #111, 459.1999999999999300 ) ;
#34 = CARTESIAN_POINT ( 'NONE',  ( 257.6217824430913800, 0.0000000000000000000, 2.168404344971008900E-016 ) ) ;
#35 = ORIENTED_EDGE ( 'NONE', *, *, #110, .T. ) ;
#36 = PRODUCT_DEFINITION ( 'Î´Öª', '', #92, #277 ) ;
#37 = CLOSED_SHELL ( 'NONE', ( #295, #160, #133, #210, #240, #192 ) ) ;
#38 = CARTESIAN_POINT ( 'NONE',  ( -0.5519199926577972300, 0.0000000000000000000, 25.40000000000002000 ) ) ;
#39 = AXIS2_PLACEMENT_3D ( 'NONE', #286, #99, #209 ) ;
#40 = LINE ( 'NONE', #38, #173 ) ;
#41 = EDGE_LOOP ( 'NONE', ( #76, #101, #274 ) ) ;
#42 = DIRECTION ( 'NONE',  ( 0.0000000000000000000, 1.000000000000000000, 0.0000000000000000000 ) ) ;
#43 = CARTESIAN_POINT ( 'NONE',  ( 498.9217824430913900, 0.0000000000000000000, -3.390965611205640500E-015 ) ) ;
#44 = AXIS2_PLACEMENT_3D ( 'NONE', #16, #227, #175 ) ;
#45 = PRODUCT_RELATED_PRODUCT_CATEGORY ( 'part', '', ( #294 ) ) ;
#46 = CIRCLE ( 'NONE', #139, 25.39999999999999900 ) ;
#47 = AXIS2_PLACEMENT_3D ( 'NONE', #141, #170, #11 ) ;
#48 = SURFACE_STYLE_USAGE ( .BOTH. , #50 ) ;
#49 = EDGE_CURVE ( 'NONE', #281, #212, #310, .T. ) ;
#50 = SURFACE_SIDE_STYLE ('',( #12 ) ) ;
#51 = FACE_OUTER_BOUND ( 'NONE', #324, .T. ) ;
#52 = ORIENTED_EDGE ( 'NONE', *, *, #7, .F. ) ;
#53 = AXIS2_PLACEMENT_3D ( 'NONE', #275, #19, #73 ) ;
#54 = FACE_OUTER_BOUND ( 'NONE', #5, .T. ) ;
#55 = EDGE_LOOP ( 'NONE', ( #321, #91, #194 ) ) ;
#56 = SPHERICAL_SURFACE ( 'NONE', #44, 111.6999999999999900 ) ;
#57 = ORIENTED_EDGE ( 'NONE', *, *, #132, .T. ) ;
#58 = STYLED_ITEM ( 'NONE', ( #338 ), #222 ) ;
#59 = DIRECTION ( 'NONE',  ( -1.000000000000000000, -0.0000000000000000000, -0.0000000000000000000 ) ) ;
#60 = FACE_OUTER_BOUND ( 'NONE', #22, .T. ) ;
#61 = EDGE_CURVE ( 'NONE', #138, #27, #98, .T. ) ;
#62 = VERTEX_POINT ( 'NONE', #221 ) ;
#63 =( GEOMETRIC_REPRESENTATION_CONTEXT ( 3 ) GLOBAL_UNCERTAINTY_ASSIGNED_CONTEXT ( ( #260 ) ) GLOBAL_UNIT_ASSIGNED_CONTEXT ( ( #254, #200, #15 ) ) REPRESENTATION_CONTEXT ( 'NONE', 'WORKASPACE' ) );
#64 = CIRCLE ( 'NONE', #282, 111.6999999999999900 ) ;
#65 = ORIENTED_EDGE ( 'NONE', *, *, #135, .T. ) ;
#66 = PRODUCT_DEFINITION_SHAPE ( 'NONE', 'NONE',  #36 ) ;
#67 = CARTESIAN_POINT ( 'NONE',  ( -87.87821755690866600, 0.0000000000000000000, 0.0000000000000000000 ) ) ;
#68 = AXIS2_PLACEMENT_3D ( 'NONE', #159, #102, #214 ) ;
#69 = SPHERICAL_SURFACE ( 'NONE', #77, 111.6999999999999900 ) ;
#70 = ORIENTED_EDGE ( 'NONE', *, *, #307, .F. ) ;
#71 = CARTESIAN_POINT ( 'NONE',  ( 257.6217824430913800, 0.0000000000000000000, 2.168404344971008900E-016 ) ) ;
#72 = ORIENTED_EDGE ( 'NONE', *, *, #307, .T. ) ;
#73 = DIRECTION ( 'NONE',  ( 0.0000000000000000000, 0.0000000000000000000, 1.000000000000000000 ) ) ;
#74 = ORIENTED_EDGE ( 'NONE', *, *, #176, .F. ) ;
#75 = AXIS2_PLACEMENT_3D ( 'NONE', #337, #315, #20 ) ;
#76 = ORIENTED_EDGE ( 'NONE', *, *, #9, .F. ) ;
#77 = AXIS2_PLACEMENT_3D ( 'NONE', #34, #42, #114 ) ;
#78 =( NAMED_UNIT ( * ) PLANE_ANGLE_UNIT ( ) SI_UNIT ( $, .RADIAN. ) );
#79 = EDGE_CURVE ( 'NONE', #212, #121, #161, .T. ) ;
#80 = CIRCLE ( 'NONE', #47, 25.39999999999999500 ) ;
#81 = EDGE_CURVE ( 'NONE', #27, #138, #80, .T. ) ;
#82 = CARTESIAN_POINT ( 'NONE',  ( 366.3955384690740400, 3.110602869834279200E-015, -25.40000000000002000 ) ) ;
#83 = FACE_OUTER_BOUND ( 'NONE', #272, .T. ) ;
#84 = ORIENTED_EDGE ( 'NONE', *, *, #167, .F. ) ;
#85 = AXIS2_PLACEMENT_3D ( 'NONE', #204, #309, #143 ) ;
#86 = CIRCLE ( 'NONE', #39, 111.6999999999999900 ) ;
#87 = ORIENTED_EDGE ( 'NONE', *, *, #341, .F. ) ;
#88 =( GEOMETRIC_REPRESENTATION_CONTEXT ( 3 ) GLOBAL_UNCERTAINTY_ASSIGNED_CONTEXT ( ( #158 ) ) GLOBAL_UNIT_ASSIGNED_CONTEXT ( ( #208, #78, #157 ) ) REPRESENTATION_CONTEXT ( 'NONE', 'WORKASPACE' ) );
#89 = SURFACE_SIDE_STYLE ('',( #325 ) ) ;
#90 = SPHERICAL_SURFACE ( 'NONE', #218, 137.0999999999999900 ) ;
#91 = ORIENTED_EDGE ( 'NONE', *, *, #211, .T. ) ;
#92 = PRODUCT_DEFINITION_FORMATION_WITH_SPECIFIED_SOURCE ( 'ÈÎºÎ', '', #294, .NOT_KNOWN. ) ;
#93 = FILL_AREA_STYLE_COLOUR ( '', #189 ) ;
#94 = MANIFOLD_SOLID_BREP ( 'Ðý×ª3', #37 ) ;
#95 = DIRECTION ( 'NONE',  ( -0.0000000000000000000, 1.000000000000000000, 1.224646799147353200E-016 ) ) ;
#96 = CIRCLE ( 'NONE', #118, 137.0999999999999900 ) ;
#97 = AXIS2_PLACEMENT_3D ( 'NONE', #335, #251, #177 ) ;
#98 = CIRCLE ( 'NONE', #30, 25.39999999999999500 ) ;
#99 = DIRECTION ( 'NONE',  ( -0.0000000000000000000, 1.000000000000000000, 1.224646799147353200E-016 ) ) ;
#100 = DIRECTION ( 'NONE',  ( -1.000000000000000000, -0.0000000000000000000, -0.0000000000000000000 ) ) ;
#101 = ORIENTED_EDGE ( 'NONE', *, *, #190, .T. ) ;
#102 = DIRECTION ( 'NONE',  ( -1.000000000000000000, -0.0000000000000000000, -0.0000000000000000000 ) ) ;
#103 = ORIENTED_EDGE ( 'NONE', *, *, #287, .T. ) ;
#104 = AXIS2_PLACEMENT_3D ( 'NONE', #126, #206, #23 ) ;
#105 = APPLICATION_CONTEXT ( 'automotive_design' ) ;
#106 = SPHERICAL_SURFACE ( 'NONE', #145, 111.6999999999999900 ) ;
#107 = ORIENTED_EDGE ( 'NONE', *, *, #151, .T. ) ;
#108 = AXIS2_PLACEMENT_3D ( 'NONE', #150, #21, #263 ) ;
#109 = CARTESIAN_POINT ( 'NONE',  ( 370.6187617134023100, 0.0000000000000000000, 25.39999999999999900 ) ) ;
#110 = EDGE_CURVE ( 'NONE', #147, #233, #136, .T. ) ;
#111 = AXIS2_PLACEMENT_3D ( 'NONE', #67, #256, #14 ) ;
#112 = DIRECTION ( 'NONE',  ( -1.000000000000000000, -0.0000000000000000000, -0.0000000000000000000 ) ) ;
#113 = CARTESIAN_POINT ( 'NONE',  ( 257.6217824430913800, 0.0000000000000000000, 2.168404344971008900E-016 ) ) ;
#114 = DIRECTION ( 'NONE',  ( 0.0000000000000000000, 0.0000000000000000000, 1.000000000000000000 ) ) ;
#115 = LINE ( 'NONE', #144, #127 ) ;
#116 = DIRECTION ( 'NONE',  ( 0.0000000000000000000, 0.0000000000000000000, 1.000000000000000000 ) ) ;
#117 = CARTESIAN_POINT ( 'NONE',  ( 124.5233095260452400, 3.110602869834276500E-015, -25.39999999999999500 ) ) ;
#118 = AXIS2_PLACEMENT_3D ( 'NONE', #261, #95, #291 ) ;
#119 = DIRECTION ( 'NONE',  ( 0.0000000000000000000, 0.0000000000000000000, -1.000000000000000000 ) ) ;
#120 = FACE_OUTER_BOUND ( 'NONE', #184, .T. ) ;
#121 = VERTEX_POINT ( 'NONE', #82 ) ;
#122 = DIRECTION ( 'NONE',  ( -1.000000000000000000, -0.0000000000000000000, -0.0000000000000000000 ) ) ;
#123 = SURFACE_STYLE_FILL_AREA ( #130 ) ;
#124 = DIRECTION ( 'NONE',  ( 0.0000000000000000000, 0.0000000000000000000, 1.000000000000000000 ) ) ;
#125 = CARTESIAN_POINT ( 'NONE',  ( 370.6187617134023100, 3.110602869834278000E-015, -25.39999999999999900 ) ) ;
#126 = CARTESIAN_POINT ( 'NONE',  ( 257.6217824430913800, 0.0000000000000000000, 2.168404344971008900E-016 ) ) ;
#127 = VECTOR ( 'NONE', #280, 1000.000000000000000 ) ;
#128 = CARTESIAN_POINT ( 'NONE',  ( 371.3217824430912500, 0.0000000000000000000, 2.811789050842322500E-014 ) ) ;
#129 = AXIS2_PLACEMENT_3D ( 'NONE', #113, #181, #262 ) ;
#130 = FILL_AREA_STYLE ('',( #266 ) ) ;
#131 = ORIENTED_EDGE ( 'NONE', *, *, #49, .F. ) ;
#132 = EDGE_CURVE ( 'NONE', #1, #138, #64, .T. ) ;
#133 = ADVANCED_FACE ( 'NONE', ( #271 ), #69, .F. ) ;
#134 = ADVANCED_BREP_SHAPE_REPRESENTATION ( '145090', ( #222, #94, #3 ), #88 ) ;
#135 = EDGE_CURVE ( 'NONE', #138, #233, #115, .T. ) ;
#136 = CIRCLE ( 'NONE', #97, 25.39999999999999500 ) ;
#137 = ADVANCED_FACE ( 'NONE', ( #332 ), #56, .T. ) ;
#138 = VERTEX_POINT ( 'NONE', #308 ) ;
#139 = AXIS2_PLACEMENT_3D ( 'NONE', #234, #290, #236 ) ;
#140 = CARTESIAN_POINT ( 'NONE',  ( 366.3955384690740400, 3.110602869834276500E-015, -25.39999999999999500 ) ) ;
#141 = CARTESIAN_POINT ( 'NONE',  ( 366.3955384690740400, 0.0000000000000000000, 0.0000000000000000000 ) ) ;
#142 = ORIENTED_EDGE ( 'NONE', *, *, #110, .F. ) ;
#143 = DIRECTION ( 'NONE',  ( 0.0000000000000000000, 0.0000000000000000000, 1.000000000000000000 ) ) ;
#144 = CARTESIAN_POINT ( 'NONE',  ( 124.5233095260452400, 0.0000000000000000000, 25.39999999999999500 ) ) ;
#145 = AXIS2_PLACEMENT_3D ( 'NONE', #71, #179, #340 ) ;
#146 = DIRECTION ( 'NONE',  ( 0.0000000000000000000, -1.000000000000000000, 0.0000000000000000000 ) ) ;
#147 = VERTEX_POINT ( 'NONE', #279 ) ;
#148 = DIRECTION ( 'NONE',  ( 0.0000000000000000000, 0.0000000000000000000, 1.000000000000000000 ) ) ;
#149 = EDGE_CURVE ( 'NONE', #281, #13, #33, .T. ) ;
#150 = CARTESIAN_POINT ( 'NONE',  ( 366.3955384690740400, 0.0000000000000000000, 0.0000000000000000000 ) ) ;
#151 = EDGE_CURVE ( 'NONE', #13, #156, #40, .T. ) ;
#152 = CIRCLE ( 'NONE', #345, 25.40000000000003800 ) ;
#153 = CARTESIAN_POINT ( 'NONE',  ( 369.3217824430913100, 0.0000000000000000000, 7.056492807735068200E-015 ) ) ;
#154 =( LENGTH_UNIT ( ) NAMED_UNIT ( * ) SI_UNIT ( .MILLI., .METRE. ) );
#155 = CIRCLE ( 'NONE', #255, 137.0999999999999900 ) ;
#156 = VERTEX_POINT ( 'NONE', #226 ) ;
#157 =( NAMED_UNIT ( * ) SI_UNIT ( $, .STERADIAN. ) SOLID_ANGLE_UNIT ( ) );
#158 = UNCERTAINTY_MEASURE_WITH_UNIT (LENGTH_MEASURE( 1.000000000000000100E-005 ), #208, 'distance_accuracy_value', 'NONE');
#159 = CARTESIAN_POINT ( 'NONE',  ( 364.1952074847706600, 0.0000000000000000000, 0.0000000000000000000 ) ) ;
#160 = ADVANCED_FACE ( 'NONE', ( #193 ), #306, .T. ) ;
#161 = LINE ( 'NONE', #166, #276 ) ;
#162 = ADVANCED_FACE ( 'NONE', ( #51 ), #26, .T. ) ;
#163 = MECHANICAL_DESIGN_GEOMETRIC_PRESENTATION_REPRESENTATION (  '', ( #58 ), #185 ) ;
#164 = FACE_OUTER_BOUND ( 'NONE', #259, .T. ) ;
#165 = EDGE_LOOP ( 'NONE', ( #103, #288, #320, #302 ) ) ;
#166 = CARTESIAN_POINT ( 'NONE',  ( -0.5519199926577972300, 3.110602869834279600E-015, -25.40000000000002000 ) ) ;
#167 = EDGE_CURVE ( 'NONE', #27, #147, #237, .T. ) ;
#168 = DIRECTION ( 'NONE',  ( -1.000000000000000000, -0.0000000000000000000, -0.0000000000000000000 ) ) ;
#169 = CYLINDRICAL_SURFACE ( 'NONE', #239, 25.39999999999999500 ) ;
#170 = DIRECTION ( 'NONE',  ( -1.000000000000000000, -0.0000000000000000000, -0.0000000000000000000 ) ) ;
#171 = CARTESIAN_POINT ( 'NONE',  ( 257.6217824430913800, 0.0000000000000000000, 2.168404344971008900E-016 ) ) ;
#172 = SURFACE_STYLE_USAGE ( .BOTH. , #89 ) ;
#173 = VECTOR ( 'NONE', #333, 1000.000000000000000 ) ;
#174 = ORIENTED_EDGE ( 'NONE', *, *, #81, .T. ) ;
#175 = DIRECTION ( 'NONE',  ( 0.0000000000000000000, 0.0000000000000000000, 1.000000000000000000 ) ) ;
#176 = EDGE_CURVE ( 'NONE', #233, #62, #155, .T. ) ;
#177 = DIRECTION ( 'NONE',  ( 0.0000000000000000000, 0.0000000000000000000, 1.000000000000000000 ) ) ;
#178 =( NAMED_UNIT ( * ) PLANE_ANGLE_UNIT ( ) SI_UNIT ( $, .RADIAN. ) );
#179 = DIRECTION ( 'NONE',  ( 0.0000000000000000000, 1.000000000000000000, 0.0000000000000000000 ) ) ;
#180 = ORIENTED_EDGE ( 'NONE', *, *, #149, .F. ) ;
#181 = DIRECTION ( 'NONE',  ( 0.0000000000000000000, -1.000000000000000000, 0.0000000000000000000 ) ) ;
#182 = CIRCLE ( 'NONE', #230, 25.39999999999999900 ) ;
#183 = APPLICATION_PROTOCOL_DEFINITION ( 'draft international standard', 'automotive_design', 1998, #269 ) ;
#184 = EDGE_LOOP ( 'NONE', ( #84, #174, #65, #142 ) ) ;
#185 =( GEOMETRIC_REPRESENTATION_CONTEXT ( 3 ) GLOBAL_UNCERTAINTY_ASSIGNED_CONTEXT ( ( #198 ) ) GLOBAL_UNIT_ASSIGNED_CONTEXT ( ( #344, #178, #265 ) ) REPRESENTATION_CONTEXT ( 'NONE', 'WORKASPACE' ) );
#186 = CARTESIAN_POINT ( 'NONE',  ( 0.0000000000000000000, 0.0000000000000000000, 0.0000000000000000000 ) ) ;
#187 = ADVANCED_FACE ( 'NONE', ( #164 ), #90, .T. ) ;
#188 =( NAMED_UNIT ( * ) PLANE_ANGLE_UNIT ( ) SI_UNIT ( $, .RADIAN. ) );
#189 = COLOUR_RGB ( '',1.000000000000000000, 1.000000000000000000, 1.000000000000000000 ) ;
#190 = EDGE_CURVE ( 'NONE', #219, #156, #293, .T. ) ;
#191 =( NAMED_UNIT ( * ) SI_UNIT ( $, .STERADIAN. ) SOLID_ANGLE_UNIT ( ) );
#192 = ADVANCED_FACE ( 'NONE', ( #83 ), #225, .T. ) ;
#193 = FACE_OUTER_BOUND ( 'NONE', #165, .T. ) ;
#194 = ORIENTED_EDGE ( 'NONE', *, *, #61, .F. ) ;
#195 = DIRECTION ( 'NONE',  ( 0.0000000000000000000, -1.224646799147353200E-016, 1.000000000000000000 ) ) ;
#196 = EDGE_CURVE ( 'NONE', #156, #121, #152, .T. ) ;
#197 = ORIENTED_EDGE ( 'NONE', *, *, #7, .T. ) ;
#198 = UNCERTAINTY_MEASURE_WITH_UNIT (LENGTH_MEASURE( 1.000000000000000100E-005 ), #344, 'distance_accuracy_value', 'NONE');
#199 = CARTESIAN_POINT ( 'NONE',  ( -0.5519199926577972300, 0.0000000000000000000, 0.0000000000000000000 ) ) ;
#200 =( NAMED_UNIT ( * ) PLANE_ANGLE_UNIT ( ) SI_UNIT ( $, .RADIAN. ) );
#201 = ORIENTED_EDGE ( 'NONE', *, *, #9, .T. ) ;
#202 = ORIENTED_EDGE ( 'NONE', *, *, #190, .F. ) ;
#203 = DIRECTION ( 'NONE',  ( -1.000000000000000000, -0.0000000000000000000, -0.0000000000000000000 ) ) ;
#204 = CARTESIAN_POINT ( 'NONE',  ( 124.5233095260452400, 0.0000000000000000000, 0.0000000000000000000 ) ) ;
#205 = ORIENTED_EDGE ( 'NONE', *, *, #287, .F. ) ;
#206 = DIRECTION ( 'NONE',  ( 0.0000000000000000000, 1.000000000000000000, 0.0000000000000000000 ) ) ;
#207 = EDGE_CURVE ( 'NONE', #121, #156, #296, .T. ) ;
#208 =( LENGTH_UNIT ( ) NAMED_UNIT ( * ) SI_UNIT ( .MILLI., .METRE. ) );
#209 = DIRECTION ( 'NONE',  ( 0.0000000000000000000, -1.224646799147353200E-016, 1.000000000000000000 ) ) ;
#210 = ADVANCED_FACE ( 'NONE', ( #330 ), #106, .F. ) ;
#211 = EDGE_CURVE ( 'NONE', #1, #27, #86, .T. ) ;
#212 = VERTEX_POINT ( 'NONE', #125 ) ;
#213 = CLOSED_SHELL ( 'NONE', ( #298, #162, #187, #32, #242, #137 ) ) ;
#214 = DIRECTION ( 'NONE',  ( 0.0000000000000000000, 0.0000000000000000000, 1.000000000000000000 ) ) ;
#215 = DIRECTION ( 'NONE',  ( 1.000000000000000000, 0.0000000000000000000, 0.0000000000000000000 ) ) ;
#216 = CIRCLE ( 'NONE', #303, 111.6999999999999900 ) ;
#217 = FILL_AREA_STYLE ('',( #305 ) ) ;
#218 = AXIS2_PLACEMENT_3D ( 'NONE', #43, #313, #148 ) ;
#219 = VERTEX_POINT ( 'NONE', #153 ) ;
#220 = CARTESIAN_POINT ( 'NONE',  ( 369.3217824430913100, 0.0000000000000000000, 7.056492807735068200E-015 ) ) ;
#221 = CARTESIAN_POINT ( 'NONE',  ( 361.8217824430913700, 0.0000000000000000000, 5.003988196949465200E-015 ) ) ;
#222 = MANIFOLD_SOLID_BREP ( 'Ðý×ª1', #213 ) ;
#223 = CARTESIAN_POINT ( 'NONE',  ( 370.6187617134023100, 0.0000000000000000000, 0.0000000000000000000 ) ) ;
#224 = CARTESIAN_POINT ( 'NONE',  ( 498.9217824430913900, 0.0000000000000000000, -3.390965611205640500E-015 ) ) ;
#225 = SPHERICAL_SURFACE ( 'NONE', #53, 459.1999999999999300 ) ;
#226 = CARTESIAN_POINT ( 'NONE',  ( 366.3955384690740400, 0.0000000000000000000, 25.40000000000002000 ) ) ;
#227 = DIRECTION ( 'NONE',  ( 0.0000000000000000000, 1.000000000000000000, 0.0000000000000000000 ) ) ;
#228 = EDGE_LOOP ( 'NONE', ( #70, #35, #229 ) ) ;
#229 = ORIENTED_EDGE ( 'NONE', *, *, #176, .T. ) ;
#230 = AXIS2_PLACEMENT_3D ( 'NONE', #223, #112, #301 ) ;
#231 = CARTESIAN_POINT ( 'NONE',  ( 364.1952074847706600, 0.0000000000000000000, 25.39999999999994900 ) ) ;
#232 = CIRCLE ( 'NONE', #68, 25.39999999999999500 ) ;
#233 = VERTEX_POINT ( 'NONE', #231 ) ;
#234 = CARTESIAN_POINT ( 'NONE',  ( 370.6187617134023100, 0.0000000000000000000, 0.0000000000000000000 ) ) ;
#235 = PRESENTATION_STYLE_ASSIGNMENT (( #347 ) ) ;
#236 = DIRECTION ( 'NONE',  ( 0.0000000000000000000, 0.0000000000000000000, 1.000000000000000000 ) ) ;
#237 = LINE ( 'NONE', #117, #300 ) ;
#238 = ORIENTED_EDGE ( 'NONE', *, *, #211, .F. ) ;
#239 = AXIS2_PLACEMENT_3D ( 'NONE', #317, #100, #24 ) ;
#240 = ADVANCED_FACE ( 'NONE', ( #60 ), #249, .T. ) ;
#241 = FACE_OUTER_BOUND ( 'NONE', #55, .T. ) ;
#242 = ADVANCED_FACE ( 'NONE', ( #120 ), #169, .T. ) ;
#243 = ORIENTED_EDGE ( 'NONE', *, *, #135, .F. ) ;
#244 = EDGE_LOOP ( 'NONE', ( #202, #201, #17 ) ) ;
#245 = DIRECTION ( 'NONE',  ( 0.0000000000000000000, 0.0000000000000000000, 1.000000000000000000 ) ) ;
#246 = AXIS2_PLACEMENT_3D ( 'NONE', #331, #8, #247 ) ;
#247 = DIRECTION ( 'NONE',  ( 0.0000000000000000000, -1.224646799147353200E-016, 1.000000000000000000 ) ) ;
#248 = DIRECTION ( 'NONE',  ( 0.0000000000000000000, 0.0000000000000000000, 1.000000000000000000 ) ) ;
#249 = CYLINDRICAL_SURFACE ( 'NONE', #75, 25.40000000000002000 ) ;
#250 = ORIENTED_EDGE ( 'NONE', *, *, #61, .T. ) ;
#251 = DIRECTION ( 'NONE',  ( -1.000000000000000000, -0.0000000000000000000, -0.0000000000000000000 ) ) ;
#252 = PRESENTATION_STYLE_ASSIGNMENT (( #172 ) ) ;
#253 = ORIENTED_EDGE ( 'NONE', *, *, #49, .T. ) ;
#254 =( LENGTH_UNIT ( ) NAMED_UNIT ( * ) SI_UNIT ( .MILLI., .METRE. ) );
#255 = AXIS2_PLACEMENT_3D ( 'NONE', #257, #284, #119 ) ;
#256 = DIRECTION ( 'NONE',  ( 0.0000000000000000000, -1.000000000000000000, 0.0000000000000000000 ) ) ;
#257 = CARTESIAN_POINT ( 'NONE',  ( 498.9217824430913900, 0.0000000000000000000, -3.390965611205640500E-015 ) ) ;
#258 = CARTESIAN_POINT ( 'NONE',  ( 366.3955384690740400, 0.0000000000000000000, 0.0000000000000000000 ) ) ;
#259 = EDGE_LOOP ( 'NONE', ( #339, #72, #74 ) ) ;
#260 = UNCERTAINTY_MEASURE_WITH_UNIT (LENGTH_MEASURE( 1.000000000000000100E-005 ), #254, 'distance_accuracy_value', 'NONE');
#261 = CARTESIAN_POINT ( 'NONE',  ( 498.9217824430913900, 0.0000000000000000000, -3.390965611205640500E-015 ) ) ;
#262 = DIRECTION ( 'NONE',  ( 0.0000000000000000000, 0.0000000000000000000, -1.000000000000000000 ) ) ;
#263 = DIRECTION ( 'NONE',  ( 0.0000000000000000000, 0.0000000000000000000, 1.000000000000000000 ) ) ;
#264 = SPHERICAL_SURFACE ( 'NONE', #29, 137.0999999999999900 ) ;
#265 =( NAMED_UNIT ( * ) SI_UNIT ( $, .STERADIAN. ) SOLID_ANGLE_UNIT ( ) );
#266 = FILL_AREA_STYLE_COLOUR ( '', #316 ) ;
#267 = PRESENTATION_LAYER_ASSIGNMENT (  '', '', ( #336 ) ) ;
#268 = APPLICATION_PROTOCOL_DEFINITION ( 'draft international standard', 'automotive_design', 1998, #105 ) ;
#269 = APPLICATION_CONTEXT ( 'automotive_design' ) ;
#270 = DIRECTION ( 'NONE',  ( 0.0000000000000000000, 0.0000000000000000000, 1.000000000000000000 ) ) ;
#271 = FACE_OUTER_BOUND ( 'NONE', #244, .T. ) ;
#272 = EDGE_LOOP ( 'NONE', ( #131, #283, #52 ) ) ;
#273 = PRESENTATION_LAYER_ASSIGNMENT (  '', '', ( #58 ) ) ;
#274 = ORIENTED_EDGE ( 'NONE', *, *, #196, .T. ) ;
#275 = CARTESIAN_POINT ( 'NONE',  ( -87.87821755690866600, 0.0000000000000000000, 0.0000000000000000000 ) ) ;
#276 = VECTOR ( 'NONE', #168, 1000.000000000000000 ) ;
#277 = PRODUCT_DEFINITION_CONTEXT ( 'detailed design', #269, 'design' ) ;
#278 = ORIENTED_EDGE ( 'NONE', *, *, #207, .F. ) ;
#279 = CARTESIAN_POINT ( 'NONE',  ( 364.1952074847706600, 3.110602869834270900E-015, -25.39999999999995600 ) ) ;
#280 = DIRECTION ( 'NONE',  ( -1.000000000000000000, -0.0000000000000000000, -0.0000000000000000000 ) ) ;
#281 = VERTEX_POINT ( 'NONE', #128 ) ;
#282 = AXIS2_PLACEMENT_3D ( 'NONE', #171, #146, #334 ) ;
#283 = ORIENTED_EDGE ( 'NONE', *, *, #149, .T. ) ;
#284 = DIRECTION ( 'NONE',  ( 0.0000000000000000000, -1.000000000000000000, 0.0000000000000000000 ) ) ;
#285 = FILL_AREA_STYLE ('',( #93 ) ) ;
#286 = CARTESIAN_POINT ( 'NONE',  ( 257.6217824430913800, 0.0000000000000000000, 2.168404344971008900E-016 ) ) ;
#287 = EDGE_CURVE ( 'NONE', #13, #212, #46, .T. ) ;
#288 = ORIENTED_EDGE ( 'NONE', *, *, #79, .T. ) ;
#289 = DIRECTION ( 'NONE',  ( 0.0000000000000000000, 1.000000000000000000, 0.0000000000000000000 ) ) ;
#290 = DIRECTION ( 'NONE',  ( -1.000000000000000000, -0.0000000000000000000, -0.0000000000000000000 ) ) ;
#291 = DIRECTION ( 'NONE',  ( 0.0000000000000000000, -1.224646799147353200E-016, 1.000000000000000000 ) ) ;
#292 = AXIS2_PLACEMENT_3D ( 'NONE', #342, #289, #124 ) ;
#293 = CIRCLE ( 'NONE', #129, 111.6999999999999900 ) ;
#294 = PRODUCT ( '145090', '145090', '', ( #28 ) ) ;
#295 = ADVANCED_FACE ( 'NONE', ( #54 ), #314, .T. ) ;
#296 = CIRCLE ( 'NONE', #108, 25.40000000000003800 ) ;
#297 = FACE_OUTER_BOUND ( 'NONE', #228, .T. ) ;
#298 = ADVANCED_FACE ( 'NONE', ( #241 ), #323, .T. ) ;
#299 = MECHANICAL_DESIGN_GEOMETRIC_PRESENTATION_REPRESENTATION (  '', ( #328 ), #318 ) ;
#300 = VECTOR ( 'NONE', #312, 1000.000000000000000 ) ;
#301 = DIRECTION ( 'NONE',  ( 0.0000000000000000000, 0.0000000000000000000, 1.000000000000000000 ) ) ;
#302 = ORIENTED_EDGE ( 'NONE', *, *, #151, .F. ) ;
#303 = AXIS2_PLACEMENT_3D ( 'NONE', #329, #4, #195 ) ;
#304 = CARTESIAN_POINT ( 'NONE',  ( 366.3955384690740400, 0.0000000000000000000, 0.0000000000000000000 ) ) ;
#305 = FILL_AREA_STYLE_COLOUR ( '', #343 ) ;
#306 = CYLINDRICAL_SURFACE ( 'NONE', #25, 25.40000000000002000 ) ;
#307 = EDGE_CURVE ( 'NONE', #147, #62, #96, .T. ) ;
#308 = CARTESIAN_POINT ( 'NONE',  ( 366.3955384690740400, 0.0000000000000000000, 25.39999999999999500 ) ) ;
#309 = DIRECTION ( 'NONE',  ( -1.000000000000000000, -0.0000000000000000000, -0.0000000000000000000 ) ) ;
#310 = CIRCLE ( 'NONE', #246, 459.1999999999999300 ) ;
#311 = ORIENTED_EDGE ( 'NONE', *, *, #167, .T. ) ;
#312 = DIRECTION ( 'NONE',  ( -1.000000000000000000, -0.0000000000000000000, -0.0000000000000000000 ) ) ;
#313 = DIRECTION ( 'NONE',  ( 0.0000000000000000000, 1.000000000000000000, 0.0000000000000000000 ) ) ;
#314 = SPHERICAL_SURFACE ( 'NONE', #292, 459.1999999999999300 ) ;
#315 = DIRECTION ( 'NONE',  ( -1.000000000000000000, -0.0000000000000000000, -0.0000000000000000000 ) ) ;
#316 = COLOUR_RGB ( '',1.000000000000000000, 1.000000000000000000, 1.000000000000000000 ) ;
#317 = CARTESIAN_POINT ( 'NONE',  ( 124.5233095260452400, 0.0000000000000000000, 0.0000000000000000000 ) ) ;
#318 =( GEOMETRIC_REPRESENTATION_CONTEXT ( 3 ) GLOBAL_UNCERTAINTY_ASSIGNED_CONTEXT ( ( #10 ) ) GLOBAL_UNIT_ASSIGNED_CONTEXT ( ( #154, #188, #191 ) ) REPRESENTATION_CONTEXT ( 'NONE', 'WORKASPACE' ) );
#319 = DIRECTION ( 'NONE',  ( 0.0000000000000000000, 0.0000000000000000000, 1.000000000000000000 ) ) ;
#320 = ORIENTED_EDGE ( 'NONE', *, *, #196, .F. ) ;
#321 = ORIENTED_EDGE ( 'NONE', *, *, #132, .F. ) ;
#322 = MECHANICAL_DESIGN_GEOMETRIC_PRESENTATION_REPRESENTATION (  '', ( #336 ), #63 ) ;
#323 = SPHERICAL_SURFACE ( 'NONE', #104, 111.6999999999999900 ) ;
#324 = EDGE_LOOP ( 'NONE', ( #250, #311, #87, #243 ) ) ;
#325 = SURFACE_STYLE_FILL_AREA ( #217 ) ;
#326 = EDGE_LOOP ( 'NONE', ( #238, #57, #2 ) ) ;
#327 = DIRECTION ( 'NONE',  ( 0.0000000000000000000, 1.000000000000000000, 0.0000000000000000000 ) ) ;
#328 = STYLED_ITEM ( 'NONE', ( #235 ), #134 ) ;
#329 = CARTESIAN_POINT ( 'NONE',  ( 257.6217824430913800, 0.0000000000000000000, 2.168404344971008900E-016 ) ) ;
#330 = FACE_OUTER_BOUND ( 'NONE', #41, .T. ) ;
#331 = CARTESIAN_POINT ( 'NONE',  ( -87.87821755690866600, 0.0000000000000000000, 0.0000000000000000000 ) ) ;
#332 = FACE_OUTER_BOUND ( 'NONE', #326, .T. ) ;
#333 = DIRECTION ( 'NONE',  ( -1.000000000000000000, -0.0000000000000000000, -0.0000000000000000000 ) ) ;
#334 = DIRECTION ( 'NONE',  ( 0.0000000000000000000, 0.0000000000000000000, -1.000000000000000000 ) ) ;
#335 = CARTESIAN_POINT ( 'NONE',  ( 364.1952074847706600, 0.0000000000000000000, 0.0000000000000000000 ) ) ;
#336 = STYLED_ITEM ( 'NONE', ( #252 ), #94 ) ;
#337 = CARTESIAN_POINT ( 'NONE',  ( -0.5519199926577972300, 0.0000000000000000000, 0.0000000000000000000 ) ) ;
#338 = PRESENTATION_STYLE_ASSIGNMENT (( #48 ) ) ;
#339 = ORIENTED_EDGE ( 'NONE', *, *, #341, .T. ) ;
#340 = DIRECTION ( 'NONE',  ( 0.0000000000000000000, 0.0000000000000000000, 1.000000000000000000 ) ) ;
#341 = EDGE_CURVE ( 'NONE', #233, #147, #232, .T. ) ;
#342 = CARTESIAN_POINT ( 'NONE',  ( -87.87821755690866600, 0.0000000000000000000, 0.0000000000000000000 ) ) ;
#343 = COLOUR_RGB ( '',1.000000000000000000, 1.000000000000000000, 1.000000000000000000 ) ;
#344 =( LENGTH_UNIT ( ) NAMED_UNIT ( * ) SI_UNIT ( .MILLI., .METRE. ) );
#345 = AXIS2_PLACEMENT_3D ( 'NONE', #258, #122, #319 ) ;
#346 = SURFACE_SIDE_STYLE ('',( #123 ) ) ;
#347 = SURFACE_STYLE_USAGE ( .BOTH. , #346 ) ;
ENDSEC;
END-ISO-10303-21;
