ISO-10303-21;
HEADER;
FILE_DESCRIPTION (( 'STEP AP214' ),
    '1' );
FILE_NAME ('145091.STEP',
    '2019-05-24T09:32:24',
    ( '' ),
    ( '' ),
    'SwSTEP 2.0',
    'SolidWorks 2016',
    '' );
FILE_SCHEMA (( 'AUTOMOTIVE_DESIGN' ));
ENDSEC;

DATA;
#1 = ORIENTED_EDGE ( 'NONE', *, *, #5, .T. ) ;
#2 = EDGE_LOOP ( 'NONE', ( #188, #135, #116 ) ) ;
#3 = COLOUR_RGB ( '',1.000000000000000000, 1.000000000000000000, 1.000000000000000000 ) ;
#4 = PRODUCT_DEFINITION_CONTEXT ( 'detailed design', #214, 'design' ) ;
#5 = EDGE_CURVE ( 'NONE', #72, #286, #311, .T. ) ;
#6 = UNCERTAINTY_MEASURE_WITH_UNIT (LENGTH_MEASURE( 1.000000000000000100E-005 ), #28, 'distance_accuracy_value', 'NONE');
#7 = ORIENTED_EDGE ( 'NONE', *, *, #120, .T. ) ;
#8 = PRESENTATION_LAYER_ASSIGNMENT (  '', '', ( #176 ) ) ;
#9 = AXIS2_PLACEMENT_3D ( 'NONE', #328, #178, #48 ) ;
#10 = CARTESIAN_POINT ( 'NONE',  ( -187.1782175569086600, 0.0000000000000000000, 0.0000000000000000000 ) ) ;
#11 = LINE ( 'NONE', #24, #309 ) ;
#12 = CARTESIAN_POINT ( 'NONE',  ( 393.0661102912832200, 0.0000000000000000000, 0.0000000000000000000 ) ) ;
#13 = DIRECTION ( 'NONE',  ( 0.0000000000000000000, 0.0000000000000000000, 1.000000000000000000 ) ) ;
#14 = DIRECTION ( 'NONE',  ( 0.0000000000000000000, 0.0000000000000000000, 1.000000000000000000 ) ) ;
#15 = CIRCLE ( 'NONE', #313, 133.9999999999999400 ) ;
#16 = CARTESIAN_POINT ( 'NONE',  ( 389.1924478666575200, 0.0000000000000000000, 25.39999999999998400 ) ) ;
#17 = ADVANCED_FACE ( 'NONE', ( #145 ), #204, .T. ) ;
#18 = CARTESIAN_POINT ( 'NONE',  ( -0.5519199926577972300, 0.0000000000000000000, 0.0000000000000000000 ) ) ;
#19 = DIRECTION ( 'NONE',  ( 0.0000000000000000000, -1.224646799147353500E-016, 1.000000000000000000 ) ) ;
#20 = AXIS2_PLACEMENT_3D ( 'NONE', #10, #41, #250 ) ;
#21 = FILL_AREA_STYLE_COLOUR ( '', #318 ) ;
#22 = FILL_AREA_STYLE ('',( #314 ) ) ;
#23 =( NAMED_UNIT ( * ) SI_UNIT ( $, .STERADIAN. ) SOLID_ANGLE_UNIT ( ) );
#24 = CARTESIAN_POINT ( 'NONE',  ( 124.5233095260452400, 3.110602869834276900E-015, -25.39999999999999900 ) ) ;
#25 = AXIS2_PLACEMENT_3D ( 'NONE', #18, #334, #47 ) ;
#26 = CIRCLE ( 'NONE', #37, 580.7999999999999500 ) ;
#27 = ORIENTED_EDGE ( 'NONE', *, *, #228, .F. ) ;
#28 =( LENGTH_UNIT ( ) NAMED_UNIT ( * ) SI_UNIT ( .MILLI., .METRE. ) );
#29 = CARTESIAN_POINT ( 'NONE',  ( -187.1782175569086600, 0.0000000000000000000, 0.0000000000000000000 ) ) ;
#30 = ADVANCED_FACE ( 'NONE', ( #36 ), #69, .T. ) ;
#31 = AXIS2_PLACEMENT_3D ( 'NONE', #122, #261, #13 ) ;
#32 = SURFACE_STYLE_FILL_AREA ( #341 ) ;
#33 = VERTEX_POINT ( 'NONE', #279 ) ;
#34 = AXIS2_PLACEMENT_3D ( 'NONE', #50, #234, #154 ) ;
#35 = PRESENTATION_STYLE_ASSIGNMENT (( #185 ) ) ;
#36 = FACE_OUTER_BOUND ( 'NONE', #2, .T. ) ;
#37 = AXIS2_PLACEMENT_3D ( 'NONE', #259, #288, #56 ) ;
#38 = CYLINDRICAL_SURFACE ( 'NONE', #225, 25.39999999999999900 ) ;
#39 = EDGE_LOOP ( 'NONE', ( #248, #218, #106 ) ) ;
#40 = ORIENTED_EDGE ( 'NONE', *, *, #71, .T. ) ;
#41 = DIRECTION ( 'NONE',  ( 0.0000000000000000000, 1.000000000000000000, 0.0000000000000000000 ) ) ;
#42 = PRESENTATION_LAYER_ASSIGNMENT (  '', '', ( #143 ) ) ;
#43 = DIRECTION ( 'NONE',  ( 0.0000000000000000000, 1.000000000000000000, 0.0000000000000000000 ) ) ;
#44 = EDGE_CURVE ( 'NONE', #278, #140, #139, .T. ) ;
#45 = CARTESIAN_POINT ( 'NONE',  ( 393.0661102912832200, 0.0000000000000000000, 25.39999999999994200 ) ) ;
#46 = ADVANCED_FACE ( 'NONE', ( #291 ), #63, .F. ) ;
#47 = DIRECTION ( 'NONE',  ( 0.0000000000000000000, 0.0000000000000000000, 1.000000000000000000 ) ) ;
#48 = DIRECTION ( 'NONE',  ( 0.0000000000000000000, 0.0000000000000000000, 1.000000000000000000 ) ) ;
#49 = CARTESIAN_POINT ( 'NONE',  ( 389.1924478666575200, 3.110602869834276900E-015, -25.39999999999999900 ) ) ;
#50 = CARTESIAN_POINT ( 'NONE',  ( 387.6316887068344400, 0.0000000000000000000, 0.0000000000000000000 ) ) ;
#51 =( GEOMETRIC_REPRESENTATION_CONTEXT ( 3 ) GLOBAL_UNCERTAINTY_ASSIGNED_CONTEXT ( ( #98 ) ) GLOBAL_UNIT_ASSIGNED_CONTEXT ( ( #125, #155, #23 ) ) REPRESENTATION_CONTEXT ( 'NONE', 'WORKASPACE' ) );
#52 = DIRECTION ( 'NONE',  ( 0.0000000000000000000, -1.000000000000000000, 0.0000000000000000000 ) ) ;
#53 = CIRCLE ( 'NONE', #193, 161.5000000000000900 ) ;
#54 = DIRECTION ( 'NONE',  ( -1.000000000000000000, -0.0000000000000000000, -0.0000000000000000000 ) ) ;
#55 = ORIENTED_EDGE ( 'NONE', *, *, #5, .F. ) ;
#56 = DIRECTION ( 'NONE',  ( 0.0000000000000000000, -1.224646799147353200E-016, 1.000000000000000000 ) ) ;
#57 = AXIS2_PLACEMENT_3D ( 'NONE', #283, #336, #284 ) ;
#58 = DIRECTION ( 'NONE',  ( 1.000000000000000000, 0.0000000000000000000, 0.0000000000000000000 ) ) ;
#59 = DIRECTION ( 'NONE',  ( 0.0000000000000000000, 0.0000000000000000000, 1.000000000000000000 ) ) ;
#60 = MECHANICAL_DESIGN_GEOMETRIC_PRESENTATION_REPRESENTATION (  '', ( #143 ), #114 ) ;
#61 = SPHERICAL_SURFACE ( 'NONE', #217, 161.5000000000000900 ) ;
#62 = EDGE_CURVE ( 'NONE', #33, #100, #182, .T. ) ;
#63 = SPHERICAL_SURFACE ( 'NONE', #158, 133.9999999999999400 ) ;
#64 = ORIENTED_EDGE ( 'NONE', *, *, #343, .T. ) ;
#65 = ORIENTED_EDGE ( 'NONE', *, *, #330, .F. ) ;
#66 = EDGE_CURVE ( 'NONE', #87, #202, #128, .T. ) ;
#67 = DIRECTION ( 'NONE',  ( 0.0000000000000000000, 0.0000000000000000000, 1.000000000000000000 ) ) ;
#68 = CIRCLE ( 'NONE', #222, 25.39999999999999500 ) ;
#69 = SPHERICAL_SURFACE ( 'NONE', #20, 580.7999999999999500 ) ;
#70 = ORIENTED_EDGE ( 'NONE', *, *, #88, .F. ) ;
#71 = EDGE_CURVE ( 'NONE', #100, #240, #85, .T. ) ;
#72 = VERTEX_POINT ( 'NONE', #45 ) ;
#73 = ADVANCED_BREP_SHAPE_REPRESENTATION ( '145091', ( #196, #134, #295 ), #280 ) ;
#74 = DIRECTION ( 'NONE',  ( 0.0000000000000000000, 0.0000000000000000000, 1.000000000000000000 ) ) ;
#75 =( LENGTH_UNIT ( ) NAMED_UNIT ( * ) SI_UNIT ( .MILLI., .METRE. ) );
#76 = ADVANCED_FACE ( 'NONE', ( #118 ), #112, .T. ) ;
#77 = DIRECTION ( 'NONE',  ( -1.000000000000000000, -0.0000000000000000000, -0.0000000000000000000 ) ) ;
#78 = CARTESIAN_POINT ( 'NONE',  ( 257.6217824430913800, 0.0000000000000000000, 2.168404344971008900E-016 ) ) ;
#79 = AXIS2_PLACEMENT_3D ( 'NONE', #303, #147, #67 ) ;
#80 = SURFACE_SIDE_STYLE ('',( #249 ) ) ;
#81 = ADVANCED_FACE ( 'NONE', ( #251 ), #187, .T. ) ;
#82 = DIRECTION ( 'NONE',  ( 0.0000000000000000000, 0.0000000000000000000, 1.000000000000000000 ) ) ;
#83 = ADVANCED_FACE ( 'NONE', ( #177 ), #301, .T. ) ;
#84 = APPLICATION_CONTEXT ( 'automotive_design' ) ;
#85 = CIRCLE ( 'NONE', #57, 161.5000000000000900 ) ;
#86 = DIRECTION ( 'NONE',  ( 0.0000000000000000000, -1.000000000000000000, 0.0000000000000000000 ) ) ;
#87 = VERTEX_POINT ( 'NONE', #329 ) ;
#88 = EDGE_CURVE ( 'NONE', #150, #72, #220, .T. ) ;
#89 = EDGE_LOOP ( 'NONE', ( #271, #277, #40 ) ) ;
#90 = EDGE_CURVE ( 'NONE', #33, #240, #53, .T. ) ;
#91 = ORIENTED_EDGE ( 'NONE', *, *, #136, .T. ) ;
#92 = ORIENTED_EDGE ( 'NONE', *, *, #316, .T. ) ;
#93 = SPHERICAL_SURFACE ( 'NONE', #253, 133.9999999999999400 ) ;
#94 = ORIENTED_EDGE ( 'NONE', *, *, #115, .T. ) ;
#95 = EDGE_CURVE ( 'NONE', #140, #100, #238, .T. ) ;
#96 = DIRECTION ( 'NONE',  ( -1.000000000000000000, -0.0000000000000000000, -0.0000000000000000000 ) ) ;
#97 = ORIENTED_EDGE ( 'NONE', *, *, #66, .F. ) ;
#98 = UNCERTAINTY_MEASURE_WITH_UNIT (LENGTH_MEASURE( 1.000000000000000100E-005 ), #125, 'distance_accuracy_value', 'NONE');
#99 = DIRECTION ( 'NONE',  ( 0.0000000000000000000, 0.0000000000000000000, 1.000000000000000000 ) ) ;
#100 = VERTEX_POINT ( 'NONE', #305 ) ;
#101 = EDGE_CURVE ( 'NONE', #119, #150, #26, .T. ) ;
#102 = DIRECTION ( 'NONE',  ( 0.0000000000000000000, 0.0000000000000000000, 1.000000000000000000 ) ) ;
#103 = DIRECTION ( 'NONE',  ( 0.0000000000000000000, 0.0000000000000000000, 1.000000000000000000 ) ) ;
#104 = CARTESIAN_POINT ( 'NONE',  ( 257.6217824430913800, 0.0000000000000000000, 2.168404344971008900E-016 ) ) ;
#105 =( LENGTH_UNIT ( ) NAMED_UNIT ( * ) SI_UNIT ( .MILLI., .METRE. ) );
#106 = ORIENTED_EDGE ( 'NONE', *, *, #330, .T. ) ;
#107 = CARTESIAN_POINT ( 'NONE',  ( 393.0661102912832200, 3.110602869834271700E-015, -25.39999999999994200 ) ) ;
#108 = CARTESIAN_POINT ( 'NONE',  ( 547.1217824430914300, 0.0000000000000000000, -1.121461584931151800E-015 ) ) ;
#109 =( NAMED_UNIT ( * ) SI_UNIT ( $, .STERADIAN. ) SOLID_ANGLE_UNIT ( ) );
#110 = AXIS2_PLACEMENT_3D ( 'NONE', #236, #210, #290 ) ;
#111 = CIRCLE ( 'NONE', #208, 25.39999999999999100 ) ;
#112 = SPHERICAL_SURFACE ( 'NONE', #31, 133.9999999999999400 ) ;
#113 = ORIENTED_EDGE ( 'NONE', *, *, #153, .T. ) ;
#114 =( GEOMETRIC_REPRESENTATION_CONTEXT ( 3 ) GLOBAL_UNCERTAINTY_ASSIGNED_CONTEXT ( ( #6 ) ) GLOBAL_UNIT_ASSIGNED_CONTEXT ( ( #28, #244, #321 ) ) REPRESENTATION_CONTEXT ( 'NONE', 'WORKASPACE' ) );
#115 = EDGE_CURVE ( 'NONE', #140, #278, #299, .T. ) ;
#116 = ORIENTED_EDGE ( 'NONE', *, *, #153, .F. ) ;
#117 = PRESENTATION_STYLE_ASSIGNMENT (( #167 ) ) ;
#118 = FACE_OUTER_BOUND ( 'NONE', #262, .T. ) ;
#119 = VERTEX_POINT ( 'NONE', #307 ) ;
#120 = EDGE_CURVE ( 'NONE', #119, #72, #226, .T. ) ;
#121 = COLOUR_RGB ( '',1.000000000000000000, 1.000000000000000000, 1.000000000000000000 ) ;
#122 = CARTESIAN_POINT ( 'NONE',  ( 257.6217824430913800, 0.0000000000000000000, 2.168404344971008900E-016 ) ) ;
#123 = FILL_AREA_STYLE_COLOUR ( '', #121 ) ;
#124 = AXIS2_PLACEMENT_3D ( 'NONE', #108, #132, #186 ) ;
#125 =( LENGTH_UNIT ( ) NAMED_UNIT ( * ) SI_UNIT ( .MILLI., .METRE. ) );
#126 = DIRECTION ( 'NONE',  ( -0.0000000000000000000, 1.000000000000000000, 1.224646799147353200E-016 ) ) ;
#127 = DIRECTION ( 'NONE',  ( -1.000000000000000000, -0.0000000000000000000, -0.0000000000000000000 ) ) ;
#128 = CIRCLE ( 'NONE', #174, 133.9999999999999400 ) ;
#129 = DIRECTION ( 'NONE',  ( 0.0000000000000000000, 0.0000000000000000000, -1.000000000000000000 ) ) ;
#130 = DIRECTION ( 'NONE',  ( 0.0000000000000000000, 0.0000000000000000000, 1.000000000000000000 ) ) ;
#131 = DIRECTION ( 'NONE',  ( 0.0000000000000000000, 1.000000000000000000, 0.0000000000000000000 ) ) ;
#132 = DIRECTION ( 'NONE',  ( 0.0000000000000000000, 1.000000000000000000, 0.0000000000000000000 ) ) ;
#133 = ADVANCED_FACE ( 'NONE', ( #281 ), #170, .T. ) ;
#134 = MANIFOLD_SOLID_BREP ( 'Ðý×ª3', #327 ) ;
#135 = ORIENTED_EDGE ( 'NONE', *, *, #101, .T. ) ;
#136 = EDGE_CURVE ( 'NONE', #278, #33, #11, .T. ) ;
#137 = PRODUCT ( '145091', '145091', '', ( #317 ) ) ;
#138 = FACE_OUTER_BOUND ( 'NONE', #89, .T. ) ;
#139 = CIRCLE ( 'NONE', #9, 25.39999999999999900 ) ;
#140 = VERTEX_POINT ( 'NONE', #206 ) ;
#141 =( GEOMETRIC_REPRESENTATION_CONTEXT ( 3 ) GLOBAL_UNCERTAINTY_ASSIGNED_CONTEXT ( ( #229 ) ) GLOBAL_UNIT_ASSIGNED_CONTEXT ( ( #105, #162, #165 ) ) REPRESENTATION_CONTEXT ( 'NONE', 'WORKASPACE' ) );
#142 = ORIENTED_EDGE ( 'NONE', *, *, #213, .F. ) ;
#143 = STYLED_ITEM ( 'NONE', ( #117 ), #73 ) ;
#144 = FACE_OUTER_BOUND ( 'NONE', #200, .T. ) ;
#145 = FACE_OUTER_BOUND ( 'NONE', #340, .T. ) ;
#146 = CLOSED_SHELL ( 'NONE', ( #76, #81, #156, #164, #168, #83 ) ) ;
#147 = DIRECTION ( 'NONE',  ( -1.000000000000000000, -0.0000000000000000000, -0.0000000000000000000 ) ) ;
#148 = AXIS2_PLACEMENT_3D ( 'NONE', #29, #86, #308 ) ;
#149 = ORIENTED_EDGE ( 'NONE', *, *, #136, .F. ) ;
#150 = VERTEX_POINT ( 'NONE', #107 ) ;
#151 = DIRECTION ( 'NONE',  ( -1.000000000000000000, -0.0000000000000000000, -0.0000000000000000000 ) ) ;
#152 = DIRECTION ( 'NONE',  ( -1.000000000000000000, -0.0000000000000000000, -0.0000000000000000000 ) ) ;
#153 = EDGE_CURVE ( 'NONE', #72, #150, #243, .T. ) ;
#154 = DIRECTION ( 'NONE',  ( 0.0000000000000000000, 0.0000000000000000000, 1.000000000000000000 ) ) ;
#155 =( NAMED_UNIT ( * ) PLANE_ANGLE_UNIT ( ) SI_UNIT ( $, .RADIAN. ) );
#156 = ADVANCED_FACE ( 'NONE', ( #285 ), #61, .T. ) ;
#157 = CIRCLE ( 'NONE', #265, 133.9999999999999400 ) ;
#158 = AXIS2_PLACEMENT_3D ( 'NONE', #175, #43, #103 ) ;
#159 = EDGE_LOOP ( 'NONE', ( #27, #64, #219 ) ) ;
#160 = DIRECTION ( 'NONE',  ( 0.0000000000000000000, -1.224646799147353500E-016, 1.000000000000000000 ) ) ;
#161 = CARTESIAN_POINT ( 'NONE',  ( 389.1924478666575200, 0.0000000000000000000, 0.0000000000000000000 ) ) ;
#162 =( NAMED_UNIT ( * ) PLANE_ANGLE_UNIT ( ) SI_UNIT ( $, .RADIAN. ) );
#163 = DIRECTION ( 'NONE',  ( 0.0000000000000000000, 1.000000000000000000, 0.0000000000000000000 ) ) ;
#164 = ADVANCED_FACE ( 'NONE', ( #138 ), #324, .T. ) ;
#165 =( NAMED_UNIT ( * ) SI_UNIT ( $, .STERADIAN. ) SOLID_ANGLE_UNIT ( ) );
#166 = ORIENTED_EDGE ( 'NONE', *, *, #71, .F. ) ;
#167 = SURFACE_STYLE_USAGE ( .BOTH. , #294 ) ;
#168 = ADVANCED_FACE ( 'NONE', ( #337 ), #38, .T. ) ;
#169 = APPLICATION_PROTOCOL_DEFINITION ( 'draft international standard', 'automotive_design', 1998, #84 ) ;
#170 = SPHERICAL_SURFACE ( 'NONE', #338, 580.7999999999999500 ) ;
#171 = VECTOR ( 'NONE', #152, 1000.000000000000000 ) ;
#172 = EDGE_LOOP ( 'NONE', ( #149, #322, #346, #263 ) ) ;
#173 = MECHANICAL_DESIGN_GEOMETRIC_PRESENTATION_REPRESENTATION (  '', ( #242 ), #51 ) ;
#174 = AXIS2_PLACEMENT_3D ( 'NONE', #78, #126, #19 ) ;
#175 = CARTESIAN_POINT ( 'NONE',  ( 257.6217824430913800, 0.0000000000000000000, 2.168404344971008900E-016 ) ) ;
#176 = STYLED_ITEM ( 'NONE', ( #339 ), #134 ) ;
#177 = FACE_OUTER_BOUND ( 'NONE', #159, .T. ) ;
#178 = DIRECTION ( 'NONE',  ( -1.000000000000000000, -0.0000000000000000000, -0.0000000000000000000 ) ) ;
#179 = PRODUCT_DEFINITION_SHAPE ( 'NONE', 'NONE',  #298 ) ;
#180 = CARTESIAN_POINT ( 'NONE',  ( 547.1217824430914300, 0.0000000000000000000, -1.121461584931151800E-015 ) ) ;
#181 = LINE ( 'NONE', #287, #319 ) ;
#182 = CIRCLE ( 'NONE', #34, 25.39999999999999500 ) ;
#183 = DIRECTION ( 'NONE',  ( -1.000000000000000000, -0.0000000000000000000, -0.0000000000000000000 ) ) ;
#184 = DIRECTION ( 'NONE',  ( 0.0000000000000000000, -1.000000000000000000, 0.0000000000000000000 ) ) ;
#185 = SURFACE_STYLE_USAGE ( .BOTH. , #344 ) ;
#186 = DIRECTION ( 'NONE',  ( 0.0000000000000000000, 0.0000000000000000000, 1.000000000000000000 ) ) ;
#187 = CYLINDRICAL_SURFACE ( 'NONE', #260, 25.39999999999999900 ) ;
#188 = ORIENTED_EDGE ( 'NONE', *, *, #120, .F. ) ;
#189 = DIRECTION ( 'NONE',  ( -1.000000000000000000, -0.0000000000000000000, -0.0000000000000000000 ) ) ;
#190 = CARTESIAN_POINT ( 'NONE',  ( 393.0661102912832200, 0.0000000000000000000, 0.0000000000000000000 ) ) ;
#191 = AXIS2_PLACEMENT_3D ( 'NONE', #104, #52, #129 ) ;
#192 = ORIENTED_EDGE ( 'NONE', *, *, #195, .T. ) ;
#193 = AXIS2_PLACEMENT_3D ( 'NONE', #180, #233, #160 ) ;
#194 = ORIENTED_EDGE ( 'NONE', *, *, #95, .F. ) ;
#195 = EDGE_CURVE ( 'NONE', #87, #286, #15, .T. ) ;
#196 = MANIFOLD_SOLID_BREP ( 'Ðý×ª1', #146 ) ;
#197 = ORIENTED_EDGE ( 'NONE', *, *, #115, .F. ) ;
#198 = SURFACE_STYLE_FILL_AREA ( #215 ) ;
#199 = ORIENTED_EDGE ( 'NONE', *, *, #282, .T. ) ;
#200 = EDGE_LOOP ( 'NONE', ( #292, #254, #1, #65 ) ) ;
#201 = CARTESIAN_POINT ( 'NONE',  ( 124.5233095260452400, 0.0000000000000000000, 25.39999999999999900 ) ) ;
#202 = VERTEX_POINT ( 'NONE', #342 ) ;
#203 = DIRECTION ( 'NONE',  ( -1.000000000000000000, -0.0000000000000000000, -0.0000000000000000000 ) ) ;
#204 = CYLINDRICAL_SURFACE ( 'NONE', #79, 25.39999999999996700 ) ;
#205 = DIRECTION ( 'NONE',  ( 0.0000000000000000000, 0.0000000000000000000, 1.000000000000000000 ) ) ;
#206 = CARTESIAN_POINT ( 'NONE',  ( 389.1924478666575200, 0.0000000000000000000, 25.39999999999999900 ) ) ;
#207 = ADVANCED_FACE ( 'NONE', ( #296 ), #93, .F. ) ;
#208 = AXIS2_PLACEMENT_3D ( 'NONE', #209, #127, #205 ) ;
#209 = CARTESIAN_POINT ( 'NONE',  ( 389.1924478666575200, 0.0000000000000000000, 0.0000000000000000000 ) ) ;
#210 = DIRECTION ( 'NONE',  ( -1.000000000000000000, -0.0000000000000000000, -0.0000000000000000000 ) ) ;
#211 =( NAMED_UNIT ( * ) PLANE_ANGLE_UNIT ( ) SI_UNIT ( $, .RADIAN. ) );
#212 = CARTESIAN_POINT ( 'NONE',  ( -187.1782175569086600, 0.0000000000000000000, 0.0000000000000000000 ) ) ;
#213 = EDGE_CURVE ( 'NONE', #286, #202, #331, .T. ) ;
#214 = APPLICATION_CONTEXT ( 'automotive_design' ) ;
#215 = FILL_AREA_STYLE ('',( #21 ) ) ;
#216 = CARTESIAN_POINT ( 'NONE',  ( 0.0000000000000000000, 0.0000000000000000000, 0.0000000000000000000 ) ) ;
#217 = AXIS2_PLACEMENT_3D ( 'NONE', #293, #131, #59 ) ;
#218 = ORIENTED_EDGE ( 'NONE', *, *, #66, .T. ) ;
#219 = ORIENTED_EDGE ( 'NONE', *, *, #44, .F. ) ;
#220 = CIRCLE ( 'NONE', #276, 25.39999999999994200 ) ;
#221 = UNCERTAINTY_MEASURE_WITH_UNIT (LENGTH_MEASURE( 1.000000000000000100E-005 ), #75, 'distance_accuracy_value', 'NONE');
#222 = AXIS2_PLACEMENT_3D ( 'NONE', #257, #77, #99 ) ;
#223 = SHAPE_DEFINITION_REPRESENTATION ( #179, #73 ) ;
#224 = CARTESIAN_POINT ( 'NONE',  ( -0.5519199926577972300, 0.0000000000000000000, 25.39999999999996700 ) ) ;
#225 = AXIS2_PLACEMENT_3D ( 'NONE', #315, #239, #130 ) ;
#226 = CIRCLE ( 'NONE', #148, 580.7999999999999500 ) ;
#227 = ORIENTED_EDGE ( 'NONE', *, *, #228, .T. ) ;
#228 = EDGE_CURVE ( 'NONE', #232, #278, #157, .T. ) ;
#229 = UNCERTAINTY_MEASURE_WITH_UNIT (LENGTH_MEASURE( 1.000000000000000100E-005 ), #105, 'distance_accuracy_value', 'NONE');
#230 = CARTESIAN_POINT ( 'NONE',  ( 257.6217824430913800, 0.0000000000000000000, 2.168404344971008900E-016 ) ) ;
#231 = CARTESIAN_POINT ( 'NONE',  ( 257.6217824430913800, 0.0000000000000000000, 2.168404344971008900E-016 ) ) ;
#232 = VERTEX_POINT ( 'NONE', #335 ) ;
#233 = DIRECTION ( 'NONE',  ( -0.0000000000000000000, 1.000000000000000000, 1.224646799147353200E-016 ) ) ;
#234 = DIRECTION ( 'NONE',  ( -1.000000000000000000, -0.0000000000000000000, -0.0000000000000000000 ) ) ;
#235 = DIRECTION ( 'NONE',  ( 0.0000000000000000000, 1.000000000000000000, 0.0000000000000000000 ) ) ;
#236 = CARTESIAN_POINT ( 'NONE',  ( 389.1924478666575200, 0.0000000000000000000, 0.0000000000000000000 ) ) ;
#237 = CARTESIAN_POINT ( 'NONE',  ( 257.6217824430913800, 0.0000000000000000000, 2.168404344971008900E-016 ) ) ;
#238 = LINE ( 'NONE', #201, #171 ) ;
#239 = DIRECTION ( 'NONE',  ( -1.000000000000000000, -0.0000000000000000000, -0.0000000000000000000 ) ) ;
#240 = VERTEX_POINT ( 'NONE', #289 ) ;
#241 = DIRECTION ( 'NONE',  ( 0.0000000000000000000, 0.0000000000000000000, 1.000000000000000000 ) ) ;
#242 = STYLED_ITEM ( 'NONE', ( #35 ), #196 ) ;
#243 = CIRCLE ( 'NONE', #326, 25.39999999999994200 ) ;
#244 =( NAMED_UNIT ( * ) PLANE_ANGLE_UNIT ( ) SI_UNIT ( $, .RADIAN. ) );
#245 = AXIS2_PLACEMENT_3D ( 'NONE', #230, #333, #74 ) ;
#246 = AXIS2_PLACEMENT_3D ( 'NONE', #161, #189, #82 ) ;
#247 = VECTOR ( 'NONE', #96, 1000.000000000000000 ) ;
#248 = ORIENTED_EDGE ( 'NONE', *, *, #195, .F. ) ;
#249 = SURFACE_STYLE_FILL_AREA ( #22 ) ;
#250 = DIRECTION ( 'NONE',  ( 0.0000000000000000000, 0.0000000000000000000, 1.000000000000000000 ) ) ;
#251 = FACE_OUTER_BOUND ( 'NONE', #325, .T. ) ;
#252 = ORIENTED_EDGE ( 'NONE', *, *, #343, .F. ) ;
#253 = AXIS2_PLACEMENT_3D ( 'NONE', #258, #235, #102 ) ;
#254 = ORIENTED_EDGE ( 'NONE', *, *, #88, .T. ) ;
#255 = DIRECTION ( 'NONE',  ( 0.0000000000000000000, 0.0000000000000000000, 1.000000000000000000 ) ) ;
#256 = PRODUCT_DEFINITION_FORMATION_WITH_SPECIFIED_SOURCE ( 'ÈÎºÎ', '', #137, .NOT_KNOWN. ) ;
#257 = CARTESIAN_POINT ( 'NONE',  ( 387.6316887068344400, 0.0000000000000000000, 0.0000000000000000000 ) ) ;
#258 = CARTESIAN_POINT ( 'NONE',  ( 257.6217824430913800, 0.0000000000000000000, 2.168404344971008900E-016 ) ) ;
#259 = CARTESIAN_POINT ( 'NONE',  ( -187.1782175569086600, 0.0000000000000000000, 0.0000000000000000000 ) ) ;
#260 = AXIS2_PLACEMENT_3D ( 'NONE', #304, #151, #255 ) ;
#261 = DIRECTION ( 'NONE',  ( 0.0000000000000000000, 1.000000000000000000, 0.0000000000000000000 ) ) ;
#262 = EDGE_LOOP ( 'NONE', ( #252, #227, #197 ) ) ;
#263 = ORIENTED_EDGE ( 'NONE', *, *, #62, .F. ) ;
#264 = DIRECTION ( 'NONE',  ( -1.000000000000000000, -0.0000000000000000000, -0.0000000000000000000 ) ) ;
#265 = AXIS2_PLACEMENT_3D ( 'NONE', #237, #266, #310 ) ;
#266 = DIRECTION ( 'NONE',  ( -0.0000000000000000000, 1.000000000000000000, 1.224646799147353200E-016 ) ) ;
#267 = DIRECTION ( 'NONE',  ( 0.0000000000000000000, 0.0000000000000000000, 1.000000000000000000 ) ) ;
#268 = ADVANCED_FACE ( 'NONE', ( #144 ), #273, .T. ) ;
#269 = MECHANICAL_DESIGN_GEOMETRIC_PRESENTATION_REPRESENTATION (  '', ( #176 ), #141 ) ;
#270 = CIRCLE ( 'NONE', #191, 133.9999999999999400 ) ;
#271 = ORIENTED_EDGE ( 'NONE', *, *, #90, .F. ) ;
#272 = EDGE_LOOP ( 'NONE', ( #92, #323, #166 ) ) ;
#273 = CYLINDRICAL_SURFACE ( 'NONE', #25, 25.39999999999996700 ) ;
#274 = EDGE_LOOP ( 'NONE', ( #297, #7, #70 ) ) ;
#275 = PRODUCT_RELATED_PRODUCT_CATEGORY ( 'part', '', ( #137 ) ) ;
#276 = AXIS2_PLACEMENT_3D ( 'NONE', #12, #183, #14 ) ;
#277 = ORIENTED_EDGE ( 'NONE', *, *, #62, .T. ) ;
#278 = VERTEX_POINT ( 'NONE', #49 ) ;
#279 = CARTESIAN_POINT ( 'NONE',  ( 387.6316887068344400, 3.110602869834279600E-015, -25.40000000000002000 ) ) ;
#280 =( GEOMETRIC_REPRESENTATION_CONTEXT ( 3 ) GLOBAL_UNCERTAINTY_ASSIGNED_CONTEXT ( ( #221 ) ) GLOBAL_UNIT_ASSIGNED_CONTEXT ( ( #75, #211, #109 ) ) REPRESENTATION_CONTEXT ( 'NONE', 'WORKASPACE' ) );
#281 = FACE_OUTER_BOUND ( 'NONE', #274, .T. ) ;
#282 = EDGE_CURVE ( 'NONE', #150, #202, #181, .T. ) ;
#283 = CARTESIAN_POINT ( 'NONE',  ( 547.1217824430914300, 0.0000000000000000000, -1.121461584931151800E-015 ) ) ;
#284 = DIRECTION ( 'NONE',  ( 0.0000000000000000000, 0.0000000000000000000, -1.000000000000000000 ) ) ;
#285 = FACE_OUTER_BOUND ( 'NONE', #272, .T. ) ;
#286 = VERTEX_POINT ( 'NONE', #16 ) ;
#287 = CARTESIAN_POINT ( 'NONE',  ( -0.5519199926577972300, 3.110602869834273300E-015, -25.39999999999996700 ) ) ;
#288 = DIRECTION ( 'NONE',  ( -0.0000000000000000000, 1.000000000000000000, 1.224646799147353200E-016 ) ) ;
#289 = CARTESIAN_POINT ( 'NONE',  ( 385.6217824430913200, 0.0000000000000000000, 8.767561318183732000E-015 ) ) ;
#290 = DIRECTION ( 'NONE',  ( 0.0000000000000000000, 0.0000000000000000000, 1.000000000000000000 ) ) ;
#291 = FACE_OUTER_BOUND ( 'NONE', #332, .T. ) ;
#292 = ORIENTED_EDGE ( 'NONE', *, *, #282, .F. ) ;
#293 = CARTESIAN_POINT ( 'NONE',  ( 547.1217824430914300, 0.0000000000000000000, -1.121461584931151800E-015 ) ) ;
#294 = SURFACE_SIDE_STYLE ('',( #198 ) ) ;
#295 = AXIS2_PLACEMENT_3D ( 'NONE', #216, #241, #58 ) ;
#296 = FACE_OUTER_BOUND ( 'NONE', #39, .T. ) ;
#297 = ORIENTED_EDGE ( 'NONE', *, *, #101, .F. ) ;
#298 = PRODUCT_DEFINITION ( 'Î´Öª', '', #256, #4 ) ;
#299 = CIRCLE ( 'NONE', #110, 25.39999999999999900 ) ;
#300 = ORIENTED_EDGE ( 'NONE', *, *, #213, .T. ) ;
#301 = SPHERICAL_SURFACE ( 'NONE', #245, 133.9999999999999400 ) ;
#302 = ORIENTED_EDGE ( 'NONE', *, *, #316, .F. ) ;
#303 = CARTESIAN_POINT ( 'NONE',  ( -0.5519199926577972300, 0.0000000000000000000, 0.0000000000000000000 ) ) ;
#304 = CARTESIAN_POINT ( 'NONE',  ( 124.5233095260452400, 0.0000000000000000000, 0.0000000000000000000 ) ) ;
#305 = CARTESIAN_POINT ( 'NONE',  ( 387.6316887068344400, 0.0000000000000000000, 25.40000000000002000 ) ) ;
#306 = DIRECTION ( 'NONE',  ( 0.0000000000000000000, 0.0000000000000000000, -1.000000000000000000 ) ) ;
#307 = CARTESIAN_POINT ( 'NONE',  ( 393.6217824430913200, 0.0000000000000000000, 3.556374304723913400E-014 ) ) ;
#308 = DIRECTION ( 'NONE',  ( 0.0000000000000000000, 0.0000000000000000000, -1.000000000000000000 ) ) ;
#309 = VECTOR ( 'NONE', #264, 1000.000000000000000 ) ;
#310 = DIRECTION ( 'NONE',  ( 0.0000000000000000000, -1.224646799147353500E-016, 1.000000000000000000 ) ) ;
#311 = LINE ( 'NONE', #224, #247 ) ;
#312 = SURFACE_STYLE_USAGE ( .BOTH. , #80 ) ;
#313 = AXIS2_PLACEMENT_3D ( 'NONE', #231, #184, #306 ) ;
#314 = FILL_AREA_STYLE_COLOUR ( '', #3 ) ;
#315 = CARTESIAN_POINT ( 'NONE',  ( 124.5233095260452400, 0.0000000000000000000, 0.0000000000000000000 ) ) ;
#316 = EDGE_CURVE ( 'NONE', #100, #33, #68, .T. ) ;
#317 = PRODUCT_CONTEXT ( 'NONE', #84, 'mechanical' ) ;
#318 = COLOUR_RGB ( '',1.000000000000000000, 1.000000000000000000, 1.000000000000000000 ) ;
#319 = VECTOR ( 'NONE', #203, 1000.000000000000000 ) ;
#320 = APPLICATION_PROTOCOL_DEFINITION ( 'draft international standard', 'automotive_design', 1998, #214 ) ;
#321 =( NAMED_UNIT ( * ) SI_UNIT ( $, .STERADIAN. ) SOLID_ANGLE_UNIT ( ) );
#322 = ORIENTED_EDGE ( 'NONE', *, *, #44, .T. ) ;
#323 = ORIENTED_EDGE ( 'NONE', *, *, #90, .T. ) ;
#324 = SPHERICAL_SURFACE ( 'NONE', #124, 161.5000000000000900 ) ;
#325 = EDGE_LOOP ( 'NONE', ( #94, #91, #302, #194 ) ) ;
#326 = AXIS2_PLACEMENT_3D ( 'NONE', #190, #54, #345 ) ;
#327 = CLOSED_SHELL ( 'NONE', ( #30, #17, #207, #46, #268, #133 ) ) ;
#328 = CARTESIAN_POINT ( 'NONE',  ( 389.1924478666575200, 0.0000000000000000000, 0.0000000000000000000 ) ) ;
#329 = CARTESIAN_POINT ( 'NONE',  ( 391.6217824430913200, 0.0000000000000000000, 8.421973988784365300E-015 ) ) ;
#330 = EDGE_CURVE ( 'NONE', #202, #286, #111, .T. ) ;
#331 = CIRCLE ( 'NONE', #246, 25.39999999999999100 ) ;
#332 = EDGE_LOOP ( 'NONE', ( #97, #192, #300 ) ) ;
#333 = DIRECTION ( 'NONE',  ( 0.0000000000000000000, 1.000000000000000000, 0.0000000000000000000 ) ) ;
#334 = DIRECTION ( 'NONE',  ( -1.000000000000000000, -0.0000000000000000000, -0.0000000000000000000 ) ) ;
#335 = CARTESIAN_POINT ( 'NONE',  ( 391.6217824430913200, 0.0000000000000000000, 8.421973988784365300E-015 ) ) ;
#336 = DIRECTION ( 'NONE',  ( 0.0000000000000000000, -1.000000000000000000, 0.0000000000000000000 ) ) ;
#337 = FACE_OUTER_BOUND ( 'NONE', #172, .T. ) ;
#338 = AXIS2_PLACEMENT_3D ( 'NONE', #212, #163, #267 ) ;
#339 = PRESENTATION_STYLE_ASSIGNMENT (( #312 ) ) ;
#340 = EDGE_LOOP ( 'NONE', ( #113, #199, #142, #55 ) ) ;
#341 = FILL_AREA_STYLE ('',( #123 ) ) ;
#342 = CARTESIAN_POINT ( 'NONE',  ( 389.1924478666575200, 3.110602869834275700E-015, -25.39999999999998400 ) ) ;
#343 = EDGE_CURVE ( 'NONE', #232, #140, #270, .T. ) ;
#344 = SURFACE_SIDE_STYLE ('',( #32 ) ) ;
#345 = DIRECTION ( 'NONE',  ( 0.0000000000000000000, 0.0000000000000000000, 1.000000000000000000 ) ) ;
#346 = ORIENTED_EDGE ( 'NONE', *, *, #95, .T. ) ;
#347 = PRESENTATION_LAYER_ASSIGNMENT (  '', '', ( #242 ) ) ;
ENDSEC;
END-ISO-10303-21;
