ISO-10303-21;
HEADER;
FILE_DESCRIPTION (( 'STEP AP214' ),
    '1' );
FILE_NAME ('145101.STEP',
    '2019-05-28T06:18:58',
    ( 'user' ),
    ( 'Î¢ÈíÖÐ¹ú' ),
    'SwSTEP 2.0',
    'SolidWorks 2016',
    '' );
FILE_SCHEMA (( 'AUTOMOTIVE_DESIGN' ));
ENDSEC;

DATA;
#1 = FILL_AREA_STYLE_COLOUR ( '', #253 ) ;
#2 = EDGE_LOOP ( 'NONE', ( #324, #332, #218, #197 ) ) ;
#3 = ORIENTED_EDGE ( 'NONE', *, *, #308, .F. ) ;
#4 =( GEOMETRIC_REPRESENTATION_CONTEXT ( 3 ) GLOBAL_UNCERTAINTY_ASSIGNED_CONTEXT ( ( #90 ) ) GLOBAL_UNIT_ASSIGNED_CONTEXT ( ( #24, #31, #42 ) ) REPRESENTATION_CONTEXT ( 'NONE', 'WORKASPACE' ) );
#5 = CARTESIAN_POINT ( 'NONE',  ( 259.2239578364522600, 3.061616997868384100E-016, -2.500000000000000400 ) ) ;
#6 = CIRCLE ( 'NONE', #83, 5.300000000000000700 ) ;
#7 = UNCERTAINTY_MEASURE_WITH_UNIT (LENGTH_MEASURE( 1.000000000000000100E-005 ), #269, 'distance_accuracy_value', 'NONE');
#8 = CIRCLE ( 'NONE', #248, 5.300000000000001600 ) ;
#9 = ORIENTED_EDGE ( 'NONE', *, *, #72, .T. ) ;
#10 = DIRECTION ( 'NONE',  ( 0.0000000000000000000, 0.0000000000000000000, 1.000000000000000000 ) ) ;
#11 = FACE_OUTER_BOUND ( 'NONE', #99, .T. ) ;
#12 = AXIS2_PLACEMENT_3D ( 'NONE', #320, #45, #267 ) ;
#13 = CARTESIAN_POINT ( 'NONE',  ( 124.5233095260452400, 0.0000000000000000000, 2.500000000000000000 ) ) ;
#14 = MANIFOLD_SOLID_BREP ( 'Ðý×ª1', #25 ) ;
#15 = DIRECTION ( 'NONE',  ( 0.0000000000000000000, 1.000000000000000000, 0.0000000000000000000 ) ) ;
#16 = ORIENTED_EDGE ( 'NONE', *, *, #339, .T. ) ;
#17 = CIRCLE ( 'NONE', #221, 24.89999999999998400 ) ;
#18 = CARTESIAN_POINT ( 'NONE',  ( 124.5233095260452400, 0.0000000000000000000, 0.0000000000000000000 ) ) ;
#19 = ORIENTED_EDGE ( 'NONE', *, *, #189, .T. ) ;
#20 = ORIENTED_EDGE ( 'NONE', *, *, #154, .F. ) ;
#21 = ADVANCED_FACE ( 'NONE', ( #327 ), #172, .F. ) ;
#22 = DIRECTION ( 'NONE',  ( 0.0000000000000000000, 1.000000000000000000, 0.0000000000000000000 ) ) ;
#23 = SPHERICAL_SURFACE ( 'NONE', #345, 6.599999999999965900 ) ;
#24 =( LENGTH_UNIT ( ) NAMED_UNIT ( * ) SI_UNIT ( .MILLI., .METRE. ) );
#25 = CLOSED_SHELL ( 'NONE', ( #108, #132, #133, #158, #291, #164 ) ) ;
#26 = EDGE_LOOP ( 'NONE', ( #166, #338, #262 ) ) ;
#27 = APPLICATION_PROTOCOL_DEFINITION ( 'draft international standard', 'automotive_design', 1998, #119 ) ;
#28 = CARTESIAN_POINT ( 'NONE',  ( 262.4063291656056000, 0.0000000000000000000, 0.0000000000000000000 ) ) ;
#29 = CIRCLE ( 'NONE', #39, 2.499999999999998200 ) ;
#30 = DIRECTION ( 'NONE',  ( -1.000000000000000000, -0.0000000000000000000, -0.0000000000000000000 ) ) ;
#31 =( NAMED_UNIT ( * ) PLANE_ANGLE_UNIT ( ) SI_UNIT ( $, .RADIAN. ) );
#32 = DIRECTION ( 'NONE',  ( -1.000000000000000000, -0.0000000000000000000, -0.0000000000000000000 ) ) ;
#33 = EDGE_CURVE ( 'NONE', #55, #191, #29, .T. ) ;
#34 = FACE_OUTER_BOUND ( 'NONE', #236, .T. ) ;
#35 = CARTESIAN_POINT ( 'NONE',  ( 260.3054776363015300, 0.0000000000000000000, 2.500000000000000000 ) ) ;
#36 = CARTESIAN_POINT ( 'NONE',  ( 0.0000000000000000000, 0.0000000000000000000, 0.0000000000000000000 ) ) ;
#37 = DIRECTION ( 'NONE',  ( -1.000000000000000000, -0.0000000000000000000, -0.0000000000000000000 ) ) ;
#38 = VERTEX_POINT ( 'NONE', #152 ) ;
#39 = AXIS2_PLACEMENT_3D ( 'NONE', #107, #40, #143 ) ;
#40 = DIRECTION ( 'NONE',  ( -1.000000000000000000, -0.0000000000000000000, -0.0000000000000000000 ) ) ;
#41 = EDGE_LOOP ( 'NONE', ( #180, #227, #122 ) ) ;
#42 =( NAMED_UNIT ( * ) SI_UNIT ( $, .STERADIAN. ) SOLID_ANGLE_UNIT ( ) );
#43 = CARTESIAN_POINT ( 'NONE',  ( 255.6321490580823500, 0.0000000000000000000, 0.0000000000000000000 ) ) ;
#44 = ORIENTED_EDGE ( 'NONE', *, *, #339, .F. ) ;
#45 = DIRECTION ( 'NONE',  ( -0.0000000000000000000, 1.000000000000000000, 1.224646799147353200E-016 ) ) ;
#46 = ORIENTED_EDGE ( 'NONE', *, *, #33, .T. ) ;
#47 = CARTESIAN_POINT ( 'NONE',  ( -0.5519199926577972300, 3.061616997868380700E-016, -2.499999999999997800 ) ) ;
#48 = ADVANCED_FACE ( 'NONE', ( #71 ), #173, .T. ) ;
#49 = CYLINDRICAL_SURFACE ( 'NONE', #151, 2.500000000000000000 ) ;
#50 = DIRECTION ( 'NONE',  ( 0.0000000000000000000, -1.000000000000000000, 0.0000000000000000000 ) ) ;
#51 = DIRECTION ( 'NONE',  ( 0.0000000000000000000, 1.000000000000000000, 0.0000000000000000000 ) ) ;
#52 = ORIENTED_EDGE ( 'NONE', *, *, #321, .T. ) ;
#53 = DIRECTION ( 'NONE',  ( -1.000000000000000000, -0.0000000000000000000, -0.0000000000000000000 ) ) ;
#54 = AXIS2_PLACEMENT_3D ( 'NONE', #100, #289, #111 ) ;
#55 = VERTEX_POINT ( 'NONE', #136 ) ;
#56 = CIRCLE ( 'NONE', #256, 2.500000000000000000 ) ;
#57 = EDGE_LOOP ( 'NONE', ( #238, #245, #150 ) ) ;
#58 = EDGE_CURVE ( 'NONE', #59, #106, #8, .T. ) ;
#59 = VERTEX_POINT ( 'NONE', #95 ) ;
#60 = DIRECTION ( 'NONE',  ( -1.000000000000000000, -0.0000000000000000000, -0.0000000000000000000 ) ) ;
#61 = CARTESIAN_POINT ( 'NONE',  ( 260.3054776363015300, 0.0000000000000000000, 2.499999999999997800 ) ) ;
#62 = FACE_OUTER_BOUND ( 'NONE', #298, .T. ) ;
#63 = DIRECTION ( 'NONE',  ( 0.0000000000000000000, 0.0000000000000000000, 1.000000000000000000 ) ) ;
#64 = ORIENTED_EDGE ( 'NONE', *, *, #87, .T. ) ;
#65 = LINE ( 'NONE', #86, #263 ) ;
#66 = DIRECTION ( 'NONE',  ( 0.0000000000000000000, 0.0000000000000000000, 1.000000000000000000 ) ) ;
#67 = CLOSED_SHELL ( 'NONE', ( #48, #313, #192, #21, #82, #162 ) ) ;
#68 = FACE_OUTER_BOUND ( 'NONE', #272, .T. ) ;
#69 = PRODUCT_DEFINITION_SHAPE ( 'NONE', 'NONE',  #141 ) ;
#70 = CARTESIAN_POINT ( 'NONE',  ( 265.3321490580823900, 0.0000000000000000000, -2.950211588265018500E-018 ) ) ;
#71 = FACE_OUTER_BOUND ( 'NONE', #286, .T. ) ;
#72 = EDGE_CURVE ( 'NONE', #106, #184, #144, .T. ) ;
#73 = SURFACE_SIDE_STYLE ('',( #179 ) ) ;
#74 = VERTEX_POINT ( 'NONE', #287 ) ;
#75 = DIRECTION ( 'NONE',  ( -1.000000000000000000, -0.0000000000000000000, -0.0000000000000000000 ) ) ;
#76 = DIRECTION ( 'NONE',  ( 0.0000000000000000000, 0.0000000000000000000, 1.000000000000000000 ) ) ;
#77 = EDGE_LOOP ( 'NONE', ( #304, #155, #342 ) ) ;
#78 = DIRECTION ( 'NONE',  ( 0.0000000000000000000, 1.000000000000000000, 0.0000000000000000000 ) ) ;
#79 = FACE_OUTER_BOUND ( 'NONE', #77, .T. ) ;
#80 = EDGE_CURVE ( 'NONE', #317, #38, #341, .T. ) ;
#81 = DIRECTION ( 'NONE',  ( -1.000000000000000000, -0.0000000000000000000, -0.0000000000000000000 ) ) ;
#82 = ADVANCED_FACE ( 'NONE', ( #34 ), #209, .T. ) ;
#83 = AXIS2_PLACEMENT_3D ( 'NONE', #255, #148, #170 ) ;
#84 = DIRECTION ( 'NONE',  ( 0.0000000000000000000, 1.000000000000000000, 0.0000000000000000000 ) ) ;
#85 = VECTOR ( 'NONE', #322, 1000.000000000000000 ) ;
#86 = CARTESIAN_POINT ( 'NONE',  ( -0.5519199926577972300, 0.0000000000000000000, 2.499999999999997800 ) ) ;
#87 = EDGE_CURVE ( 'NONE', #74, #191, #65, .T. ) ;
#88 = UNCERTAINTY_MEASURE_WITH_UNIT (LENGTH_MEASURE( 1.000000000000000100E-005 ), #94, 'distance_accuracy_value', 'NONE');
#89 = ORIENTED_EDGE ( 'NONE', *, *, #288, .F. ) ;
#90 = UNCERTAINTY_MEASURE_WITH_UNIT (LENGTH_MEASURE( 1.000000000000000100E-005 ), #24, 'distance_accuracy_value', 'NONE');
#91 = PRODUCT_DEFINITION_CONTEXT ( 'detailed design', #119, 'design' ) ;
#92 = CYLINDRICAL_SURFACE ( 'NONE', #112, 2.499999999999997800 ) ;
#93 = DIRECTION ( 'NONE',  ( 0.0000000000000000000, -1.000000000000000000, 0.0000000000000000000 ) ) ;
#94 =( LENGTH_UNIT ( ) NAMED_UNIT ( * ) SI_UNIT ( .MILLI., .METRE. ) );
#95 = CARTESIAN_POINT ( 'NONE',  ( 260.9321490580823600, 0.0000000000000000000, 3.245314017740486900E-016 ) ) ;
#96 = EDGE_CURVE ( 'NONE', #156, #55, #292, .T. ) ;
#97 = CARTESIAN_POINT ( 'NONE',  ( 260.3054776363015300, 3.061616997868383100E-016, -2.500000000000000000 ) ) ;
#98 = AXIS2_PLACEMENT_3D ( 'NONE', #239, #183, #277 ) ;
#99 = EDGE_LOOP ( 'NONE', ( #319, #19, #44 ) ) ;
#100 = CARTESIAN_POINT ( 'NONE',  ( 265.3321490580823900, 0.0000000000000000000, -2.950211588265018500E-018 ) ) ;
#101 = FACE_OUTER_BOUND ( 'NONE', #240, .T. ) ;
#102 = APPLICATION_CONTEXT ( 'automotive_design' ) ;
#103 = DIRECTION ( 'NONE',  ( 0.0000000000000000000, 0.0000000000000000000, 1.000000000000000000 ) ) ;
#104 = AXIS2_PLACEMENT_3D ( 'NONE', #302, #174, #335 ) ;
#105 =( NAMED_UNIT ( * ) PLANE_ANGLE_UNIT ( ) SI_UNIT ( $, .RADIAN. ) );
#106 = VERTEX_POINT ( 'NONE', #35 ) ;
#107 = CARTESIAN_POINT ( 'NONE',  ( 260.3054776363015300, 0.0000000000000000000, 0.0000000000000000000 ) ) ;
#108 = ADVANCED_FACE ( 'NONE', ( #204 ), #169, .T. ) ;
#109 = CIRCLE ( 'NONE', #186, 6.599999999999965900 ) ;
#110 = CARTESIAN_POINT ( 'NONE',  ( 237.6321490580823500, 0.0000000000000000000, 0.0000000000000000000 ) ) ;
#111 = DIRECTION ( 'NONE',  ( 0.0000000000000000000, -1.224646799147353200E-016, 1.000000000000000000 ) ) ;
#112 = AXIS2_PLACEMENT_3D ( 'NONE', #182, #201, #160 ) ;
#113 = CIRCLE ( 'NONE', #54, 6.599999999999965900 ) ;
#114 = CARTESIAN_POINT ( 'NONE',  ( 260.3054776363015300, 0.0000000000000000000, 0.0000000000000000000 ) ) ;
#115 = COLOUR_RGB ( '',1.000000000000000000, 1.000000000000000000, 1.000000000000000000 ) ;
#116 = FILL_AREA_STYLE ('',( #244 ) ) ;
#117 = DIRECTION ( 'NONE',  ( 0.0000000000000000000, 0.0000000000000000000, 1.000000000000000000 ) ) ;
#118 = EDGE_CURVE ( 'NONE', #106, #38, #346, .T. ) ;
#119 = APPLICATION_CONTEXT ( 'automotive_design' ) ;
#120 = SPHERICAL_SURFACE ( 'NONE', #104, 24.89999999999998400 ) ;
#121 = DIRECTION ( 'NONE',  ( -1.000000000000000000, -0.0000000000000000000, -0.0000000000000000000 ) ) ;
#122 = ORIENTED_EDGE ( 'NONE', *, *, #274, .T. ) ;
#123 = DIRECTION ( 'NONE',  ( 0.0000000000000000000, 0.0000000000000000000, -1.000000000000000000 ) ) ;
#124 = MANIFOLD_SOLID_BREP ( 'Ðý×ª3', #67 ) ;
#125 = DIRECTION ( 'NONE',  ( 0.0000000000000000000, 0.0000000000000000000, 1.000000000000000000 ) ) ;
#126 = SURFACE_STYLE_USAGE ( .BOTH. , #167 ) ;
#127 = CIRCLE ( 'NONE', #178, 5.300000000000001600 ) ;
#128 = SPHERICAL_SURFACE ( 'NONE', #333, 5.300000000000001600 ) ;
#129 = CARTESIAN_POINT ( 'NONE',  ( 255.6321490580823500, 0.0000000000000000000, 0.0000000000000000000 ) ) ;
#130 = ORIENTED_EDGE ( 'NONE', *, *, #96, .T. ) ;
#131 = PRODUCT_DEFINITION_FORMATION_WITH_SPECIFIED_SOURCE ( 'ÈÎºÎ', '', #142, .NOT_KNOWN. ) ;
#132 = ADVANCED_FACE ( 'NONE', ( #62 ), #49, .T. ) ;
#133 = ADVANCED_FACE ( 'NONE', ( #138 ), #215, .T. ) ;
#134 = DIRECTION ( 'NONE',  ( -0.0000000000000000000, 1.000000000000000000, 1.224646799147353200E-016 ) ) ;
#135 = VERTEX_POINT ( 'NONE', #296 ) ;
#136 = CARTESIAN_POINT ( 'NONE',  ( 260.3054776363015300, 3.061616997868380700E-016, -2.499999999999997800 ) ) ;
#137 =( GEOMETRIC_REPRESENTATION_CONTEXT ( 3 ) GLOBAL_UNCERTAINTY_ASSIGNED_CONTEXT ( ( #283 ) ) GLOBAL_UNIT_ASSIGNED_CONTEXT ( ( #290, #295, #252 ) ) REPRESENTATION_CONTEXT ( 'NONE', 'WORKASPACE' ) );
#138 = FACE_OUTER_BOUND ( 'NONE', #26, .T. ) ;
#139 = ORIENTED_EDGE ( 'NONE', *, *, #58, .T. ) ;
#140 = FILL_AREA_STYLE ('',( #1 ) ) ;
#141 = PRODUCT_DEFINITION ( 'Î´Öª', '', #131, #91 ) ;
#142 = PRODUCT ( '145101', '145101', '', ( #300 ) ) ;
#143 = DIRECTION ( 'NONE',  ( 0.0000000000000000000, 0.0000000000000000000, 1.000000000000000000 ) ) ;
#144 = CIRCLE ( 'NONE', #265, 2.500000000000000000 ) ;
#145 = SURFACE_SIDE_STYLE ('',( #334 ) ) ;
#146 = ORIENTED_EDGE ( 'NONE', *, *, #219, .T. ) ;
#147 = CARTESIAN_POINT ( 'NONE',  ( 259.2239578364522600, 0.0000000000000000000, 0.0000000000000000000 ) ) ;
#148 = DIRECTION ( 'NONE',  ( 0.0000000000000000000, -1.000000000000000000, 0.0000000000000000000 ) ) ;
#149 = AXIS2_PLACEMENT_3D ( 'NONE', #147, #60, #187 ) ;
#150 = ORIENTED_EDGE ( 'NONE', *, *, #72, .F. ) ;
#151 = AXIS2_PLACEMENT_3D ( 'NONE', #18, #32, #297 ) ;
#152 = CARTESIAN_POINT ( 'NONE',  ( 259.2239578364522600, 0.0000000000000000000, 2.500000000000000400 ) ) ;
#153 = CARTESIAN_POINT ( 'NONE',  ( 255.6321490580823500, 0.0000000000000000000, 0.0000000000000000000 ) ) ;
#154 = EDGE_CURVE ( 'NONE', #135, #191, #6, .T. ) ;
#155 = ORIENTED_EDGE ( 'NONE', *, *, #80, .T. ) ;
#156 = VERTEX_POINT ( 'NONE', #316 ) ;
#157 = AXIS2_PLACEMENT_3D ( 'NONE', #220, #190, #196 ) ;
#158 = ADVANCED_FACE ( 'NONE', ( #79 ), #23, .T. ) ;
#159 = SHAPE_DEFINITION_REPRESENTATION ( #69, #181 ) ;
#160 = DIRECTION ( 'NONE',  ( 0.0000000000000000000, 0.0000000000000000000, 1.000000000000000000 ) ) ;
#161 = EDGE_CURVE ( 'NONE', #38, #249, #109, .T. ) ;
#162 = ADVANCED_FACE ( 'NONE', ( #11 ), #120, .T. ) ;
#163 = DIRECTION ( 'NONE',  ( 0.0000000000000000000, 0.0000000000000000000, 1.000000000000000000 ) ) ;
#164 = ADVANCED_FACE ( 'NONE', ( #101 ), #128, .T. ) ;
#165 = CARTESIAN_POINT ( 'NONE',  ( 237.6321490580823500, 0.0000000000000000000, 0.0000000000000000000 ) ) ;
#166 = ORIENTED_EDGE ( 'NONE', *, *, #308, .T. ) ;
#167 = SURFACE_SIDE_STYLE ('',( #273 ) ) ;
#168 = AXIS2_PLACEMENT_3D ( 'NONE', #231, #75, #63 ) ;
#169 = SPHERICAL_SURFACE ( 'NONE', #301, 5.300000000000001600 ) ;
#170 = DIRECTION ( 'NONE',  ( 0.0000000000000000000, 0.0000000000000000000, -1.000000000000000000 ) ) ;
#171 = AXIS2_PLACEMENT_3D ( 'NONE', #28, #53, #103 ) ;
#172 = SPHERICAL_SURFACE ( 'NONE', #281, 5.300000000000000700 ) ;
#173 = SPHERICAL_SURFACE ( 'NONE', #258, 24.89999999999998400 ) ;
#174 = DIRECTION ( 'NONE',  ( 0.0000000000000000000, 1.000000000000000000, 0.0000000000000000000 ) ) ;
#175 = EDGE_CURVE ( 'NONE', #317, #249, #113, .T. ) ;
#176 = DIRECTION ( 'NONE',  ( 0.0000000000000000000, 0.0000000000000000000, 1.000000000000000000 ) ) ;
#177 = DIRECTION ( 'NONE',  ( -1.000000000000000000, -0.0000000000000000000, -0.0000000000000000000 ) ) ;
#178 = AXIS2_PLACEMENT_3D ( 'NONE', #206, #207, #203 ) ;
#179 = SURFACE_STYLE_FILL_AREA ( #315 ) ;
#180 = ORIENTED_EDGE ( 'NONE', *, *, #321, .F. ) ;
#181 = ADVANCED_BREP_SHAPE_REPRESENTATION ( '145101', ( #14, #124, #195 ), #4 ) ;
#182 = CARTESIAN_POINT ( 'NONE',  ( -0.5519199926577972300, 0.0000000000000000000, 0.0000000000000000000 ) ) ;
#183 = DIRECTION ( 'NONE',  ( -1.000000000000000000, -0.0000000000000000000, -0.0000000000000000000 ) ) ;
#184 = VERTEX_POINT ( 'NONE', #97 ) ;
#185 = ORIENTED_EDGE ( 'NONE', *, *, #33, .F. ) ;
#186 = AXIS2_PLACEMENT_3D ( 'NONE', #70, #93, #229 ) ;
#187 = DIRECTION ( 'NONE',  ( 0.0000000000000000000, 0.0000000000000000000, 1.000000000000000000 ) ) ;
#188 =( NAMED_UNIT ( * ) SI_UNIT ( $, .STERADIAN. ) SOLID_ANGLE_UNIT ( ) );
#189 = EDGE_CURVE ( 'NONE', #280, #74, #223, .T. ) ;
#190 = DIRECTION ( 'NONE',  ( -1.000000000000000000, -0.0000000000000000000, -0.0000000000000000000 ) ) ;
#191 = VERTEX_POINT ( 'NONE', #61 ) ;
#192 = ADVANCED_FACE ( 'NONE', ( #68 ), #261, .F. ) ;
#193 = PRODUCT_RELATED_PRODUCT_CATEGORY ( 'part', '', ( #142 ) ) ;
#194 = CARTESIAN_POINT ( 'NONE',  ( 262.5321490580823800, 0.0000000000000000000, 1.524685264938453900E-015 ) ) ;
#195 = AXIS2_PLACEMENT_3D ( 'NONE', #36, #222, #264 ) ;
#196 = DIRECTION ( 'NONE',  ( 0.0000000000000000000, 0.0000000000000000000, 1.000000000000000000 ) ) ;
#197 = ORIENTED_EDGE ( 'NONE', *, *, #80, .F. ) ;
#198 = FACE_OUTER_BOUND ( 'NONE', #276, .T. ) ;
#199 = CARTESIAN_POINT ( 'NONE',  ( 260.3054776363015300, 0.0000000000000000000, 0.0000000000000000000 ) ) ;
#200 = AXIS2_PLACEMENT_3D ( 'NONE', #43, #247, #205 ) ;
#201 = DIRECTION ( 'NONE',  ( -1.000000000000000000, -0.0000000000000000000, -0.0000000000000000000 ) ) ;
#202 = PRESENTATION_LAYER_ASSIGNMENT (  '', '', ( #336 ) ) ;
#203 = DIRECTION ( 'NONE',  ( 0.0000000000000000000, -1.224646799147353200E-016, 1.000000000000000000 ) ) ;
#204 = FACE_OUTER_BOUND ( 'NONE', #57, .T. ) ;
#205 = DIRECTION ( 'NONE',  ( 0.0000000000000000000, 0.0000000000000000000, 1.000000000000000000 ) ) ;
#206 = CARTESIAN_POINT ( 'NONE',  ( 255.6321490580823500, 0.0000000000000000000, 0.0000000000000000000 ) ) ;
#207 = DIRECTION ( 'NONE',  ( -0.0000000000000000000, 1.000000000000000000, 1.224646799147353200E-016 ) ) ;
#208 = DIRECTION ( 'NONE',  ( 0.0000000000000000000, -1.224646799147353200E-016, 1.000000000000000000 ) ) ;
#209 = CYLINDRICAL_SURFACE ( 'NONE', #340, 2.499999999999997800 ) ;
#210 = ORIENTED_EDGE ( 'NONE', *, *, #212, .T. ) ;
#211 = CARTESIAN_POINT ( 'NONE',  ( 255.6321490580823500, 0.0000000000000000000, 0.0000000000000000000 ) ) ;
#212 = EDGE_CURVE ( 'NONE', #184, #317, #251, .T. ) ;
#213 = CARTESIAN_POINT ( 'NONE',  ( 124.5233095260452400, 3.061616997868383100E-016, -2.500000000000000000 ) ) ;
#214 = PRESENTATION_LAYER_ASSIGNMENT (  '', '', ( #242 ) ) ;
#215 = SPHERICAL_SURFACE ( 'NONE', #271, 6.599999999999965900 ) ;
#216 = SURFACE_STYLE_USAGE ( .BOTH. , #145 ) ;
#217 = MECHANICAL_DESIGN_GEOMETRIC_PRESENTATION_REPRESENTATION (  '', ( #242 ), #137 ) ;
#218 = ORIENTED_EDGE ( 'NONE', *, *, #118, .T. ) ;
#219 = EDGE_CURVE ( 'NONE', #280, #156, #17, .T. ) ;
#220 = CARTESIAN_POINT ( 'NONE',  ( 262.4063291656056000, 0.0000000000000000000, 0.0000000000000000000 ) ) ;
#221 = AXIS2_PLACEMENT_3D ( 'NONE', #110, #134, #208 ) ;
#222 = DIRECTION ( 'NONE',  ( 0.0000000000000000000, 0.0000000000000000000, 1.000000000000000000 ) ) ;
#223 = CIRCLE ( 'NONE', #228, 24.89999999999998400 ) ;
#224 = DIRECTION ( 'NONE',  ( 0.0000000000000000000, 0.0000000000000000000, 1.000000000000000000 ) ) ;
#225 = EDGE_CURVE ( 'NONE', #184, #106, #56, .T. ) ;
#226 = ORIENTED_EDGE ( 'NONE', *, *, #225, .F. ) ;
#227 = ORIENTED_EDGE ( 'NONE', *, *, #154, .T. ) ;
#228 = AXIS2_PLACEMENT_3D ( 'NONE', #250, #254, #123 ) ;
#229 = DIRECTION ( 'NONE',  ( 0.0000000000000000000, 0.0000000000000000000, -1.000000000000000000 ) ) ;
#230 = CARTESIAN_POINT ( 'NONE',  ( -0.5519199926577972300, 0.0000000000000000000, 0.0000000000000000000 ) ) ;
#231 = CARTESIAN_POINT ( 'NONE',  ( 260.3054776363015300, 0.0000000000000000000, 0.0000000000000000000 ) ) ;
#232 =( GEOMETRIC_REPRESENTATION_CONTEXT ( 3 ) GLOBAL_UNCERTAINTY_ASSIGNED_CONTEXT ( ( #88 ) ) GLOBAL_UNIT_ASSIGNED_CONTEXT ( ( #94, #241, #188 ) ) REPRESENTATION_CONTEXT ( 'NONE', 'WORKASPACE' ) );
#233 = CIRCLE ( 'NONE', #168, 2.499999999999998200 ) ;
#234 = DIRECTION ( 'NONE',  ( -1.000000000000000000, -0.0000000000000000000, -0.0000000000000000000 ) ) ;
#235 =( GEOMETRIC_REPRESENTATION_CONTEXT ( 3 ) GLOBAL_UNCERTAINTY_ASSIGNED_CONTEXT ( ( #7 ) ) GLOBAL_UNIT_ASSIGNED_CONTEXT ( ( #269, #105, #307 ) ) REPRESENTATION_CONTEXT ( 'NONE', 'WORKASPACE' ) );
#236 = EDGE_LOOP ( 'NONE', ( #268, #16, #64, #185 ) ) ;
#237 = DIRECTION ( 'NONE',  ( 0.0000000000000000000, 0.0000000000000000000, -1.000000000000000000 ) ) ;
#238 = ORIENTED_EDGE ( 'NONE', *, *, #58, .F. ) ;
#239 = CARTESIAN_POINT ( 'NONE',  ( 124.5233095260452400, 0.0000000000000000000, 0.0000000000000000000 ) ) ;
#240 = EDGE_LOOP ( 'NONE', ( #299, #139, #226 ) ) ;
#241 =( NAMED_UNIT ( * ) PLANE_ANGLE_UNIT ( ) SI_UNIT ( $, .RADIAN. ) );
#242 = STYLED_ITEM ( 'NONE', ( #311 ), #124 ) ;
#243 = SURFACE_STYLE_USAGE ( .BOTH. , #73 ) ;
#244 = FILL_AREA_STYLE_COLOUR ( '', #115 ) ;
#245 = ORIENTED_EDGE ( 'NONE', *, *, #246, .T. ) ;
#246 = EDGE_CURVE ( 'NONE', #59, #184, #127, .T. ) ;
#247 = DIRECTION ( 'NONE',  ( 0.0000000000000000000, 1.000000000000000000, 0.0000000000000000000 ) ) ;
#248 = AXIS2_PLACEMENT_3D ( 'NONE', #343, #50, #237 ) ;
#249 = VERTEX_POINT ( 'NONE', #318 ) ;
#250 = CARTESIAN_POINT ( 'NONE',  ( 237.6321490580823500, 0.0000000000000000000, 0.0000000000000000000 ) ) ;
#251 = LINE ( 'NONE', #213, #270 ) ;
#252 =( NAMED_UNIT ( * ) SI_UNIT ( $, .STERADIAN. ) SOLID_ANGLE_UNIT ( ) );
#253 = COLOUR_RGB ( '',1.000000000000000000, 1.000000000000000000, 1.000000000000000000 ) ;
#254 = DIRECTION ( 'NONE',  ( 0.0000000000000000000, -1.000000000000000000, 0.0000000000000000000 ) ) ;
#255 = CARTESIAN_POINT ( 'NONE',  ( 255.6321490580823500, 0.0000000000000000000, 0.0000000000000000000 ) ) ;
#256 = AXIS2_PLACEMENT_3D ( 'NONE', #199, #81, #176 ) ;
#257 = CIRCLE ( 'NONE', #157, 2.499999999999997800 ) ;
#258 = AXIS2_PLACEMENT_3D ( 'NONE', #165, #78, #76 ) ;
#259 = CIRCLE ( 'NONE', #149, 2.500000000000000000 ) ;
#260 = ORIENTED_EDGE ( 'NONE', *, *, #274, .F. ) ;
#261 = SPHERICAL_SURFACE ( 'NONE', #200, 5.300000000000000700 ) ;
#262 = ORIENTED_EDGE ( 'NONE', *, *, #161, .F. ) ;
#263 = VECTOR ( 'NONE', #30, 1000.000000000000000 ) ;
#264 = DIRECTION ( 'NONE',  ( 1.000000000000000000, 0.0000000000000000000, 0.0000000000000000000 ) ) ;
#265 = AXIS2_PLACEMENT_3D ( 'NONE', #114, #177, #125 ) ;
#266 = COLOUR_RGB ( '',1.000000000000000000, 1.000000000000000000, 1.000000000000000000 ) ;
#267 = DIRECTION ( 'NONE',  ( 0.0000000000000000000, -1.224646799147353200E-016, 1.000000000000000000 ) ) ;
#268 = ORIENTED_EDGE ( 'NONE', *, *, #96, .F. ) ;
#269 =( LENGTH_UNIT ( ) NAMED_UNIT ( * ) SI_UNIT ( .MILLI., .METRE. ) );
#270 = VECTOR ( 'NONE', #234, 1000.000000000000000 ) ;
#271 = AXIS2_PLACEMENT_3D ( 'NONE', #309, #15, #163 ) ;
#272 = EDGE_LOOP ( 'NONE', ( #20, #52, #46 ) ) ;
#273 = SURFACE_STYLE_FILL_AREA ( #140 ) ;
#274 = EDGE_CURVE ( 'NONE', #191, #55, #233, .T. ) ;
#275 = MECHANICAL_DESIGN_GEOMETRIC_PRESENTATION_REPRESENTATION (  '', ( #294 ), #235 ) ;
#276 = EDGE_LOOP ( 'NONE', ( #306, #130, #260, #344 ) ) ;
#277 = DIRECTION ( 'NONE',  ( 0.0000000000000000000, 0.0000000000000000000, 1.000000000000000000 ) ) ;
#278 = CIRCLE ( 'NONE', #171, 2.499999999999997800 ) ;
#279 = DIRECTION ( 'NONE',  ( 0.0000000000000000000, 0.0000000000000000000, 1.000000000000000000 ) ) ;
#280 = VERTEX_POINT ( 'NONE', #194 ) ;
#281 = AXIS2_PLACEMENT_3D ( 'NONE', #153, #84, #117 ) ;
#282 = FILL_AREA_STYLE_COLOUR ( '', #266 ) ;
#283 = UNCERTAINTY_MEASURE_WITH_UNIT (LENGTH_MEASURE( 1.000000000000000100E-005 ), #290, 'distance_accuracy_value', 'NONE');
#284 = DIRECTION ( 'NONE',  ( -1.000000000000000000, -0.0000000000000000000, -0.0000000000000000000 ) ) ;
#285 = PRESENTATION_STYLE_ASSIGNMENT (( #216 ) ) ;
#286 = EDGE_LOOP ( 'NONE', ( #293, #146, #89 ) ) ;
#287 = CARTESIAN_POINT ( 'NONE',  ( 262.4063291656056000, 0.0000000000000000000, 2.499999999999997800 ) ) ;
#288 = EDGE_CURVE ( 'NONE', #74, #156, #257, .T. ) ;
#289 = DIRECTION ( 'NONE',  ( -0.0000000000000000000, 1.000000000000000000, 1.224646799147353200E-016 ) ) ;
#290 =( LENGTH_UNIT ( ) NAMED_UNIT ( * ) SI_UNIT ( .MILLI., .METRE. ) );
#291 = ADVANCED_FACE ( 'NONE', ( #303 ), #328, .T. ) ;
#292 = LINE ( 'NONE', #47, #85 ) ;
#293 = ORIENTED_EDGE ( 'NONE', *, *, #189, .F. ) ;
#294 = STYLED_ITEM ( 'NONE', ( #326 ), #181 ) ;
#295 =( NAMED_UNIT ( * ) PLANE_ANGLE_UNIT ( ) SI_UNIT ( $, .RADIAN. ) );
#296 = CARTESIAN_POINT ( 'NONE',  ( 260.9321490580823600, 0.0000000000000000000, 3.245314017740486500E-016 ) ) ;
#297 = DIRECTION ( 'NONE',  ( 0.0000000000000000000, 0.0000000000000000000, 1.000000000000000000 ) ) ;
#298 = EDGE_LOOP ( 'NONE', ( #9, #210, #3, #331 ) ) ;
#299 = ORIENTED_EDGE ( 'NONE', *, *, #246, .F. ) ;
#300 = PRODUCT_CONTEXT ( 'NONE', #102, 'mechanical' ) ;
#301 = AXIS2_PLACEMENT_3D ( 'NONE', #211, #22, #279 ) ;
#302 = CARTESIAN_POINT ( 'NONE',  ( 237.6321490580823500, 0.0000000000000000000, 0.0000000000000000000 ) ) ;
#303 = FACE_OUTER_BOUND ( 'NONE', #2, .T. ) ;
#304 = ORIENTED_EDGE ( 'NONE', *, *, #175, .F. ) ;
#305 = CARTESIAN_POINT ( 'NONE',  ( 265.3321490580823900, 0.0000000000000000000, -2.950211588265018500E-018 ) ) ;
#306 = ORIENTED_EDGE ( 'NONE', *, *, #288, .T. ) ;
#307 =( NAMED_UNIT ( * ) SI_UNIT ( $, .STERADIAN. ) SOLID_ANGLE_UNIT ( ) );
#308 = EDGE_CURVE ( 'NONE', #38, #317, #259, .T. ) ;
#309 = CARTESIAN_POINT ( 'NONE',  ( 265.3321490580823900, 0.0000000000000000000, -2.950211588265018500E-018 ) ) ;
#310 = VECTOR ( 'NONE', #37, 1000.000000000000000 ) ;
#311 = PRESENTATION_STYLE_ASSIGNMENT (( #126 ) ) ;
#312 = APPLICATION_PROTOCOL_DEFINITION ( 'draft international standard', 'automotive_design', 1998, #102 ) ;
#313 = ADVANCED_FACE ( 'NONE', ( #198 ), #92, .T. ) ;
#314 = DIRECTION ( 'NONE',  ( 0.0000000000000000000, 1.000000000000000000, 0.0000000000000000000 ) ) ;
#315 = FILL_AREA_STYLE ('',( #282 ) ) ;
#316 = CARTESIAN_POINT ( 'NONE',  ( 262.4063291656056000, 3.061616997868380700E-016, -2.499999999999997800 ) ) ;
#317 = VERTEX_POINT ( 'NONE', #5 ) ;
#318 = CARTESIAN_POINT ( 'NONE',  ( 258.7321490580824300, 0.0000000000000000000, 4.011832321303594500E-016 ) ) ;
#319 = ORIENTED_EDGE ( 'NONE', *, *, #219, .F. ) ;
#320 = CARTESIAN_POINT ( 'NONE',  ( 255.6321490580823500, 0.0000000000000000000, 0.0000000000000000000 ) ) ;
#321 = EDGE_CURVE ( 'NONE', #135, #55, #337, .T. ) ;
#322 = DIRECTION ( 'NONE',  ( -1.000000000000000000, -0.0000000000000000000, -0.0000000000000000000 ) ) ;
#323 = AXIS2_PLACEMENT_3D ( 'NONE', #329, #121, #224 ) ;
#324 = ORIENTED_EDGE ( 'NONE', *, *, #212, .F. ) ;
#325 = MECHANICAL_DESIGN_GEOMETRIC_PRESENTATION_REPRESENTATION (  '', ( #336 ), #232 ) ;
#326 = PRESENTATION_STYLE_ASSIGNMENT (( #243 ) ) ;
#327 = FACE_OUTER_BOUND ( 'NONE', #41, .T. ) ;
#328 = CYLINDRICAL_SURFACE ( 'NONE', #98, 2.500000000000000000 ) ;
#329 = CARTESIAN_POINT ( 'NONE',  ( 259.2239578364522600, 0.0000000000000000000, 0.0000000000000000000 ) ) ;
#330 = PRESENTATION_LAYER_ASSIGNMENT (  '', '', ( #294 ) ) ;
#331 = ORIENTED_EDGE ( 'NONE', *, *, #118, .F. ) ;
#332 = ORIENTED_EDGE ( 'NONE', *, *, #225, .T. ) ;
#333 = AXIS2_PLACEMENT_3D ( 'NONE', #129, #51, #347 ) ;
#334 = SURFACE_STYLE_FILL_AREA ( #116 ) ;
#335 = DIRECTION ( 'NONE',  ( 0.0000000000000000000, 0.0000000000000000000, 1.000000000000000000 ) ) ;
#336 = STYLED_ITEM ( 'NONE', ( #285 ), #14 ) ;
#337 = CIRCLE ( 'NONE', #12, 5.300000000000000700 ) ;
#338 = ORIENTED_EDGE ( 'NONE', *, *, #175, .T. ) ;
#339 = EDGE_CURVE ( 'NONE', #156, #74, #278, .T. ) ;
#340 = AXIS2_PLACEMENT_3D ( 'NONE', #230, #284, #10 ) ;
#341 = CIRCLE ( 'NONE', #323, 2.500000000000000000 ) ;
#342 = ORIENTED_EDGE ( 'NONE', *, *, #161, .T. ) ;
#343 = CARTESIAN_POINT ( 'NONE',  ( 255.6321490580823500, 0.0000000000000000000, 0.0000000000000000000 ) ) ;
#344 = ORIENTED_EDGE ( 'NONE', *, *, #87, .F. ) ;
#345 = AXIS2_PLACEMENT_3D ( 'NONE', #305, #314, #66 ) ;
#346 = LINE ( 'NONE', #13, #310 ) ;
#347 = DIRECTION ( 'NONE',  ( 0.0000000000000000000, 0.0000000000000000000, 1.000000000000000000 ) ) ;
ENDSEC;
END-ISO-10303-21;
