ISO-10303-21;
HEADER;
FILE_DESCRIPTION (( 'STEP AP214' ),
    '1' );
FILE_NAME ('145103.STEP',
    '2019-05-28T09:15:23',
    ( 'user' ),
    ( 'Î¢ÈíÖÐ¹ú' ),
    'SwSTEP 2.0',
    'SolidWorks 2016',
    '' );
FILE_SCHEMA (( 'AUTOMOTIVE_DESIGN' ));
ENDSEC;

DATA;
#1 = FACE_OUTER_BOUND ( 'NONE', #254, .T. ) ;
#2 =( LENGTH_UNIT ( ) NAMED_UNIT ( * ) SI_UNIT ( .MILLI., .METRE. ) );
#3 = LINE ( 'NONE', #88, #46 ) ;
#4 = ORIENTED_EDGE ( 'NONE', *, *, #308, .T. ) ;
#5 = VERTEX_POINT ( 'NONE', #150 ) ;
#6 = CARTESIAN_POINT ( 'NONE',  ( -0.5519199926577972300, 0.0000000000000000000, 2.999999999999998200 ) ) ;
#7 = PRODUCT_DEFINITION_FORMATION_WITH_SPECIFIED_SOURCE ( 'ÈÎºÎ', '', #31, .NOT_KNOWN. ) ;
#8 = CARTESIAN_POINT ( 'NONE',  ( 124.5233095260452400, 0.0000000000000000000, 3.000000000000000900 ) ) ;
#9 = EDGE_LOOP ( 'NONE', ( #4, #56, #317, #284 ) ) ;
#10 = AXIS2_PLACEMENT_3D ( 'NONE', #175, #85, #169 ) ;
#11 = CARTESIAN_POINT ( 'NONE',  ( 267.3556628232967100, 0.0000000000000000000, 9.270830221817789500E-016 ) ) ;
#12 = DIRECTION ( 'NONE',  ( -1.000000000000000000, -0.0000000000000000000, -0.0000000000000000000 ) ) ;
#13 = MANIFOLD_SOLID_BREP ( 'Ðý×ª1', #177 ) ;
#14 = SPHERICAL_SURFACE ( 'NONE', #288, 19.49999999999992900 ) ;
#15 = VERTEX_POINT ( 'NONE', #297 ) ;
#16 = AXIS2_PLACEMENT_3D ( 'NONE', #173, #95, #152 ) ;
#17 = CARTESIAN_POINT ( 'NONE',  ( 244.7556628232967200, 0.0000000000000000000, 0.0000000000000000000 ) ) ;
#18 = EDGE_CURVE ( 'NONE', #290, #15, #220, .T. ) ;
#19 = COLOUR_RGB ( '',1.000000000000000000, 1.000000000000000000, 1.000000000000000000 ) ;
#20 = DIRECTION ( 'NONE',  ( 0.0000000000000000000, -1.224646799147353200E-016, 1.000000000000000000 ) ) ;
#21 = DIRECTION ( 'NONE',  ( 0.0000000000000000000, -1.000000000000000000, 0.0000000000000000000 ) ) ;
#22 = SURFACE_STYLE_USAGE ( .BOTH. , #313 ) ;
#23 = PRODUCT_RELATED_PRODUCT_CATEGORY ( 'part', '', ( #31 ) ) ;
#24 = ORIENTED_EDGE ( 'NONE', *, *, #87, .T. ) ;
#25 = AXIS2_PLACEMENT_3D ( 'NONE', #17, #21, #298 ) ;
#26 =( NAMED_UNIT ( * ) PLANE_ANGLE_UNIT ( ) SI_UNIT ( $, .RADIAN. ) );
#27 = ORIENTED_EDGE ( 'NONE', *, *, #125, .T. ) ;
#28 = VERTEX_POINT ( 'NONE', #64 ) ;
#29 = CARTESIAN_POINT ( 'NONE',  ( 261.8248732782873800, 0.0000000000000000000, 0.0000000000000000000 ) ) ;
#30 = CARTESIAN_POINT ( 'NONE',  ( 262.7556628232966900, 0.0000000000000000000, 1.544486320742868000E-015 ) ) ;
#31 = PRODUCT ( '145103', '145103', '', ( #261 ) ) ;
#32 = DIRECTION ( 'NONE',  ( -0.0000000000000000000, 1.000000000000000000, 1.224646799147353200E-016 ) ) ;
#33 = AXIS2_PLACEMENT_3D ( 'NONE', #299, #91, #277 ) ;
#34 = EDGE_CURVE ( 'NONE', #28, #122, #135, .T. ) ;
#35 = CARTESIAN_POINT ( 'NONE',  ( 267.3556628232967100, 0.0000000000000000000, 9.270830221817789500E-016 ) ) ;
#36 = DIRECTION ( 'NONE',  ( -1.000000000000000000, -0.0000000000000000000, -0.0000000000000000000 ) ) ;
#37 = LINE ( 'NONE', #216, #52 ) ;
#38 = SURFACE_SIDE_STYLE ('',( #275 ) ) ;
#39 =( LENGTH_UNIT ( ) NAMED_UNIT ( * ) SI_UNIT ( .MILLI., .METRE. ) );
#40 = DIRECTION ( 'NONE',  ( -1.000000000000000000, -0.0000000000000000000, -0.0000000000000000000 ) ) ;
#41 = ORIENTED_EDGE ( 'NONE', *, *, #178, .F. ) ;
#42 = EDGE_CURVE ( 'NONE', #79, #121, #225, .T. ) ;
#43 = AXIS2_PLACEMENT_3D ( 'NONE', #109, #332, #243 ) ;
#44 = ORIENTED_EDGE ( 'NONE', *, *, #74, .T. ) ;
#45 = ADVANCED_FACE ( 'NONE', ( #165 ), #330, .T. ) ;
#46 = VECTOR ( 'NONE', #36, 1000.000000000000000 ) ;
#47 = ORIENTED_EDGE ( 'NONE', *, *, #18, .T. ) ;
#48 = ADVANCED_FACE ( 'NONE', ( #344 ), #116, .T. ) ;
#49 = AXIS2_PLACEMENT_3D ( 'NONE', #119, #176, #336 ) ;
#50 = EDGE_CURVE ( 'NONE', #290, #292, #180, .T. ) ;
#51 = CIRCLE ( 'NONE', #271, 5.300000000000022000 ) ;
#52 = VECTOR ( 'NONE', #154, 1000.000000000000000 ) ;
#53 = VERTEX_POINT ( 'NONE', #194 ) ;
#54 = UNCERTAINTY_MEASURE_WITH_UNIT (LENGTH_MEASURE( 1.000000000000000100E-005 ), #283, 'distance_accuracy_value', 'NONE');
#55 = CARTESIAN_POINT ( 'NONE',  ( 257.4556628232966800, 0.0000000000000000000, 1.219954918968818100E-015 ) ) ;
#56 = ORIENTED_EDGE ( 'NONE', *, *, #142, .T. ) ;
#57 =( NAMED_UNIT ( * ) SI_UNIT ( $, .STERADIAN. ) SOLID_ANGLE_UNIT ( ) );
#58 = DIRECTION ( 'NONE',  ( 0.0000000000000000000, 0.0000000000000000000, -1.000000000000000000 ) ) ;
#59 = AXIS2_PLACEMENT_3D ( 'NONE', #195, #306, #114 ) ;
#60 = SURFACE_STYLE_FILL_AREA ( #226 ) ;
#61 = EDGE_LOOP ( 'NONE', ( #24, #345, #247, #269 ) ) ;
#62 = DIRECTION ( 'NONE',  ( 0.0000000000000000000, 0.0000000000000000000, 1.000000000000000000 ) ) ;
#63 = DIRECTION ( 'NONE',  ( 0.0000000000000000000, 0.0000000000000000000, -1.000000000000000000 ) ) ;
#64 = CARTESIAN_POINT ( 'NONE',  ( 261.8248732782873800, 0.0000000000000000000, 3.000000000000000900 ) ) ;
#65 = ADVANCED_FACE ( 'NONE', ( #262 ), #106, .T. ) ;
#66 = CYLINDRICAL_SURFACE ( 'NONE', #217, 2.999999999999998200 ) ;
#67 = ORIENTED_EDGE ( 'NONE', *, *, #208, .T. ) ;
#68 = DIRECTION ( 'NONE',  ( -1.000000000000000000, -0.0000000000000000000, -0.0000000000000000000 ) ) ;
#69 = ORIENTED_EDGE ( 'NONE', *, *, #42, .T. ) ;
#70 = CARTESIAN_POINT ( 'NONE',  ( 261.8248732782873800, 3.673940397442059400E-016, -2.999999999999998200 ) ) ;
#71 = DIRECTION ( 'NONE',  ( -0.0000000000000000000, -1.000000000000000000, -0.0000000000000000000 ) ) ;
#72 = AXIS2_PLACEMENT_3D ( 'NONE', #331, #221, #62 ) ;
#73 = DIRECTION ( 'NONE',  ( 0.0000000000000000000, -1.224646799147353200E-016, 1.000000000000000000 ) ) ;
#74 = EDGE_CURVE ( 'NONE', #259, #53, #156, .T. ) ;
#75 =( NAMED_UNIT ( * ) PLANE_ANGLE_UNIT ( ) SI_UNIT ( $, .RADIAN. ) );
#76 = MANIFOLD_SOLID_BREP ( 'Ðý×ª3', #99 ) ;
#77 = APPLICATION_CONTEXT ( 'automotive_design' ) ;
#78 = PRESENTATION_LAYER_ASSIGNMENT (  '', '', ( #81 ) ) ;
#79 = VERTEX_POINT ( 'NONE', #70 ) ;
#80 = ORIENTED_EDGE ( 'NONE', *, *, #208, .F. ) ;
#81 = STYLED_ITEM ( 'NONE', ( #128 ), #76 ) ;
#82 = SPHERICAL_SURFACE ( 'NONE', #237, 5.300000000000022000 ) ;
#83 = DIRECTION ( 'NONE',  ( 0.0000000000000000000, -1.224646799147353200E-016, 1.000000000000000000 ) ) ;
#84 = EDGE_LOOP ( 'NONE', ( #138, #206, #193 ) ) ;
#85 = DIRECTION ( 'NONE',  ( 0.0000000000000000000, 1.000000000000000000, 0.0000000000000000000 ) ) ;
#86 = AXIS2_PLACEMENT_3D ( 'NONE', #255, #281, #155 ) ;
#87 = EDGE_CURVE ( 'NONE', #292, #15, #111, .T. ) ;
#88 = CARTESIAN_POINT ( 'NONE',  ( 124.5233095260452400, 3.673940397442060900E-016, -3.000000000000000900 ) ) ;
#89 = FACE_OUTER_BOUND ( 'NONE', #144, .T. ) ;
#90 = DIRECTION ( 'NONE',  ( 0.0000000000000000000, 0.0000000000000000000, 1.000000000000000000 ) ) ;
#91 = DIRECTION ( 'NONE',  ( 0.0000000000000000000, -1.000000000000000000, -1.224646799147353200E-016 ) ) ;
#92 = EDGE_LOOP ( 'NONE', ( #41, #44, #108 ) ) ;
#93 = ADVANCED_FACE ( 'NONE', ( #265 ), #314, .T. ) ;
#94 = MECHANICAL_DESIGN_GEOMETRIC_PRESENTATION_REPRESENTATION (  '', ( #81 ), #107 ) ;
#95 = DIRECTION ( 'NONE',  ( -1.000000000000000000, -0.0000000000000000000, -0.0000000000000000000 ) ) ;
#96 = CARTESIAN_POINT ( 'NONE',  ( 257.4556628232966800, 0.0000000000000000000, 1.219954918968818100E-015 ) ) ;
#97 = DIRECTION ( 'NONE',  ( -1.000000000000000000, -0.0000000000000000000, -0.0000000000000000000 ) ) ;
#98 = ADVANCED_FACE ( 'NONE', ( #1 ), #248, .T. ) ;
#99 = CLOSED_SHELL ( 'NONE', ( #196, #93, #303, #160, #118, #65 ) ) ;
#100 = DIRECTION ( 'NONE',  ( -1.000000000000000000, -0.0000000000000000000, -0.0000000000000000000 ) ) ;
#101 = DIRECTION ( 'NONE',  ( 0.0000000000000000000, 0.0000000000000000000, -1.000000000000000000 ) ) ;
#102 = APPLICATION_CONTEXT ( 'automotive_design' ) ;
#103 = DIRECTION ( 'NONE',  ( 1.000000000000000000, 0.0000000000000000000, 0.0000000000000000000 ) ) ;
#104 = AXIS2_PLACEMENT_3D ( 'NONE', #35, #147, #200 ) ;
#105 = EDGE_CURVE ( 'NONE', #15, #79, #37, .T. ) ;
#106 = SPHERICAL_SURFACE ( 'NONE', #59, 19.49999999999992900 ) ;
#107 =( GEOMETRIC_REPRESENTATION_CONTEXT ( 3 ) GLOBAL_UNCERTAINTY_ASSIGNED_CONTEXT ( ( #263 ) ) GLOBAL_UNIT_ASSIGNED_CONTEXT ( ( #39, #252, #57 ) ) REPRESENTATION_CONTEXT ( 'NONE', 'WORKASPACE' ) );
#108 = ORIENTED_EDGE ( 'NONE', *, *, #308, .F. ) ;
#109 = CARTESIAN_POINT ( 'NONE',  ( 124.5233095260452400, 0.0000000000000000000, 0.0000000000000000000 ) ) ;
#110 = CIRCLE ( 'NONE', #123, 3.000000000000000900 ) ;
#111 = CIRCLE ( 'NONE', #130, 2.999999999999996400 ) ;
#112 = DIRECTION ( 'NONE',  ( 0.0000000000000000000, 0.0000000000000000000, 1.000000000000000000 ) ) ;
#113 = CIRCLE ( 'NONE', #49, 3.000000000000000900 ) ;
#114 = DIRECTION ( 'NONE',  ( 0.0000000000000000000, 0.0000000000000000000, 1.000000000000000000 ) ) ;
#115 = PRESENTATION_STYLE_ASSIGNMENT (( #148 ) ) ;
#116 = CYLINDRICAL_SURFACE ( 'NONE', #43, 3.000000000000000900 ) ;
#117 = DIRECTION ( 'NONE',  ( -1.000000000000000000, -0.0000000000000000000, -0.0000000000000000000 ) ) ;
#118 = ADVANCED_FACE ( 'NONE', ( #89 ), #66, .T. ) ;
#119 = CARTESIAN_POINT ( 'NONE',  ( 261.8248732782873800, 0.0000000000000000000, 0.0000000000000000000 ) ) ;
#120 = DIRECTION ( 'NONE',  ( 0.0000000000000000000, 1.000000000000000000, 0.0000000000000000000 ) ) ;
#121 = VERTEX_POINT ( 'NONE', #218 ) ;
#122 = VERTEX_POINT ( 'NONE', #126 ) ;
#123 = AXIS2_PLACEMENT_3D ( 'NONE', #202, #310, #157 ) ;
#124 =( NAMED_UNIT ( * ) SI_UNIT ( $, .STERADIAN. ) SOLID_ANGLE_UNIT ( ) );
#125 = EDGE_CURVE ( 'NONE', #121, #79, #131, .T. ) ;
#126 = CARTESIAN_POINT ( 'NONE',  ( 260.9206026060182400, -3.673940397442059400E-016, 3.000000000000000400 ) ) ;
#127 = FILL_AREA_STYLE_COLOUR ( '', #19 ) ;
#128 = PRESENTATION_STYLE_ASSIGNMENT (( #276 ) ) ;
#129 = ORIENTED_EDGE ( 'NONE', *, *, #87, .F. ) ;
#130 = AXIS2_PLACEMENT_3D ( 'NONE', #241, #324, #242 ) ;
#131 = CIRCLE ( 'NONE', #197, 3.000000000000000000 ) ;
#132 = ORIENTED_EDGE ( 'NONE', *, *, #322, .T. ) ;
#133 = SHAPE_DEFINITION_REPRESENTATION ( #145, #168 ) ;
#134 = ORIENTED_EDGE ( 'NONE', *, *, #190, .T. ) ;
#135 = LINE ( 'NONE', #8, #329 ) ;
#136 =( NAMED_UNIT ( * ) PLANE_ANGLE_UNIT ( ) SI_UNIT ( $, .RADIAN. ) );
#137 = CIRCLE ( 'NONE', #167, 5.300000000000023800 ) ;
#138 = ORIENTED_EDGE ( 'NONE', *, *, #18, .F. ) ;
#139 = EDGE_LOOP ( 'NONE', ( #213, #337, #132 ) ) ;
#140 = DIRECTION ( 'NONE',  ( -1.000000000000000000, -0.0000000000000000000, -0.0000000000000000000 ) ) ;
#141 = AXIS2_PLACEMENT_3D ( 'NONE', #11, #71, #101 ) ;
#142 = EDGE_CURVE ( 'NONE', #53, #5, #3, .T. ) ;
#143 = DIRECTION ( 'NONE',  ( 0.0000000000000000000, 0.0000000000000000000, 1.000000000000000000 ) ) ;
#144 = EDGE_LOOP ( 'NONE', ( #287, #260, #320, #146 ) ) ;
#145 = PRODUCT_DEFINITION_SHAPE ( 'NONE', 'NONE',  #338 ) ;
#146 = ORIENTED_EDGE ( 'NONE', *, *, #42, .F. ) ;
#147 = DIRECTION ( 'NONE',  ( -0.0000000000000000000, -1.000000000000000000, -0.0000000000000000000 ) ) ;
#148 = SURFACE_STYLE_USAGE ( .BOTH. , #38 ) ;
#149 = CARTESIAN_POINT ( 'NONE',  ( 260.9206026060182400, 0.0000000000000000000, 0.0000000000000000000 ) ) ;
#150 = CARTESIAN_POINT ( 'NONE',  ( 260.9206026060182400, 0.0000000000000000000, -2.999999999999999600 ) ) ;
#151 = ORIENTED_EDGE ( 'NONE', *, *, #142, .F. ) ;
#152 = DIRECTION ( 'NONE',  ( 0.0000000000000000000, 0.0000000000000000000, 1.000000000000000000 ) ) ;
#153 = AXIS2_PLACEMENT_3D ( 'NONE', #55, #186, #112 ) ;
#154 = DIRECTION ( 'NONE',  ( -1.000000000000000000, -0.0000000000000000000, -0.0000000000000000000 ) ) ;
#155 = DIRECTION ( 'NONE',  ( 0.0000000000000000000, 0.0000000000000000000, 1.000000000000000000 ) ) ;
#156 = CIRCLE ( 'NONE', #339, 5.300000000000023800 ) ;
#157 = DIRECTION ( 'NONE',  ( 0.0000000000000000000, 0.0000000000000000000, 1.000000000000000000 ) ) ;
#158 = CARTESIAN_POINT ( 'NONE',  ( 262.7556628232966900, 0.0000000000000000000, 1.544486320742868200E-015 ) ) ;
#159 = SPHERICAL_SURFACE ( 'NONE', #72, 5.300000000000022000 ) ;
#160 = ADVANCED_FACE ( 'NONE', ( #212 ), #82, .F. ) ;
#161 = VERTEX_POINT ( 'NONE', #30 ) ;
#162 =( GEOMETRIC_REPRESENTATION_CONTEXT ( 3 ) GLOBAL_UNCERTAINTY_ASSIGNED_CONTEXT ( ( #54 ) ) GLOBAL_UNIT_ASSIGNED_CONTEXT ( ( #283, #75, #203 ) ) REPRESENTATION_CONTEXT ( 'NONE', 'WORKASPACE' ) );
#163 = EDGE_CURVE ( 'NONE', #292, #121, #224, .T. ) ;
#164 = COLOUR_RGB ( '',1.000000000000000000, 1.000000000000000000, 1.000000000000000000 ) ;
#165 = FACE_OUTER_BOUND ( 'NONE', #92, .T. ) ;
#166 =( LENGTH_UNIT ( ) NAMED_UNIT ( * ) SI_UNIT ( .MILLI., .METRE. ) );
#167 = AXIS2_PLACEMENT_3D ( 'NONE', #219, #211, #63 ) ;
#168 = ADVANCED_BREP_SHAPE_REPRESENTATION ( '145103', ( #13, #76, #315 ), #162 ) ;
#169 = DIRECTION ( 'NONE',  ( 0.0000000000000000000, 0.0000000000000000000, 1.000000000000000000 ) ) ;
#170 = VERTEX_POINT ( 'NONE', #222 ) ;
#171 = CARTESIAN_POINT ( 'NONE',  ( -0.5519199926577972300, 0.0000000000000000000, 0.0000000000000000000 ) ) ;
#172 = CARTESIAN_POINT ( 'NONE',  ( 244.7556628232967200, 0.0000000000000000000, 0.0000000000000000000 ) ) ;
#173 = CARTESIAN_POINT ( 'NONE',  ( 260.9206026060182400, 0.0000000000000000000, 0.0000000000000000000 ) ) ;
#174 = EDGE_LOOP ( 'NONE', ( #187, #47, #129 ) ) ;
#175 = CARTESIAN_POINT ( 'NONE',  ( 257.4556628232966800, 0.0000000000000000000, 1.219954918968818100E-015 ) ) ;
#176 = DIRECTION ( 'NONE',  ( -1.000000000000000000, -0.0000000000000000000, -0.0000000000000000000 ) ) ;
#177 = CLOSED_SHELL ( 'NONE', ( #45, #48, #333, #311, #223, #98 ) ) ;
#178 = EDGE_CURVE ( 'NONE', #259, #28, #137, .T. ) ;
#179 = DIRECTION ( 'NONE',  ( -0.0000000000000000000, 1.000000000000000000, 1.224646799147353200E-016 ) ) ;
#180 = CIRCLE ( 'NONE', #25, 19.49999999999992900 ) ;
#181 = VECTOR ( 'NONE', #40, 1000.000000000000000 ) ;
#182 = AXIS2_PLACEMENT_3D ( 'NONE', #249, #97, #90 ) ;
#183 = ORIENTED_EDGE ( 'NONE', *, *, #178, .T. ) ;
#184 = EDGE_LOOP ( 'NONE', ( #199, #209, #321 ) ) ;
#185 = DIRECTION ( 'NONE',  ( 0.0000000000000000000, 0.0000000000000000000, 1.000000000000000000 ) ) ;
#186 = DIRECTION ( 'NONE',  ( 0.0000000000000000000, 1.000000000000000000, 0.0000000000000000000 ) ) ;
#187 = ORIENTED_EDGE ( 'NONE', *, *, #50, .F. ) ;
#188 = CARTESIAN_POINT ( 'NONE',  ( 244.7556628232967200, 0.0000000000000000000, 0.0000000000000000000 ) ) ;
#189 = STYLED_ITEM ( 'NONE', ( #267 ), #168 ) ;
#190 = EDGE_CURVE ( 'NONE', #161, #121, #335, .T. ) ;
#191 = FILL_AREA_STYLE ('',( #302 ) ) ;
#192 = EDGE_LOOP ( 'NONE', ( #151, #301, #214, #198 ) ) ;
#193 = ORIENTED_EDGE ( 'NONE', *, *, #238, .F. ) ;
#194 = CARTESIAN_POINT ( 'NONE',  ( 261.8248732782873800, 3.673940397442060900E-016, -3.000000000000000900 ) ) ;
#195 = CARTESIAN_POINT ( 'NONE',  ( 244.7556628232967200, 0.0000000000000000000, 0.0000000000000000000 ) ) ;
#196 = ADVANCED_FACE ( 'NONE', ( #205 ), #14, .T. ) ;
#197 = AXIS2_PLACEMENT_3D ( 'NONE', #29, #12, #185 ) ;
#198 = ORIENTED_EDGE ( 'NONE', *, *, #273, .F. ) ;
#199 = ORIENTED_EDGE ( 'NONE', *, *, #273, .T. ) ;
#200 = DIRECTION ( 'NONE',  ( 0.0000000000000000000, 0.0000000000000000000, -1.000000000000000000 ) ) ;
#201 = CIRCLE ( 'NONE', #307, 3.000000000000000900 ) ;
#202 = CARTESIAN_POINT ( 'NONE',  ( 261.8248732782873800, 0.0000000000000000000, 0.0000000000000000000 ) ) ;
#203 =( NAMED_UNIT ( * ) SI_UNIT ( $, .STERADIAN. ) SOLID_ANGLE_UNIT ( ) );
#204 = FACE_OUTER_BOUND ( 'NONE', #236, .T. ) ;
#205 = FACE_OUTER_BOUND ( 'NONE', #174, .T. ) ;
#206 = ORIENTED_EDGE ( 'NONE', *, *, #50, .T. ) ;
#207 = PRESENTATION_LAYER_ASSIGNMENT (  '', '', ( #189 ) ) ;
#208 = EDGE_CURVE ( 'NONE', #161, #79, #51, .T. ) ;
#209 = ORIENTED_EDGE ( 'NONE', *, *, #289, .T. ) ;
#210 =( NAMED_UNIT ( * ) SI_UNIT ( $, .STERADIAN. ) SOLID_ANGLE_UNIT ( ) );
#211 = DIRECTION ( 'NONE',  ( 0.0000000000000000000, -1.000000000000000000, 0.0000000000000000000 ) ) ;
#212 = FACE_OUTER_BOUND ( 'NONE', #280, .T. ) ;
#213 = ORIENTED_EDGE ( 'NONE', *, *, #289, .F. ) ;
#214 = ORIENTED_EDGE ( 'NONE', *, *, #34, .T. ) ;
#215 = FACE_OUTER_BOUND ( 'NONE', #139, .T. ) ;
#216 = CARTESIAN_POINT ( 'NONE',  ( -0.5519199926577972300, 3.673940397442057900E-016, -2.999999999999998200 ) ) ;
#217 = AXIS2_PLACEMENT_3D ( 'NONE', #171, #117, #143 ) ;
#218 = CARTESIAN_POINT ( 'NONE',  ( 261.8248732782873800, 0.0000000000000000000, 2.999999999999999100 ) ) ;
#219 = CARTESIAN_POINT ( 'NONE',  ( 257.4556628232966800, 0.0000000000000000000, 1.219954918968818100E-015 ) ) ;
#220 = CIRCLE ( 'NONE', #296, 19.49999999999992900 ) ;
#221 = DIRECTION ( 'NONE',  ( 0.0000000000000000000, 1.000000000000000000, 0.0000000000000000000 ) ) ;
#222 = CARTESIAN_POINT ( 'NONE',  ( 260.2556628232966900, 0.0000000000000000000, 4.923334084844687600E-016 ) ) ;
#223 = ADVANCED_FACE ( 'NONE', ( #325 ), #323, .T. ) ;
#224 = LINE ( 'NONE', #6, #181 ) ;
#225 = CIRCLE ( 'NONE', #316, 3.000000000000000000 ) ;
#226 = FILL_AREA_STYLE ('',( #328 ) ) ;
#227 = SURFACE_STYLE_FILL_AREA ( #285 ) ;
#228 = DIRECTION ( 'NONE',  ( 0.0000000000000000000, 0.0000000000000000000, 1.000000000000000000 ) ) ;
#229 = DIRECTION ( 'NONE',  ( 0.0000000000000000000, 0.0000000000000000000, 1.000000000000000000 ) ) ;
#230 = MECHANICAL_DESIGN_GEOMETRIC_PRESENTATION_REPRESENTATION (  '', ( #189 ), #244 ) ;
#231 = STYLED_ITEM ( 'NONE', ( #115 ), #13 ) ;
#232 = DIRECTION ( 'NONE',  ( -1.000000000000000000, -0.0000000000000000000, -0.0000000000000000000 ) ) ;
#233 = CARTESIAN_POINT ( 'NONE',  ( 264.0235116912943500, 0.0000000000000000000, 0.0000000000000000000 ) ) ;
#234 = APPLICATION_PROTOCOL_DEFINITION ( 'draft international standard', 'automotive_design', 1998, #77 ) ;
#235 = COLOUR_RGB ( '',1.000000000000000000, 1.000000000000000000, 1.000000000000000000 ) ;
#236 = EDGE_LOOP ( 'NONE', ( #343, #67, #69 ) ) ;
#237 = AXIS2_PLACEMENT_3D ( 'NONE', #295, #293, #270 ) ;
#238 = EDGE_CURVE ( 'NONE', #15, #292, #256, .T. ) ;
#239 = ORIENTED_EDGE ( 'NONE', *, *, #347, .F. ) ;
#240 = UNCERTAINTY_MEASURE_WITH_UNIT (LENGTH_MEASURE( 1.000000000000000100E-005 ), #166, 'distance_accuracy_value', 'NONE');
#241 = CARTESIAN_POINT ( 'NONE',  ( 264.0235116912943500, 0.0000000000000000000, 0.0000000000000000000 ) ) ;
#242 = DIRECTION ( 'NONE',  ( 0.0000000000000000000, 0.0000000000000000000, 1.000000000000000000 ) ) ;
#243 = DIRECTION ( 'NONE',  ( 0.0000000000000000000, 0.0000000000000000000, 1.000000000000000000 ) ) ;
#244 =( GEOMETRIC_REPRESENTATION_CONTEXT ( 3 ) GLOBAL_UNCERTAINTY_ASSIGNED_CONTEXT ( ( #305 ) ) GLOBAL_UNIT_ASSIGNED_CONTEXT ( ( #2, #26, #210 ) ) REPRESENTATION_CONTEXT ( 'NONE', 'WORKASPACE' ) );
#245 = PRESENTATION_LAYER_ASSIGNMENT (  '', '', ( #231 ) ) ;
#246 = CIRCLE ( 'NONE', #16, 3.000000000000000900 ) ;
#247 = ORIENTED_EDGE ( 'NONE', *, *, #125, .F. ) ;
#248 = SPHERICAL_SURFACE ( 'NONE', #153, 5.300000000000023800 ) ;
#249 = CARTESIAN_POINT ( 'NONE',  ( -0.5519199926577972300, 0.0000000000000000000, 0.0000000000000000000 ) ) ;
#250 = CARTESIAN_POINT ( 'NONE',  ( 264.2556628232966300, 0.0000000000000000000, 1.194030629168665100E-015 ) ) ;
#251 = AXIS2_PLACEMENT_3D ( 'NONE', #257, #300, #58 ) ;
#252 =( NAMED_UNIT ( * ) PLANE_ANGLE_UNIT ( ) SI_UNIT ( $, .RADIAN. ) );
#253 = EDGE_CURVE ( 'NONE', #122, #5, #201, .T. ) ;
#254 = EDGE_LOOP ( 'NONE', ( #272, #183, #239 ) ) ;
#255 = CARTESIAN_POINT ( 'NONE',  ( 267.3556628232967100, 0.0000000000000000000, 9.270830221817789500E-016 ) ) ;
#256 = CIRCLE ( 'NONE', #319, 2.999999999999996400 ) ;
#257 = CARTESIAN_POINT ( 'NONE',  ( 257.4556628232966800, 0.0000000000000000000, 1.219954918968818100E-015 ) ) ;
#258 = DIRECTION ( 'NONE',  ( 0.0000000000000000000, 0.0000000000000000000, 1.000000000000000000 ) ) ;
#259 = VERTEX_POINT ( 'NONE', #158 ) ;
#260 = ORIENTED_EDGE ( 'NONE', *, *, #238, .T. ) ;
#261 = PRODUCT_CONTEXT ( 'NONE', #102, 'mechanical' ) ;
#262 = FACE_OUTER_BOUND ( 'NONE', #84, .T. ) ;
#263 = UNCERTAINTY_MEASURE_WITH_UNIT (LENGTH_MEASURE( 1.000000000000000100E-005 ), #39, 'distance_accuracy_value', 'NONE');
#264 = MECHANICAL_DESIGN_GEOMETRIC_PRESENTATION_REPRESENTATION (  '', ( #231 ), #282 ) ;
#265 = FACE_OUTER_BOUND ( 'NONE', #61, .T. ) ;
#266 = CIRCLE ( 'NONE', #33, 7.099999999999997900 ) ;
#267 = PRESENTATION_STYLE_ASSIGNMENT (( #22 ) ) ;
#268 = SPHERICAL_SURFACE ( 'NONE', #141, 7.099999999999997900 ) ;
#269 = ORIENTED_EDGE ( 'NONE', *, *, #163, .F. ) ;
#270 = DIRECTION ( 'NONE',  ( 0.0000000000000000000, 0.0000000000000000000, 1.000000000000000000 ) ) ;
#271 = AXIS2_PLACEMENT_3D ( 'NONE', #304, #179, #20 ) ;
#272 = ORIENTED_EDGE ( 'NONE', *, *, #74, .F. ) ;
#273 = EDGE_CURVE ( 'NONE', #5, #122, #246, .T. ) ;
#274 = DIRECTION ( 'NONE',  ( 0.0000000000000000000, 0.0000000000000000000, 1.000000000000000000 ) ) ;
#275 = SURFACE_STYLE_FILL_AREA ( #191 ) ;
#276 = SURFACE_STYLE_USAGE ( .BOTH. , #279 ) ;
#277 = DIRECTION ( 'NONE',  ( 0.0000000000000000000, 1.224646799147353200E-016, -1.000000000000000000 ) ) ;
#278 = CARTESIAN_POINT ( 'NONE',  ( 264.0235116912943500, 0.0000000000000000000, 2.999999999999996400 ) ) ;
#279 = SURFACE_SIDE_STYLE ('',( #60 ) ) ;
#280 = EDGE_LOOP ( 'NONE', ( #80, #134, #27 ) ) ;
#281 = DIRECTION ( 'NONE',  ( 0.0000000000000000000, 1.000000000000000000, -0.0000000000000000000 ) ) ;
#282 =( GEOMETRIC_REPRESENTATION_CONTEXT ( 3 ) GLOBAL_UNCERTAINTY_ASSIGNED_CONTEXT ( ( #240 ) ) GLOBAL_UNIT_ASSIGNED_CONTEXT ( ( #166, #136, #124 ) ) REPRESENTATION_CONTEXT ( 'NONE', 'WORKASPACE' ) );
#283 =( LENGTH_UNIT ( ) NAMED_UNIT ( * ) SI_UNIT ( .MILLI., .METRE. ) );
#284 = ORIENTED_EDGE ( 'NONE', *, *, #34, .F. ) ;
#285 = FILL_AREA_STYLE ('',( #127 ) ) ;
#286 = DIRECTION ( 'NONE',  ( 0.0000000000000000000, 0.0000000000000000000, 1.000000000000000000 ) ) ;
#287 = ORIENTED_EDGE ( 'NONE', *, *, #105, .F. ) ;
#288 = AXIS2_PLACEMENT_3D ( 'NONE', #172, #120, #229 ) ;
#289 = EDGE_CURVE ( 'NONE', #122, #170, #266, .T. ) ;
#290 = VERTEX_POINT ( 'NONE', #250 ) ;
#291 = CARTESIAN_POINT ( 'NONE',  ( 0.0000000000000000000, 0.0000000000000000000, 0.0000000000000000000 ) ) ;
#292 = VERTEX_POINT ( 'NONE', #278 ) ;
#293 = DIRECTION ( 'NONE',  ( 0.0000000000000000000, 1.000000000000000000, 0.0000000000000000000 ) ) ;
#294 = DIRECTION ( 'NONE',  ( -1.000000000000000000, -0.0000000000000000000, -0.0000000000000000000 ) ) ;
#295 = CARTESIAN_POINT ( 'NONE',  ( 257.4556628232966800, 0.0000000000000000000, 1.219954918968818100E-015 ) ) ;
#296 = AXIS2_PLACEMENT_3D ( 'NONE', #188, #32, #83 ) ;
#297 = CARTESIAN_POINT ( 'NONE',  ( 264.0235116912943500, 3.673940397442056400E-016, -2.999999999999996400 ) ) ;
#298 = DIRECTION ( 'NONE',  ( 0.0000000000000000000, 0.0000000000000000000, -1.000000000000000000 ) ) ;
#299 = CARTESIAN_POINT ( 'NONE',  ( 267.3556628232967100, 0.0000000000000000000, 9.270830221817789500E-016 ) ) ;
#300 = DIRECTION ( 'NONE',  ( 0.0000000000000000000, -1.000000000000000000, 0.0000000000000000000 ) ) ;
#301 = ORIENTED_EDGE ( 'NONE', *, *, #347, .T. ) ;
#302 = FILL_AREA_STYLE_COLOUR ( '', #235 ) ;
#303 = ADVANCED_FACE ( 'NONE', ( #204 ), #159, .F. ) ;
#304 = CARTESIAN_POINT ( 'NONE',  ( 257.4556628232966800, 0.0000000000000000000, 1.219954918968818100E-015 ) ) ;
#305 = UNCERTAINTY_MEASURE_WITH_UNIT (LENGTH_MEASURE( 1.000000000000000100E-005 ), #2, 'distance_accuracy_value', 'NONE');
#306 = DIRECTION ( 'NONE',  ( 0.0000000000000000000, 1.000000000000000000, 0.0000000000000000000 ) ) ;
#307 = AXIS2_PLACEMENT_3D ( 'NONE', #149, #68, #228 ) ;
#308 = EDGE_CURVE ( 'NONE', #28, #53, #113, .T. ) ;
#309 = CIRCLE ( 'NONE', #86, 7.099999999999997900 ) ;
#310 = DIRECTION ( 'NONE',  ( -1.000000000000000000, -0.0000000000000000000, -0.0000000000000000000 ) ) ;
#311 = ADVANCED_FACE ( 'NONE', ( #215 ), #326, .T. ) ;
#312 = APPLICATION_PROTOCOL_DEFINITION ( 'draft international standard', 'automotive_design', 1998, #102 ) ;
#313 = SURFACE_SIDE_STYLE ('',( #227 ) ) ;
#314 = CYLINDRICAL_SURFACE ( 'NONE', #182, 2.999999999999998200 ) ;
#315 = AXIS2_PLACEMENT_3D ( 'NONE', #291, #286, #103 ) ;
#316 = AXIS2_PLACEMENT_3D ( 'NONE', #318, #294, #274 ) ;
#317 = ORIENTED_EDGE ( 'NONE', *, *, #253, .F. ) ;
#318 = CARTESIAN_POINT ( 'NONE',  ( 261.8248732782873800, 0.0000000000000000000, 0.0000000000000000000 ) ) ;
#319 = AXIS2_PLACEMENT_3D ( 'NONE', #233, #100, #258 ) ;
#320 = ORIENTED_EDGE ( 'NONE', *, *, #163, .T. ) ;
#321 = ORIENTED_EDGE ( 'NONE', *, *, #322, .F. ) ;
#322 = EDGE_CURVE ( 'NONE', #5, #170, #309, .T. ) ;
#323 = CYLINDRICAL_SURFACE ( 'NONE', #346, 3.000000000000000900 ) ;
#324 = DIRECTION ( 'NONE',  ( -1.000000000000000000, -0.0000000000000000000, -0.0000000000000000000 ) ) ;
#325 = FACE_OUTER_BOUND ( 'NONE', #192, .T. ) ;
#326 = SPHERICAL_SURFACE ( 'NONE', #104, 7.099999999999997900 ) ;
#327 = DIRECTION ( 'NONE',  ( -0.0000000000000000000, 1.000000000000000000, 1.224646799147353200E-016 ) ) ;
#328 = FILL_AREA_STYLE_COLOUR ( '', #164 ) ;
#329 = VECTOR ( 'NONE', #140, 1000.000000000000000 ) ;
#330 = SPHERICAL_SURFACE ( 'NONE', #10, 5.300000000000023800 ) ;
#331 = CARTESIAN_POINT ( 'NONE',  ( 257.4556628232966800, 0.0000000000000000000, 1.219954918968818100E-015 ) ) ;
#332 = DIRECTION ( 'NONE',  ( -1.000000000000000000, -0.0000000000000000000, -0.0000000000000000000 ) ) ;
#333 = ADVANCED_FACE ( 'NONE', ( #342 ), #268, .T. ) ;
#334 = CARTESIAN_POINT ( 'NONE',  ( 124.5233095260452400, 0.0000000000000000000, 0.0000000000000000000 ) ) ;
#335 = CIRCLE ( 'NONE', #251, 5.300000000000022000 ) ;
#336 = DIRECTION ( 'NONE',  ( 0.0000000000000000000, 0.0000000000000000000, 1.000000000000000000 ) ) ;
#337 = ORIENTED_EDGE ( 'NONE', *, *, #253, .T. ) ;
#338 = PRODUCT_DEFINITION ( 'Î´Öª', '', #7, #341 ) ;
#339 = AXIS2_PLACEMENT_3D ( 'NONE', #96, #327, #73 ) ;
#340 = DIRECTION ( 'NONE',  ( 0.0000000000000000000, 0.0000000000000000000, 1.000000000000000000 ) ) ;
#341 = PRODUCT_DEFINITION_CONTEXT ( 'detailed design', #77, 'design' ) ;
#342 = FACE_OUTER_BOUND ( 'NONE', #184, .T. ) ;
#343 = ORIENTED_EDGE ( 'NONE', *, *, #190, .F. ) ;
#344 = FACE_OUTER_BOUND ( 'NONE', #9, .T. ) ;
#345 = ORIENTED_EDGE ( 'NONE', *, *, #105, .T. ) ;
#346 = AXIS2_PLACEMENT_3D ( 'NONE', #334, #232, #340 ) ;
#347 = EDGE_CURVE ( 'NONE', #53, #28, #110, .T. ) ;
ENDSEC;
END-ISO-10303-21;
