ISO-10303-21;
HEADER;
FILE_DESCRIPTION (( 'STEP AP214' ),
    '1' );
FILE_NAME ('145118.STEP',
    '2019-05-31T03:29:46',
    ( 'user' ),
    ( 'Î¢ÈíÖÐ¹ú' ),
    'SwSTEP 2.0',
    'SolidWorks 2016',
    '' );
FILE_SCHEMA (( 'AUTOMOTIVE_DESIGN' ));
ENDSEC;

DATA;
#1 = ORIENTED_EDGE ( 'NONE', *, *, #256, .T. ) ;
#2 = DIRECTION ( 'NONE',  ( -1.000000000000000000, -0.0000000000000000000, -0.0000000000000000000 ) ) ;
#3 = DIRECTION ( 'NONE',  ( 0.0000000000000000000, -1.224646799147353200E-016, 1.000000000000000000 ) ) ;
#4 = FILL_AREA_STYLE_COLOUR ( '', #175 ) ;
#5 = FACE_OUTER_BOUND ( 'NONE', #275, .T. ) ;
#6 =( NAMED_UNIT ( * ) SI_UNIT ( $, .STERADIAN. ) SOLID_ANGLE_UNIT ( ) );
#7 = EDGE_CURVE ( 'NONE', #16, #22, #143, .T. ) ;
#8 = ORIENTED_EDGE ( 'NONE', *, *, #86, .T. ) ;
#9 = DIRECTION ( 'NONE',  ( 0.0000000000000000000, 0.0000000000000000000, 1.000000000000000000 ) ) ;
#10 = ADVANCED_FACE ( 'NONE', ( #121 ), #216, .T. ) ;
#11 = DIRECTION ( 'NONE',  ( 0.0000000000000000000, -1.000000000000000000, 0.0000000000000000000 ) ) ;
#12 = SURFACE_SIDE_STYLE ('',( #332 ) ) ;
#13 = FACE_OUTER_BOUND ( 'NONE', #213, .T. ) ;
#14 = CARTESIAN_POINT ( 'NONE',  ( 292.6852589061362600, 1.555301434917138600E-015, -12.69999999999999600 ) ) ;
#15 =( GEOMETRIC_REPRESENTATION_CONTEXT ( 3 ) GLOBAL_UNCERTAINTY_ASSIGNED_CONTEXT ( ( #235 ) ) GLOBAL_UNIT_ASSIGNED_CONTEXT ( ( #54, #248, #83 ) ) REPRESENTATION_CONTEXT ( 'NONE', 'WORKASPACE' ) );
#16 = VERTEX_POINT ( 'NONE', #266 ) ;
#17 = CARTESIAN_POINT ( 'NONE',  ( 317.5789865545651800, 0.0000000000000000000, 7.289186339953781700E-015 ) ) ;
#18 = AXIS2_PLACEMENT_3D ( 'NONE', #178, #207, #254 ) ;
#19 = ORIENTED_EDGE ( 'NONE', *, *, #57, .T. ) ;
#20 = EDGE_CURVE ( 'NONE', #230, #78, #29, .T. ) ;
#21 = FILL_AREA_STYLE_COLOUR ( '', #177 ) ;
#22 = VERTEX_POINT ( 'NONE', #98 ) ;
#23 = ORIENTED_EDGE ( 'NONE', *, *, #342, .F. ) ;
#24 = SURFACE_SIDE_STYLE ('',( #103 ) ) ;
#25 = FACE_OUTER_BOUND ( 'NONE', #271, .T. ) ;
#26 = AXIS2_PLACEMENT_3D ( 'NONE', #181, #168, #208 ) ;
#27 = EDGE_LOOP ( 'NONE', ( #209, #139, #329, #321 ) ) ;
#28 = FACE_OUTER_BOUND ( 'NONE', #27, .T. ) ;
#29 = CIRCLE ( 'NONE', #18, 27.05000000000006800 ) ;
#30 = PRESENTATION_STYLE_ASSIGNMENT (( #218 ) ) ;
#31 = ORIENTED_EDGE ( 'NONE', *, *, #125, .T. ) ;
#32 = DIRECTION ( 'NONE',  ( 0.0000000000000000000, 0.0000000000000000000, 1.000000000000000000 ) ) ;
#33 = CARTESIAN_POINT ( 'NONE',  ( 124.5233095260452400, 0.0000000000000000000, 12.70000000000000600 ) ) ;
#34 = MANIFOLD_SOLID_BREP ( 'Ðý×ª3', #306 ) ;
#35 = CARTESIAN_POINT ( 'NONE',  ( 293.3289865545652300, 0.0000000000000000000, 7.690781898645377100E-015 ) ) ;
#36 = ORIENTED_EDGE ( 'NONE', *, *, #198, .T. ) ;
#37 = ORIENTED_EDGE ( 'NONE', *, *, #236, .F. ) ;
#38 = CARTESIAN_POINT ( 'NONE',  ( 286.5256050961796700, -1.555301434917139000E-015, 12.70000000000001200 ) ) ;
#39 = CIRCLE ( 'NONE', #71, 27.05000000000006800 ) ;
#40 = EDGE_CURVE ( 'NONE', #151, #205, #197, .T. ) ;
#41 = ADVANCED_FACE ( 'NONE', ( #5 ), #252, .T. ) ;
#42 = CARTESIAN_POINT ( 'NONE',  ( 264.4789865545651500, 0.0000000000000000000, 6.938893903907228400E-015 ) ) ;
#43 = VERTEX_POINT ( 'NONE', #58 ) ;
#44 = FILL_AREA_STYLE_COLOUR ( '', #187 ) ;
#45 = ADVANCED_BREP_SHAPE_REPRESENTATION ( '145118', ( #70, #34, #76 ), #284 ) ;
#46 = LINE ( 'NONE', #33, #343 ) ;
#47 = AXIS2_PLACEMENT_3D ( 'NONE', #101, #296, #128 ) ;
#48 = ORIENTED_EDGE ( 'NONE', *, *, #20, .T. ) ;
#49 = AXIS2_PLACEMENT_3D ( 'NONE', #120, #93, #64 ) ;
#50 = SPHERICAL_SURFACE ( 'NONE', #26, 27.05000000000007200 ) ;
#51 = DIRECTION ( 'NONE',  ( -1.000000000000000000, -0.0000000000000000000, -0.0000000000000000000 ) ) ;
#52 = DIRECTION ( 'NONE',  ( -1.000000000000000000, -0.0000000000000000000, -0.0000000000000000000 ) ) ;
#53 = AXIS2_PLACEMENT_3D ( 'NONE', #331, #11, #206 ) ;
#54 =( LENGTH_UNIT ( ) NAMED_UNIT ( * ) SI_UNIT ( .MILLI., .METRE. ) );
#55 = ORIENTED_EDGE ( 'NONE', *, *, #137, .F. ) ;
#56 = SPHERICAL_SURFACE ( 'NONE', #253, 125.5999999999999900 ) ;
#57 = EDGE_CURVE ( 'NONE', #78, #163, #46, .T. ) ;
#58 = CARTESIAN_POINT ( 'NONE',  ( 291.5289865545652200, 0.0000000000000000000, 8.595228699754028500E-015 ) ) ;
#59 = CYLINDRICAL_SURFACE ( 'NONE', #228, 12.70000000000000500 ) ;
#60 =( NAMED_UNIT ( * ) SI_UNIT ( $, .STERADIAN. ) SOLID_ANGLE_UNIT ( ) );
#61 = ORIENTED_EDGE ( 'NONE', *, *, #338, .F. ) ;
#62 = AXIS2_PLACEMENT_3D ( 'NONE', #75, #269, #100 ) ;
#63 = DIRECTION ( 'NONE',  ( 0.0000000000000000000, 0.0000000000000000000, -1.000000000000000000 ) ) ;
#64 = DIRECTION ( 'NONE',  ( 0.0000000000000000000, -1.224646799147353200E-016, 1.000000000000000000 ) ) ;
#65 = ORIENTED_EDGE ( 'NONE', *, *, #142, .F. ) ;
#66 = ADVANCED_FACE ( 'NONE', ( #69 ), #285, .T. ) ;
#67 = CARTESIAN_POINT ( 'NONE',  ( 292.6852589061362600, 0.0000000000000000000, 0.0000000000000000000 ) ) ;
#68 = EDGE_LOOP ( 'NONE', ( #65, #31, #55 ) ) ;
#69 = FACE_OUTER_BOUND ( 'NONE', #132, .T. ) ;
#70 = MANIFOLD_SOLID_BREP ( 'Ðý×ª1', #299 ) ;
#71 = AXIS2_PLACEMENT_3D ( 'NONE', #114, #279, #255 ) ;
#72 = FACE_OUTER_BOUND ( 'NONE', #258, .T. ) ;
#73 = CIRCLE ( 'NONE', #131, 12.70000000000000800 ) ;
#74 = CARTESIAN_POINT ( 'NONE',  ( -0.5519199926577972300, 0.0000000000000000000, 0.0000000000000000000 ) ) ;
#75 = CARTESIAN_POINT ( 'NONE',  ( 317.5789865545651800, 0.0000000000000000000, 7.289186339953781700E-015 ) ) ;
#76 = AXIS2_PLACEMENT_3D ( 'NONE', #108, #300, #130 ) ;
#77 = ORIENTED_EDGE ( 'NONE', *, *, #113, .F. ) ;
#78 = VERTEX_POINT ( 'NONE', #323 ) ;
#79 = CARTESIAN_POINT ( 'NONE',  ( 288.3622966266636900, 0.0000000000000000000, 0.0000000000000000000 ) ) ;
#80 = CARTESIAN_POINT ( 'NONE',  ( 286.5256050961796700, 0.0000000000000000000, 0.0000000000000000000 ) ) ;
#81 = PRODUCT_RELATED_PRODUCT_CATEGORY ( 'part', '', ( #320 ) ) ;
#82 = EDGE_LOOP ( 'NONE', ( #304, #48, #240 ) ) ;
#83 =( NAMED_UNIT ( * ) SI_UNIT ( $, .STERADIAN. ) SOLID_ANGLE_UNIT ( ) );
#84 = AXIS2_PLACEMENT_3D ( 'NONE', #292, #237, #96 ) ;
#85 = VECTOR ( 'NONE', #324, 1000.000000000000000 ) ;
#86 = EDGE_CURVE ( 'NONE', #230, #151, #39, .T. ) ;
#87 = ORIENTED_EDGE ( 'NONE', *, *, #169, .T. ) ;
#88 = CARTESIAN_POINT ( 'NONE',  ( 124.5233095260452400, 0.0000000000000000000, 0.0000000000000000000 ) ) ;
#89 = AXIS2_PLACEMENT_3D ( 'NONE', #199, #229, #286 ) ;
#90 = VERTEX_POINT ( 'NONE', #116 ) ;
#91 =( LENGTH_UNIT ( ) NAMED_UNIT ( * ) SI_UNIT ( .MILLI., .METRE. ) );
#92 = DIRECTION ( 'NONE',  ( 0.0000000000000000000, 1.000000000000000000, 0.0000000000000000000 ) ) ;
#93 = DIRECTION ( 'NONE',  ( -0.0000000000000000000, 1.000000000000000000, 1.224646799147353200E-016 ) ) ;
#94 = PRODUCT_DEFINITION ( 'Î´Öª', '', #111, #322 ) ;
#95 = DIRECTION ( 'NONE',  ( 0.0000000000000000000, 0.0000000000000000000, 1.000000000000000000 ) ) ;
#96 = DIRECTION ( 'NONE',  ( 0.0000000000000000000, 0.0000000000000000000, 1.000000000000000000 ) ) ;
#97 = AXIS2_PLACEMENT_3D ( 'NONE', #212, #51, #241 ) ;
#98 = CARTESIAN_POINT ( 'NONE',  ( 288.3622966266636900, 0.0000000000000000000, 12.70000000000001500 ) ) ;
#99 = ORIENTED_EDGE ( 'NONE', *, *, #274, .T. ) ;
#100 = DIRECTION ( 'NONE',  ( 0.0000000000000000000, 1.224646799147353200E-016, -1.000000000000000000 ) ) ;
#101 = CARTESIAN_POINT ( 'NONE',  ( 264.4789865545651500, 0.0000000000000000000, 6.938893903907228400E-015 ) ) ;
#102 = DIRECTION ( 'NONE',  ( 0.0000000000000000000, 0.0000000000000000000, 1.000000000000000000 ) ) ;
#103 = SURFACE_STYLE_FILL_AREA ( #188 ) ;
#104 = DIRECTION ( 'NONE',  ( 0.0000000000000000000, 0.0000000000000000000, 1.000000000000000000 ) ) ;
#105 = EDGE_LOOP ( 'NONE', ( #77, #316, #309, #250 ) ) ;
#106 =( NAMED_UNIT ( * ) PLANE_ANGLE_UNIT ( ) SI_UNIT ( $, .RADIAN. ) );
#107 = AXIS2_PLACEMENT_3D ( 'NONE', #265, #293, #127 ) ;
#108 = CARTESIAN_POINT ( 'NONE',  ( 0.0000000000000000000, 0.0000000000000000000, 0.0000000000000000000 ) ) ;
#109 = CIRCLE ( 'NONE', #97, 12.70000000000000800 ) ;
#110 = ORIENTED_EDGE ( 'NONE', *, *, #259, .T. ) ;
#111 = PRODUCT_DEFINITION_FORMATION_WITH_SPECIFIED_SOURCE ( 'ÈÎºÎ', '', #320, .NOT_KNOWN. ) ;
#112 = CIRCLE ( 'NONE', #267, 12.70000000000001400 ) ;
#113 = EDGE_CURVE ( 'NONE', #220, #90, #165, .T. ) ;
#114 = CARTESIAN_POINT ( 'NONE',  ( 264.4789865545651500, 0.0000000000000000000, 6.938893903907228400E-015 ) ) ;
#115 = CIRCLE ( 'NONE', #49, 27.05000000000007200 ) ;
#116 = CARTESIAN_POINT ( 'NONE',  ( 288.3622966266636900, 1.555301434917140400E-015, -12.70000000000000800 ) ) ;
#117 = SURFACE_SIDE_STYLE ('',( #276 ) ) ;
#118 = AXIS2_PLACEMENT_3D ( 'NONE', #74, #183, #239 ) ;
#119 = DIRECTION ( 'NONE',  ( -0.0000000000000000000, -1.000000000000000000, -0.0000000000000000000 ) ) ;
#120 = CARTESIAN_POINT ( 'NONE',  ( 264.4789865545651500, 0.0000000000000000000, 6.938893903907228400E-015 ) ) ;
#121 = FACE_OUTER_BOUND ( 'NONE', #182, .T. ) ;
#122 = CARTESIAN_POINT ( 'NONE',  ( 288.3622966266636900, 1.555301434917139600E-015, -12.70000000000001000 ) ) ;
#123 = ADVANCED_FACE ( 'NONE', ( #313 ), #56, .T. ) ;
#124 = DIRECTION ( 'NONE',  ( -1.000000000000000000, -0.0000000000000000000, -0.0000000000000000000 ) ) ;
#125 = EDGE_CURVE ( 'NONE', #185, #16, #167, .T. ) ;
#126 = DIRECTION ( 'NONE',  ( 0.0000000000000000000, 0.0000000000000000000, 1.000000000000000000 ) ) ;
#127 = DIRECTION ( 'NONE',  ( 0.0000000000000000000, 0.0000000000000000000, 1.000000000000000000 ) ) ;
#128 = DIRECTION ( 'NONE',  ( 0.0000000000000000000, 0.0000000000000000000, -1.000000000000000000 ) ) ;
#129 = ORIENTED_EDGE ( 'NONE', *, *, #7, .F. ) ;
#130 = DIRECTION ( 'NONE',  ( 1.000000000000000000, 0.0000000000000000000, 0.0000000000000000000 ) ) ;
#131 = AXIS2_PLACEMENT_3D ( 'NONE', #310, #147, #154 ) ;
#132 = EDGE_LOOP ( 'NONE', ( #277, #8, #37 ) ) ;
#133 = EDGE_CURVE ( 'NONE', #205, #345, #268, .T. ) ;
#134 = CIRCLE ( 'NONE', #148, 12.70000000000001400 ) ;
#135 =( GEOMETRIC_REPRESENTATION_CONTEXT ( 3 ) GLOBAL_UNCERTAINTY_ASSIGNED_CONTEXT ( ( #224 ) ) GLOBAL_UNIT_ASSIGNED_CONTEXT ( ( #91, #226, #60 ) ) REPRESENTATION_CONTEXT ( 'NONE', 'WORKASPACE' ) );
#136 = DIRECTION ( 'NONE',  ( 0.0000000000000000000, 0.0000000000000000000, 1.000000000000000000 ) ) ;
#137 = EDGE_CURVE ( 'NONE', #220, #16, #297, .T. ) ;
#138 = CARTESIAN_POINT ( 'NONE',  ( 167.7289865545652400, 0.0000000000000000000, 0.0000000000000000000 ) ) ;
#139 = ORIENTED_EDGE ( 'NONE', *, *, #40, .T. ) ;
#140 = ADVANCED_FACE ( 'NONE', ( #243 ), #289, .T. ) ;
#141 = DIRECTION ( 'NONE',  ( 0.0000000000000000000, 0.0000000000000000000, 1.000000000000000000 ) ) ;
#142 = EDGE_CURVE ( 'NONE', #185, #220, #261, .T. ) ;
#143 = LINE ( 'NONE', #290, #155 ) ;
#144 = CIRCLE ( 'NONE', #249, 12.69999999999999600 ) ;
#145 = SURFACE_STYLE_USAGE ( .BOTH. , #12 ) ;
#146 = DIRECTION ( 'NONE',  ( -1.000000000000000000, -0.0000000000000000000, -0.0000000000000000000 ) ) ;
#147 = DIRECTION ( 'NONE',  ( -1.000000000000000000, -0.0000000000000000000, -0.0000000000000000000 ) ) ;
#148 = AXIS2_PLACEMENT_3D ( 'NONE', #79, #270, #102 ) ;
#149 = SPHERICAL_SURFACE ( 'NONE', #190, 27.05000000000007200 ) ;
#150 = CARTESIAN_POINT ( 'NONE',  ( 291.5289865545652200, 0.0000000000000000000, 8.595228699754028500E-015 ) ) ;
#151 = VERTEX_POINT ( 'NONE', #122 ) ;
#152 = MECHANICAL_DESIGN_GEOMETRIC_PRESENTATION_REPRESENTATION (  '', ( #219 ), #328 ) ;
#153 = ORIENTED_EDGE ( 'NONE', *, *, #40, .F. ) ;
#154 = DIRECTION ( 'NONE',  ( 0.0000000000000000000, 0.0000000000000000000, 1.000000000000000000 ) ) ;
#155 = VECTOR ( 'NONE', #124, 1000.000000000000000 ) ;
#156 = FACE_OUTER_BOUND ( 'NONE', #105, .T. ) ;
#157 = UNCERTAINTY_MEASURE_WITH_UNIT (LENGTH_MEASURE( 1.000000000000000100E-005 ), #333, 'distance_accuracy_value', 'NONE');
#158 = SPHERICAL_SURFACE ( 'NONE', #172, 33.54999999999999700 ) ;
#159 = DIRECTION ( 'NONE',  ( -1.000000000000000000, -0.0000000000000000000, -0.0000000000000000000 ) ) ;
#160 = EDGE_LOOP ( 'NONE', ( #311, #189, #23, #129 ) ) ;
#161 = AXIS2_PLACEMENT_3D ( 'NONE', #138, #327, #3 ) ;
#162 = APPLICATION_CONTEXT ( 'automotive_design' ) ;
#163 = VERTEX_POINT ( 'NONE', #38 ) ;
#164 = FACE_OUTER_BOUND ( 'NONE', #281, .T. ) ;
#165 = LINE ( 'NONE', #280, #308 ) ;
#166 = AXIS2_PLACEMENT_3D ( 'NONE', #88, #146, #141 ) ;
#167 = CIRCLE ( 'NONE', #53, 125.5999999999999900 ) ;
#168 = DIRECTION ( 'NONE',  ( 0.0000000000000000000, 1.000000000000000000, 0.0000000000000000000 ) ) ;
#169 = EDGE_CURVE ( 'NONE', #43, #90, #115, .T. ) ;
#170 = UNCERTAINTY_MEASURE_WITH_UNIT (LENGTH_MEASURE( 1.000000000000000100E-005 ), #273, 'distance_accuracy_value', 'NONE');
#171 = DIRECTION ( 'NONE',  ( 0.0000000000000000000, 1.000000000000000000, 0.0000000000000000000 ) ) ;
#172 = AXIS2_PLACEMENT_3D ( 'NONE', #17, #211, #339 ) ;
#173 =( NAMED_UNIT ( * ) PLANE_ANGLE_UNIT ( ) SI_UNIT ( $, .RADIAN. ) );
#174 = DIRECTION ( 'NONE',  ( 0.0000000000000000000, 1.000000000000000000, -0.0000000000000000000 ) ) ;
#175 = COLOUR_RGB ( '',1.000000000000000000, 1.000000000000000000, 1.000000000000000000 ) ;
#176 = ADVANCED_FACE ( 'NONE', ( #72 ), #223, .T. ) ;
#177 = COLOUR_RGB ( '',1.000000000000000000, 1.000000000000000000, 1.000000000000000000 ) ;
#178 = CARTESIAN_POINT ( 'NONE',  ( 264.4789865545651500, 0.0000000000000000000, 6.938893903907228400E-015 ) ) ;
#179 = FACE_OUTER_BOUND ( 'NONE', #160, .T. ) ;
#180 = PRESENTATION_LAYER_ASSIGNMENT (  '', '', ( #291 ) ) ;
#181 = CARTESIAN_POINT ( 'NONE',  ( 264.4789865545651500, 0.0000000000000000000, 6.938893903907228400E-015 ) ) ;
#182 = EDGE_LOOP ( 'NONE', ( #153, #110, #19, #204 ) ) ;
#183 = DIRECTION ( 'NONE',  ( -1.000000000000000000, -0.0000000000000000000, -0.0000000000000000000 ) ) ;
#184 = DIRECTION ( 'NONE',  ( -1.000000000000000000, -0.0000000000000000000, -0.0000000000000000000 ) ) ;
#185 = VERTEX_POINT ( 'NONE', #35 ) ;
#186 = ADVANCED_FACE ( 'NONE', ( #25 ), #50, .F. ) ;
#187 = COLOUR_RGB ( '',1.000000000000000000, 1.000000000000000000, 1.000000000000000000 ) ;
#188 = FILL_AREA_STYLE ('',( #21 ) ) ;
#189 = ORIENTED_EDGE ( 'NONE', *, *, #113, .T. ) ;
#190 = AXIS2_PLACEMENT_3D ( 'NONE', #315, #340, #126 ) ;
#191 = PRESENTATION_STYLE_ASSIGNMENT (( #257 ) ) ;
#192 = CIRCLE ( 'NONE', #62, 33.54999999999999700 ) ;
#193 = ORIENTED_EDGE ( 'NONE', *, *, #142, .T. ) ;
#194 = CARTESIAN_POINT ( 'NONE',  ( 167.7289865545652400, 0.0000000000000000000, 0.0000000000000000000 ) ) ;
#195 = MECHANICAL_DESIGN_GEOMETRIC_PRESENTATION_REPRESENTATION (  '', ( #291 ), #135 ) ;
#196 = DIRECTION ( 'NONE',  ( -1.000000000000000000, -0.0000000000000000000, -0.0000000000000000000 ) ) ;
#197 = LINE ( 'NONE', #233, #85 ) ;
#198 = EDGE_CURVE ( 'NONE', #205, #163, #326, .T. ) ;
#199 = CARTESIAN_POINT ( 'NONE',  ( 167.7289865545652400, 0.0000000000000000000, 0.0000000000000000000 ) ) ;
#200 = PRESENTATION_STYLE_ASSIGNMENT (( #145 ) ) ;
#201 = CARTESIAN_POINT ( 'NONE',  ( 317.5789865545651800, 0.0000000000000000000, 7.289186339953781700E-015 ) ) ;
#202 = ADVANCED_FACE ( 'NONE', ( #28 ), #238, .T. ) ;
#203 = DIRECTION ( 'NONE',  ( 0.0000000000000000000, 1.000000000000000000, 0.0000000000000000000 ) ) ;
#204 = ORIENTED_EDGE ( 'NONE', *, *, #198, .F. ) ;
#205 = VERTEX_POINT ( 'NONE', #337 ) ;
#206 = DIRECTION ( 'NONE',  ( 0.0000000000000000000, 0.0000000000000000000, -1.000000000000000000 ) ) ;
#207 = DIRECTION ( 'NONE',  ( 0.0000000000000000000, -1.000000000000000000, 0.0000000000000000000 ) ) ;
#208 = DIRECTION ( 'NONE',  ( 0.0000000000000000000, 0.0000000000000000000, 1.000000000000000000 ) ) ;
#209 = ORIENTED_EDGE ( 'NONE', *, *, #236, .T. ) ;
#210 = AXIS2_PLACEMENT_3D ( 'NONE', #80, #272, #104 ) ;
#211 = DIRECTION ( 'NONE',  ( -0.0000000000000000000, -1.000000000000000000, -0.0000000000000000000 ) ) ;
#212 = CARTESIAN_POINT ( 'NONE',  ( 288.3622966266636900, 0.0000000000000000000, 0.0000000000000000000 ) ) ;
#213 = EDGE_LOOP ( 'NONE', ( #295, #301, #225 ) ) ;
#214 = CARTESIAN_POINT ( 'NONE',  ( -0.5519199926577972300, 0.0000000000000000000, 0.0000000000000000000 ) ) ;
#215 = CARTESIAN_POINT ( 'NONE',  ( 284.0289865545652200, 0.0000000000000000000, 5.234841334384097100E-015 ) ) ;
#216 = CYLINDRICAL_SURFACE ( 'NONE', #166, 12.70000000000000600 ) ;
#217 = CARTESIAN_POINT ( 'NONE',  ( 288.3622966266636900, 0.0000000000000000000, 0.0000000000000000000 ) ) ;
#218 = SURFACE_STYLE_USAGE ( .BOTH. , #24 ) ;
#219 = STYLED_ITEM ( 'NONE', ( #200 ), #34 ) ;
#220 = VERTEX_POINT ( 'NONE', #14 ) ;
#221 = EDGE_CURVE ( 'NONE', #163, #345, #192, .T. ) ;
#222 = CIRCLE ( 'NONE', #47, 27.05000000000007200 ) ;
#223 = SPHERICAL_SURFACE ( 'NONE', #89, 125.5999999999999900 ) ;
#224 = UNCERTAINTY_MEASURE_WITH_UNIT (LENGTH_MEASURE( 1.000000000000000100E-005 ), #91, 'distance_accuracy_value', 'NONE');
#225 = ORIENTED_EDGE ( 'NONE', *, *, #133, .T. ) ;
#226 =( NAMED_UNIT ( * ) PLANE_ANGLE_UNIT ( ) SI_UNIT ( $, .RADIAN. ) );
#227 = CARTESIAN_POINT ( 'NONE',  ( 264.4789865545651500, 0.0000000000000000000, 6.938893903907228400E-015 ) ) ;
#228 = AXIS2_PLACEMENT_3D ( 'NONE', #214, #184, #242 ) ;
#229 = DIRECTION ( 'NONE',  ( 0.0000000000000000000, 1.000000000000000000, 0.0000000000000000000 ) ) ;
#230 = VERTEX_POINT ( 'NONE', #150 ) ;
#231 = DIRECTION ( 'NONE',  ( -1.000000000000000000, -0.0000000000000000000, -0.0000000000000000000 ) ) ;
#232 = ADVANCED_FACE ( 'NONE', ( #179 ), #244, .T. ) ;
#233 = CARTESIAN_POINT ( 'NONE',  ( 124.5233095260452400, 1.555301434917139200E-015, -12.70000000000000600 ) ) ;
#234 = ORIENTED_EDGE ( 'NONE', *, *, #133, .F. ) ;
#235 = UNCERTAINTY_MEASURE_WITH_UNIT (LENGTH_MEASURE( 1.000000000000000100E-005 ), #54, 'distance_accuracy_value', 'NONE');
#236 = EDGE_CURVE ( 'NONE', #78, #151, #109, .T. ) ;
#237 = DIRECTION ( 'NONE',  ( -1.000000000000000000, -0.0000000000000000000, -0.0000000000000000000 ) ) ;
#238 = CYLINDRICAL_SURFACE ( 'NONE', #84, 12.70000000000000600 ) ;
#239 = DIRECTION ( 'NONE',  ( 0.0000000000000000000, 0.0000000000000000000, 1.000000000000000000 ) ) ;
#240 = ORIENTED_EDGE ( 'NONE', *, *, #259, .F. ) ;
#241 = DIRECTION ( 'NONE',  ( 0.0000000000000000000, 0.0000000000000000000, 1.000000000000000000 ) ) ;
#242 = DIRECTION ( 'NONE',  ( 0.0000000000000000000, 0.0000000000000000000, 1.000000000000000000 ) ) ;
#243 = FACE_OUTER_BOUND ( 'NONE', #82, .T. ) ;
#244 = CYLINDRICAL_SURFACE ( 'NONE', #118, 12.70000000000000500 ) ;
#245 = AXIS2_PLACEMENT_3D ( 'NONE', #201, #174, #9 ) ;
#246 = ORIENTED_EDGE ( 'NONE', *, *, #221, .T. ) ;
#247 = DIRECTION ( 'NONE',  ( 0.0000000000000000000, 0.0000000000000000000, 1.000000000000000000 ) ) ;
#248 =( NAMED_UNIT ( * ) PLANE_ANGLE_UNIT ( ) SI_UNIT ( $, .RADIAN. ) );
#249 = AXIS2_PLACEMENT_3D ( 'NONE', #317, #159, #341 ) ;
#250 = ORIENTED_EDGE ( 'NONE', *, *, #274, .F. ) ;
#251 = ORIENTED_EDGE ( 'NONE', *, *, #125, .F. ) ;
#252 = SPHERICAL_SURFACE ( 'NONE', #334, 33.54999999999999700 ) ;
#253 = AXIS2_PLACEMENT_3D ( 'NONE', #194, #171, #32 ) ;
#254 = DIRECTION ( 'NONE',  ( 0.0000000000000000000, 0.0000000000000000000, -1.000000000000000000 ) ) ;
#255 = DIRECTION ( 'NONE',  ( 0.0000000000000000000, -1.224646799147353200E-016, 1.000000000000000000 ) ) ;
#256 = EDGE_CURVE ( 'NONE', #43, #22, #222, .T. ) ;
#257 = SURFACE_STYLE_USAGE ( .BOTH. , #117 ) ;
#258 = EDGE_LOOP ( 'NONE', ( #251, #193, #61 ) ) ;
#259 = EDGE_CURVE ( 'NONE', #151, #78, #73, .T. ) ;
#260 = DIRECTION ( 'NONE',  ( 0.0000000000000000000, 0.0000000000000000000, 1.000000000000000000 ) ) ;
#261 = CIRCLE ( 'NONE', #161, 125.5999999999999900 ) ;
#262 = ADVANCED_FACE ( 'NONE', ( #13 ), #158, .T. ) ;
#263 = AXIS2_PLACEMENT_3D ( 'NONE', #42, #203, #260 ) ;
#264 = FILL_AREA_STYLE ('',( #44 ) ) ;
#265 = CARTESIAN_POINT ( 'NONE',  ( 286.5256050961796700, 0.0000000000000000000, 0.0000000000000000000 ) ) ;
#266 = CARTESIAN_POINT ( 'NONE',  ( 292.6852589061362600, 0.0000000000000000000, 12.69999999999999600 ) ) ;
#267 = AXIS2_PLACEMENT_3D ( 'NONE', #217, #52, #247 ) ;
#268 = CIRCLE ( 'NONE', #245, 33.54999999999999700 ) ;
#269 = DIRECTION ( 'NONE',  ( 0.0000000000000000000, -1.000000000000000000, -1.224646799147353200E-016 ) ) ;
#270 = DIRECTION ( 'NONE',  ( -1.000000000000000000, -0.0000000000000000000, -0.0000000000000000000 ) ) ;
#271 = EDGE_LOOP ( 'NONE', ( #303, #1, #335 ) ) ;
#272 = DIRECTION ( 'NONE',  ( -1.000000000000000000, -0.0000000000000000000, -0.0000000000000000000 ) ) ;
#273 =( LENGTH_UNIT ( ) NAMED_UNIT ( * ) SI_UNIT ( .MILLI., .METRE. ) );
#274 = EDGE_CURVE ( 'NONE', #90, #22, #134, .T. ) ;
#275 = EDGE_LOOP ( 'NONE', ( #36, #246, #234 ) ) ;
#276 = SURFACE_STYLE_FILL_AREA ( #282 ) ;
#277 = ORIENTED_EDGE ( 'NONE', *, *, #20, .F. ) ;
#278 = AXIS2_PLACEMENT_3D ( 'NONE', #67, #231, #95 ) ;
#279 = DIRECTION ( 'NONE',  ( -0.0000000000000000000, 1.000000000000000000, 1.224646799147353200E-016 ) ) ;
#280 = CARTESIAN_POINT ( 'NONE',  ( -0.5519199926577972300, 1.555301434917139000E-015, -12.70000000000000500 ) ) ;
#281 = EDGE_LOOP ( 'NONE', ( #302, #87, #99 ) ) ;
#282 = FILL_AREA_STYLE ('',( #4 ) ) ;
#283 = CARTESIAN_POINT ( 'NONE',  ( 317.5789865545651800, 0.0000000000000000000, 7.289186339953781700E-015 ) ) ;
#284 =( GEOMETRIC_REPRESENTATION_CONTEXT ( 3 ) GLOBAL_UNCERTAINTY_ASSIGNED_CONTEXT ( ( #170 ) ) GLOBAL_UNIT_ASSIGNED_CONTEXT ( ( #273, #106, #298 ) ) REPRESENTATION_CONTEXT ( 'NONE', 'WORKASPACE' ) );
#285 = SPHERICAL_SURFACE ( 'NONE', #305, 27.05000000000006800 ) ;
#286 = DIRECTION ( 'NONE',  ( 0.0000000000000000000, 0.0000000000000000000, 1.000000000000000000 ) ) ;
#287 = PRESENTATION_LAYER_ASSIGNMENT (  '', '', ( #219 ) ) ;
#288 = ADVANCED_FACE ( 'NONE', ( #156 ), #59, .T. ) ;
#289 = SPHERICAL_SURFACE ( 'NONE', #263, 27.05000000000006800 ) ;
#290 = CARTESIAN_POINT ( 'NONE',  ( -0.5519199926577972300, 0.0000000000000000000, 12.70000000000000500 ) ) ;
#291 = STYLED_ITEM ( 'NONE', ( #191 ), #70 ) ;
#292 = CARTESIAN_POINT ( 'NONE',  ( 124.5233095260452400, 0.0000000000000000000, 0.0000000000000000000 ) ) ;
#293 = DIRECTION ( 'NONE',  ( -1.000000000000000000, -0.0000000000000000000, -0.0000000000000000000 ) ) ;
#294 = CIRCLE ( 'NONE', #210, 12.70000000000000600 ) ;
#295 = ORIENTED_EDGE ( 'NONE', *, *, #221, .F. ) ;
#296 = DIRECTION ( 'NONE',  ( 0.0000000000000000000, -1.000000000000000000, 0.0000000000000000000 ) ) ;
#297 = CIRCLE ( 'NONE', #278, 12.69999999999999600 ) ;
#298 =( NAMED_UNIT ( * ) SI_UNIT ( $, .STERADIAN. ) SOLID_ANGLE_UNIT ( ) );
#299 = CLOSED_SHELL ( 'NONE', ( #66, #202, #41, #262, #10, #140 ) ) ;
#300 = DIRECTION ( 'NONE',  ( 0.0000000000000000000, 0.0000000000000000000, 1.000000000000000000 ) ) ;
#301 = ORIENTED_EDGE ( 'NONE', *, *, #314, .T. ) ;
#302 = ORIENTED_EDGE ( 'NONE', *, *, #256, .F. ) ;
#303 = ORIENTED_EDGE ( 'NONE', *, *, #169, .F. ) ;
#304 = ORIENTED_EDGE ( 'NONE', *, *, #86, .F. ) ;
#305 = AXIS2_PLACEMENT_3D ( 'NONE', #227, #92, #136 ) ;
#306 = CLOSED_SHELL ( 'NONE', ( #176, #232, #307, #186, #288, #123 ) ) ;
#307 = ADVANCED_FACE ( 'NONE', ( #164 ), #149, .F. ) ;
#308 = VECTOR ( 'NONE', #2, 1000.000000000000000 ) ;
#309 = ORIENTED_EDGE ( 'NONE', *, *, #7, .T. ) ;
#310 = CARTESIAN_POINT ( 'NONE',  ( 288.3622966266636900, 0.0000000000000000000, 0.0000000000000000000 ) ) ;
#311 = ORIENTED_EDGE ( 'NONE', *, *, #338, .T. ) ;
#312 = STYLED_ITEM ( 'NONE', ( #30 ), #45 ) ;
#313 = FACE_OUTER_BOUND ( 'NONE', #68, .T. ) ;
#314 = EDGE_CURVE ( 'NONE', #163, #205, #294, .T. ) ;
#315 = CARTESIAN_POINT ( 'NONE',  ( 264.4789865545651500, 0.0000000000000000000, 6.938893903907228400E-015 ) ) ;
#316 = ORIENTED_EDGE ( 'NONE', *, *, #137, .T. ) ;
#317 = CARTESIAN_POINT ( 'NONE',  ( 292.6852589061362600, 0.0000000000000000000, 0.0000000000000000000 ) ) ;
#318 = APPLICATION_PROTOCOL_DEFINITION ( 'draft international standard', 'automotive_design', 1998, #344 ) ;
#319 = PRODUCT_CONTEXT ( 'NONE', #344, 'mechanical' ) ;
#320 = PRODUCT ( '145118', '145118', '', ( #319 ) ) ;
#321 = ORIENTED_EDGE ( 'NONE', *, *, #57, .F. ) ;
#322 = PRODUCT_DEFINITION_CONTEXT ( 'detailed design', #162, 'design' ) ;
#323 = CARTESIAN_POINT ( 'NONE',  ( 288.3622966266636900, 0.0000000000000000000, 12.70000000000000800 ) ) ;
#324 = DIRECTION ( 'NONE',  ( -1.000000000000000000, -0.0000000000000000000, -0.0000000000000000000 ) ) ;
#325 = PRESENTATION_LAYER_ASSIGNMENT (  '', '', ( #312 ) ) ;
#326 = CIRCLE ( 'NONE', #107, 12.70000000000000600 ) ;
#327 = DIRECTION ( 'NONE',  ( -0.0000000000000000000, 1.000000000000000000, 1.224646799147353200E-016 ) ) ;
#328 =( GEOMETRIC_REPRESENTATION_CONTEXT ( 3 ) GLOBAL_UNCERTAINTY_ASSIGNED_CONTEXT ( ( #157 ) ) GLOBAL_UNIT_ASSIGNED_CONTEXT ( ( #333, #173, #6 ) ) REPRESENTATION_CONTEXT ( 'NONE', 'WORKASPACE' ) );
#329 = ORIENTED_EDGE ( 'NONE', *, *, #314, .F. ) ;
#330 = PRODUCT_DEFINITION_SHAPE ( 'NONE', 'NONE',  #94 ) ;
#331 = CARTESIAN_POINT ( 'NONE',  ( 167.7289865545652400, 0.0000000000000000000, 0.0000000000000000000 ) ) ;
#332 = SURFACE_STYLE_FILL_AREA ( #264 ) ;
#333 =( LENGTH_UNIT ( ) NAMED_UNIT ( * ) SI_UNIT ( .MILLI., .METRE. ) );
#334 = AXIS2_PLACEMENT_3D ( 'NONE', #283, #119, #63 ) ;
#335 = ORIENTED_EDGE ( 'NONE', *, *, #342, .T. ) ;
#336 = SHAPE_DEFINITION_REPRESENTATION ( #330, #45 ) ;
#337 = CARTESIAN_POINT ( 'NONE',  ( 286.5256050961796700, 0.0000000000000000000, -12.70000000000000500 ) ) ;
#338 = EDGE_CURVE ( 'NONE', #16, #220, #144, .T. ) ;
#339 = DIRECTION ( 'NONE',  ( 0.0000000000000000000, 0.0000000000000000000, -1.000000000000000000 ) ) ;
#340 = DIRECTION ( 'NONE',  ( 0.0000000000000000000, 1.000000000000000000, 0.0000000000000000000 ) ) ;
#341 = DIRECTION ( 'NONE',  ( 0.0000000000000000000, 0.0000000000000000000, 1.000000000000000000 ) ) ;
#342 = EDGE_CURVE ( 'NONE', #22, #90, #112, .T. ) ;
#343 = VECTOR ( 'NONE', #196, 1000.000000000000000 ) ;
#344 = APPLICATION_CONTEXT ( 'automotive_design' ) ;
#345 = VERTEX_POINT ( 'NONE', #215 ) ;
#346 = APPLICATION_PROTOCOL_DEFINITION ( 'draft international standard', 'automotive_design', 1998, #162 ) ;
#347 = MECHANICAL_DESIGN_GEOMETRIC_PRESENTATION_REPRESENTATION (  '', ( #312 ), #15 ) ;
ENDSEC;
END-ISO-10303-21;
