ISO-10303-21;
HEADER;
FILE_DESCRIPTION (( 'STEP AP214' ),
    '1' );
FILE_NAME ('145121.STEP',
    '2019-06-03T02:49:48',
    ( 'user' ),
    ( 'Î¢ÈíÖÐ¹ú' ),
    'SwSTEP 2.0',
    'SolidWorks 2016',
    '' );
FILE_SCHEMA (( 'AUTOMOTIVE_DESIGN' ));
ENDSEC;

DATA;
#1 = DIRECTION ( 'NONE',  ( 0.0000000000000000000, -1.000000000000000000, -1.224646799147353200E-016 ) ) ;
#2 = AXIS2_PLACEMENT_3D ( 'NONE', #264, #192, #78 ) ;
#3 = CLOSED_SHELL ( 'NONE', ( #286, #280, #59, #43, #282, #169 ) ) ;
#4 = VECTOR ( 'NONE', #338, 1000.000000000000000 ) ;
#5 = ORIENTED_EDGE ( 'NONE', *, *, #139, .F. ) ;
#6 = SURFACE_STYLE_USAGE ( .BOTH. , #125 ) ;
#7 = AXIS2_PLACEMENT_3D ( 'NONE', #22, #25, #324 ) ;
#8 = SURFACE_STYLE_USAGE ( .BOTH. , #317 ) ;
#9 = CIRCLE ( 'NONE', #186, 12.70000000000000600 ) ;
#10 = EDGE_LOOP ( 'NONE', ( #124, #343, #5 ) ) ;
#11 = FILL_AREA_STYLE ('',( #287 ) ) ;
#12 = CARTESIAN_POINT ( 'NONE',  ( 303.6560702364729400, 0.0000000000000000000, 0.0000000000000000000 ) ) ;
#13 = UNCERTAINTY_MEASURE_WITH_UNIT (LENGTH_MEASURE( 1.000000000000000100E-005 ), #20, 'distance_accuracy_value', 'NONE');
#14 = FACE_OUTER_BOUND ( 'NONE', #191, .T. ) ;
#15 = COLOUR_RGB ( '',1.000000000000000000, 1.000000000000000000, 1.000000000000000000 ) ;
#16 = DIRECTION ( 'NONE',  ( -1.000000000000000000, -0.0000000000000000000, -0.0000000000000000000 ) ) ;
#17 = ADVANCED_FACE ( 'NONE', ( #319 ), #225, .T. ) ;
#18 = EDGE_LOOP ( 'NONE', ( #165, #339, #215, #116 ) ) ;
#19 = AXIS2_PLACEMENT_3D ( 'NONE', #48, #69, #79 ) ;
#20 =( LENGTH_UNIT ( ) NAMED_UNIT ( * ) SI_UNIT ( .MILLI., .METRE. ) );
#21 = CARTESIAN_POINT ( 'NONE',  ( 262.3650300461362700, 0.0000000000000000000, 6.963127528203664000E-015 ) ) ;
#22 = CARTESIAN_POINT ( 'NONE',  ( 337.6650300461362800, 0.0000000000000000000, 6.947574585270388600E-015 ) ) ;
#23 = CIRCLE ( 'NONE', #74, 43.20000000000000300 ) ;
#24 =( LENGTH_UNIT ( ) NAMED_UNIT ( * ) SI_UNIT ( .MILLI., .METRE. ) );
#25 = DIRECTION ( 'NONE',  ( -0.0000000000000000000, -1.000000000000000000, -0.0000000000000000000 ) ) ;
#26 = AXIS2_PLACEMENT_3D ( 'NONE', #70, #58, #82 ) ;
#27 = FACE_OUTER_BOUND ( 'NONE', #50, .T. ) ;
#28 = ORIENTED_EDGE ( 'NONE', *, *, #212, .T. ) ;
#29 = MANIFOLD_SOLID_BREP ( 'Ðý×ª1', #3 ) ;
#30 = MANIFOLD_SOLID_BREP ( 'Ðý×ª3', #310 ) ;
#31 = CIRCLE ( 'NONE', #53, 12.70000000000000600 ) ;
#32 = ORIENTED_EDGE ( 'NONE', *, *, #226, .F. ) ;
#33 = CARTESIAN_POINT ( 'NONE',  ( 124.5233095260452400, 0.0000000000000000000, 0.0000000000000000000 ) ) ;
#34 = STYLED_ITEM ( 'NONE', ( #158 ), #291 ) ;
#35 = EDGE_CURVE ( 'NONE', #140, #247, #210, .T. ) ;
#36 = DIRECTION ( 'NONE',  ( 0.0000000000000000000, 0.0000000000000000000, 1.000000000000000000 ) ) ;
#37 = COLOUR_RGB ( '',1.000000000000000000, 1.000000000000000000, 1.000000000000000000 ) ;
#38 = EDGE_LOOP ( 'NONE', ( #106, #320, #62 ) ) ;
#39 = DIRECTION ( 'NONE',  ( 0.0000000000000000000, 0.0000000000000000000, 1.000000000000000000 ) ) ;
#40 = AXIS2_PLACEMENT_3D ( 'NONE', #155, #326, #90 ) ;
#41 =( GEOMETRIC_REPRESENTATION_CONTEXT ( 3 ) GLOBAL_UNCERTAINTY_ASSIGNED_CONTEXT ( ( #227 ) ) GLOBAL_UNIT_ASSIGNED_CONTEXT ( ( #323, #189, #265 ) ) REPRESENTATION_CONTEXT ( 'NONE', 'WORKASPACE' ) );
#42 = VECTOR ( 'NONE', #112, 1000.000000000000000 ) ;
#43 = ADVANCED_FACE ( 'NONE', ( #229 ), #199, .T. ) ;
#44 = CARTESIAN_POINT ( 'NONE',  ( 303.6560702364729400, 1.555301434917139200E-015, -12.70000000000000600 ) ) ;
#45 = AXIS2_PLACEMENT_3D ( 'NONE', #121, #235, #305 ) ;
#46 =( GEOMETRIC_REPRESENTATION_CONTEXT ( 3 ) GLOBAL_UNCERTAINTY_ASSIGNED_CONTEXT ( ( #13 ) ) GLOBAL_UNIT_ASSIGNED_CONTEXT ( ( #20, #294, #174 ) ) REPRESENTATION_CONTEXT ( 'NONE', 'WORKASPACE' ) );
#47 = DIRECTION ( 'NONE',  ( -0.0000000000000000000, -1.000000000000000000, -0.0000000000000000000 ) ) ;
#48 = CARTESIAN_POINT ( 'NONE',  ( 681.5650300461362600, 0.0000000000000000000, 0.0000000000000000000 ) ) ;
#49 = DIRECTION ( 'NONE',  ( -0.0000000000000000000, -1.000000000000000000, -0.0000000000000000000 ) ) ;
#50 = EDGE_LOOP ( 'NONE', ( #297, #243, #290, #81 ) ) ;
#51 = CARTESIAN_POINT ( 'NONE',  ( -0.5519199926577972300, 0.0000000000000000000, 12.69999999999999200 ) ) ;
#52 = ORIENTED_EDGE ( 'NONE', *, *, #232, .T. ) ;
#53 = AXIS2_PLACEMENT_3D ( 'NONE', #231, #251, #39 ) ;
#54 = EDGE_LOOP ( 'NONE', ( #28, #104, #298, #120 ) ) ;
#55 = AXIS2_PLACEMENT_3D ( 'NONE', #33, #240, #217 ) ;
#56 = CARTESIAN_POINT ( 'NONE',  ( 303.6560702364729400, 0.0000000000000000000, 0.0000000000000000000 ) ) ;
#57 = MECHANICAL_DESIGN_GEOMETRIC_PRESENTATION_REPRESENTATION (  '', ( #328 ), #166 ) ;
#58 = DIRECTION ( 'NONE',  ( 0.0000000000000000000, 1.000000000000000000, 0.0000000000000000000 ) ) ;
#59 = ADVANCED_FACE ( 'NONE', ( #14 ), #87, .T. ) ;
#60 = DIRECTION ( 'NONE',  ( 0.0000000000000000000, 0.0000000000000000000, 1.000000000000000000 ) ) ;
#61 = FACE_OUTER_BOUND ( 'NONE', #190, .T. ) ;
#62 = ORIENTED_EDGE ( 'NONE', *, *, #303, .T. ) ;
#63 = ADVANCED_FACE ( 'NONE', ( #61 ), #71, .F. ) ;
#64 = CIRCLE ( 'NONE', #19, 373.9999999999999400 ) ;
#65 = AXIS2_PLACEMENT_3D ( 'NONE', #311, #248, #67 ) ;
#66 = ORIENTED_EDGE ( 'NONE', *, *, #139, .T. ) ;
#67 = DIRECTION ( 'NONE',  ( 0.0000000000000000000, 0.0000000000000000000, 1.000000000000000000 ) ) ;
#68 = CARTESIAN_POINT ( 'NONE',  ( 337.6650300461362800, 0.0000000000000000000, 6.947574585270388600E-015 ) ) ;
#69 = DIRECTION ( 'NONE',  ( 0.0000000000000000000, 1.000000000000000000, -0.0000000000000000000 ) ) ;
#70 = CARTESIAN_POINT ( 'NONE',  ( 262.3650300461362700, 0.0000000000000000000, 6.963127528203664000E-015 ) ) ;
#71 = SPHERICAL_SURFACE ( 'NONE', #111, 373.9999999999999400 ) ;
#72 = CARTESIAN_POINT ( 'NONE',  ( 124.5233095260452400, 1.555301434917139200E-015, -12.70000000000000600 ) ) ;
#73 = VERTEX_POINT ( 'NONE', #205 ) ;
#74 = AXIS2_PLACEMENT_3D ( 'NONE', #345, #299, #197 ) ;
#75 = DIRECTION ( 'NONE',  ( 0.0000000000000000000, 0.0000000000000000000, -1.000000000000000000 ) ) ;
#76 = CYLINDRICAL_SURFACE ( 'NONE', #65, 12.70000000000000600 ) ;
#77 = STYLED_ITEM ( 'NONE', ( #230 ), #30 ) ;
#78 = DIRECTION ( 'NONE',  ( 0.0000000000000000000, 1.224646799147353200E-016, -1.000000000000000000 ) ) ;
#79 = DIRECTION ( 'NONE',  ( 0.0000000000000000000, 0.0000000000000000000, 1.000000000000000000 ) ) ;
#80 = FACE_OUTER_BOUND ( 'NONE', #134, .T. ) ;
#81 = ORIENTED_EDGE ( 'NONE', *, *, #232, .F. ) ;
#82 = DIRECTION ( 'NONE',  ( 0.0000000000000000000, 0.0000000000000000000, 1.000000000000000000 ) ) ;
#83 = ORIENTED_EDGE ( 'NONE', *, *, #342, .F. ) ;
#84 = AXIS2_PLACEMENT_3D ( 'NONE', #154, #117, #283 ) ;
#85 = CARTESIAN_POINT ( 'NONE',  ( 262.3650300461362700, 0.0000000000000000000, 6.963127528203664000E-015 ) ) ;
#86 = DIRECTION ( 'NONE',  ( 0.0000000000000000000, 1.000000000000000000, 0.0000000000000000000 ) ) ;
#87 = SPHERICAL_SURFACE ( 'NONE', #321, 38.69999999999998900 ) ;
#88 = LINE ( 'NONE', #182, #4 ) ;
#89 = DIRECTION ( 'NONE',  ( 0.0000000000000000000, 0.0000000000000000000, 1.000000000000000000 ) ) ;
#90 = DIRECTION ( 'NONE',  ( 0.0000000000000000000, 0.0000000000000000000, 1.000000000000000000 ) ) ;
#91 = AXIS2_PLACEMENT_3D ( 'NONE', #56, #208, #60 ) ;
#92 = SPHERICAL_SURFACE ( 'NONE', #301, 43.20000000000000300 ) ;
#93 = ORIENTED_EDGE ( 'NONE', *, *, #269, .F. ) ;
#94 = EDGE_LOOP ( 'NONE', ( #145, #278, #52 ) ) ;
#95 = MECHANICAL_DESIGN_GEOMETRIC_PRESENTATION_REPRESENTATION (  '', ( #77 ), #46 ) ;
#96 = DIRECTION ( 'NONE',  ( -0.0000000000000000000, -1.000000000000000000, -0.0000000000000000000 ) ) ;
#97 = VERTEX_POINT ( 'NONE', #258 ) ;
#98 = VERTEX_POINT ( 'NONE', #292 ) ;
#99 = CARTESIAN_POINT ( 'NONE',  ( 307.7807205841151000, 0.0000000000000000000, 0.0000000000000000000 ) ) ;
#100 = DIRECTION ( 'NONE',  ( -0.0000000000000000000, 1.000000000000000000, 1.224646799147353200E-016 ) ) ;
#101 = CARTESIAN_POINT ( 'NONE',  ( 305.5650300461362600, 0.0000000000000000000, 9.608364614361947000E-015 ) ) ;
#102 = PRODUCT ( '145121', '145121', '', ( #331 ) ) ;
#103 = ORIENTED_EDGE ( 'NONE', *, *, #269, .T. ) ;
#104 = ORIENTED_EDGE ( 'NONE', *, *, #151, .T. ) ;
#105 = PRESENTATION_LAYER_ASSIGNMENT (  '', '', ( #34 ) ) ;
#106 = ORIENTED_EDGE ( 'NONE', *, *, #279, .F. ) ;
#107 = FILL_AREA_STYLE_COLOUR ( '', #255 ) ;
#108 = CIRCLE ( 'NONE', #141, 43.20000000000000300 ) ;
#109 = DIRECTION ( 'NONE',  ( 0.0000000000000000000, 0.0000000000000000000, 1.000000000000000000 ) ) ;
#110 = UNCERTAINTY_MEASURE_WITH_UNIT (LENGTH_MEASURE( 1.000000000000000100E-005 ), #211, 'distance_accuracy_value', 'NONE');
#111 = AXIS2_PLACEMENT_3D ( 'NONE', #322, #49, #234 ) ;
#112 = DIRECTION ( 'NONE',  ( -1.000000000000000000, -0.0000000000000000000, -0.0000000000000000000 ) ) ;
#113 = EDGE_CURVE ( 'NONE', #73, #130, #185, .T. ) ;
#114 = DIRECTION ( 'NONE',  ( -0.0000000000000000000, 1.000000000000000000, 1.224646799147353200E-016 ) ) ;
#115 = CIRCLE ( 'NONE', #148, 43.20000000000000300 ) ;
#116 = ORIENTED_EDGE ( 'NONE', *, *, #204, .F. ) ;
#117 = DIRECTION ( 'NONE',  ( -1.000000000000000000, -0.0000000000000000000, -0.0000000000000000000 ) ) ;
#118 = ADVANCED_FACE ( 'NONE', ( #143 ), #168, .F. ) ;
#119 = ORIENTED_EDGE ( 'NONE', *, *, #288, .F. ) ;
#120 = ORIENTED_EDGE ( 'NONE', *, *, #132, .F. ) ;
#121 = CARTESIAN_POINT ( 'NONE',  ( 262.3650300461362700, 0.0000000000000000000, 6.963127528203664000E-015 ) ) ;
#122 = AXIS2_PLACEMENT_3D ( 'NONE', #316, #181, #156 ) ;
#123 = CARTESIAN_POINT ( 'NONE',  ( 681.5650300461362600, 0.0000000000000000000, 0.0000000000000000000 ) ) ;
#124 = ORIENTED_EDGE ( 'NONE', *, *, #171, .F. ) ;
#125 = SURFACE_SIDE_STYLE ('',( #220 ) ) ;
#126 = CARTESIAN_POINT ( 'NONE',  ( -0.5519199926577972300, 0.0000000000000000000, 0.0000000000000000000 ) ) ;
#127 = MECHANICAL_DESIGN_GEOMETRIC_PRESENTATION_REPRESENTATION (  '', ( #34 ), #178 ) ;
#128 = DIRECTION ( 'NONE',  ( -1.000000000000000000, -0.0000000000000000000, -0.0000000000000000000 ) ) ;
#129 = SURFACE_SIDE_STYLE ('',( #163 ) ) ;
#130 = VERTEX_POINT ( 'NONE', #144 ) ;
#131 = DIRECTION ( 'NONE',  ( -1.000000000000000000, -0.0000000000000000000, -0.0000000000000000000 ) ) ;
#132 = EDGE_CURVE ( 'NONE', #130, #247, #161, .T. ) ;
#133 = CIRCLE ( 'NONE', #2, 373.9999999999999400 ) ;
#134 = EDGE_LOOP ( 'NONE', ( #119, #183, #263 ) ) ;
#135 = CARTESIAN_POINT ( 'NONE',  ( 303.6560702364729400, 0.0000000000000000000, 12.70000000000000600 ) ) ;
#136 = FACE_OUTER_BOUND ( 'NONE', #94, .T. ) ;
#137 = ORIENTED_EDGE ( 'NONE', *, *, #262, .T. ) ;
#138 = DIRECTION ( 'NONE',  ( 1.000000000000000000, 0.0000000000000000000, 0.0000000000000000000 ) ) ;
#139 = EDGE_CURVE ( 'NONE', #200, #325, #313, .T. ) ;
#140 = VERTEX_POINT ( 'NONE', #101 ) ;
#141 = AXIS2_PLACEMENT_3D ( 'NONE', #221, #100, #266 ) ;
#142 = CARTESIAN_POINT ( 'NONE',  ( 307.5650300461362600, 0.0000000000000000000, -2.290089514405550100E-014 ) ) ;
#143 = FACE_OUTER_BOUND ( 'NONE', #260, .T. ) ;
#144 = CARTESIAN_POINT ( 'NONE',  ( 307.7807205841151000, 0.0000000000000000000, 12.69999999999997800 ) ) ;
#145 = ORIENTED_EDGE ( 'NONE', *, *, #35, .F. ) ;
#146 = CARTESIAN_POINT ( 'NONE',  ( -0.5519199926577972300, 0.0000000000000000000, 0.0000000000000000000 ) ) ;
#147 = DIRECTION ( 'NONE',  ( 0.0000000000000000000, 0.0000000000000000000, 1.000000000000000000 ) ) ;
#148 = AXIS2_PLACEMENT_3D ( 'NONE', #253, #114, #184 ) ;
#149 = ORIENTED_EDGE ( 'NONE', *, *, #113, .F. ) ;
#150 = ORIENTED_EDGE ( 'NONE', *, *, #157, .T. ) ;
#151 = EDGE_CURVE ( 'NONE', #73, #302, #88, .T. ) ;
#152 = DIRECTION ( 'NONE',  ( 0.0000000000000000000, 0.0000000000000000000, -1.000000000000000000 ) ) ;
#153 = DIRECTION ( 'NONE',  ( 0.0000000000000000000, -1.000000000000000000, 0.0000000000000000000 ) ) ;
#154 = CARTESIAN_POINT ( 'NONE',  ( 301.1082249340918200, 0.0000000000000000000, 0.0000000000000000000 ) ) ;
#155 = CARTESIAN_POINT ( 'NONE',  ( 337.6650300461362800, 0.0000000000000000000, 6.947574585270388600E-015 ) ) ;
#156 = DIRECTION ( 'NONE',  ( 0.0000000000000000000, 0.0000000000000000000, 1.000000000000000000 ) ) ;
#157 = EDGE_CURVE ( 'NONE', #97, #250, #31, .T. ) ;
#158 = PRESENTATION_STYLE_ASSIGNMENT (( #8 ) ) ;
#159 = PRODUCT_DEFINITION_SHAPE ( 'NONE', 'NONE',  #216 ) ;
#160 = PRESENTATION_STYLE_ASSIGNMENT (( #6 ) ) ;
#161 = LINE ( 'NONE', #51, #237 ) ;
#162 = CARTESIAN_POINT ( 'NONE',  ( 0.0000000000000000000, 0.0000000000000000000, 0.0000000000000000000 ) ) ;
#163 = SURFACE_STYLE_FILL_AREA ( #236 ) ;
#164 = AXIS2_PLACEMENT_3D ( 'NONE', #123, #47, #315 ) ;
#165 = ORIENTED_EDGE ( 'NONE', *, *, #245, .F. ) ;
#166 =( GEOMETRIC_REPRESENTATION_CONTEXT ( 3 ) GLOBAL_UNCERTAINTY_ASSIGNED_CONTEXT ( ( #110 ) ) GLOBAL_UNIT_ASSIGNED_CONTEXT ( ( #211, #180, #207 ) ) REPRESENTATION_CONTEXT ( 'NONE', 'WORKASPACE' ) );
#167 = CIRCLE ( 'NONE', #91, 12.70000000000000600 ) ;
#168 = SPHERICAL_SURFACE ( 'NONE', #164, 373.9999999999999400 ) ;
#169 = ADVANCED_FACE ( 'NONE', ( #80 ), #314, .T. ) ;
#170 = SHAPE_DEFINITION_REPRESENTATION ( #159, #291 ) ;
#171 = EDGE_CURVE ( 'NONE', #268, #200, #23, .T. ) ;
#172 = DIRECTION ( 'NONE',  ( -1.000000000000000000, -0.0000000000000000000, -0.0000000000000000000 ) ) ;
#173 = ORIENTED_EDGE ( 'NONE', *, *, #204, .T. ) ;
#174 =( NAMED_UNIT ( * ) SI_UNIT ( $, .STERADIAN. ) SOLID_ANGLE_UNIT ( ) );
#175 = DIRECTION ( 'NONE',  ( 0.0000000000000000000, 0.0000000000000000000, 1.000000000000000000 ) ) ;
#176 = ORIENTED_EDGE ( 'NONE', *, *, #262, .F. ) ;
#177 = FILL_AREA_STYLE_COLOUR ( '', #37 ) ;
#178 =( GEOMETRIC_REPRESENTATION_CONTEXT ( 3 ) GLOBAL_UNCERTAINTY_ASSIGNED_CONTEXT ( ( #201 ) ) GLOBAL_UNIT_ASSIGNED_CONTEXT ( ( #24, #333, #308 ) ) REPRESENTATION_CONTEXT ( 'NONE', 'WORKASPACE' ) );
#179 = DIRECTION ( 'NONE',  ( -1.000000000000000000, -0.0000000000000000000, -0.0000000000000000000 ) ) ;
#180 =( NAMED_UNIT ( * ) PLANE_ANGLE_UNIT ( ) SI_UNIT ( $, .RADIAN. ) );
#181 = DIRECTION ( 'NONE',  ( -1.000000000000000000, -0.0000000000000000000, -0.0000000000000000000 ) ) ;
#182 = CARTESIAN_POINT ( 'NONE',  ( -0.5519199926577972300, 1.555301434917137800E-015, -12.69999999999999200 ) ) ;
#183 = ORIENTED_EDGE ( 'NONE', *, *, #171, .T. ) ;
#184 = DIRECTION ( 'NONE',  ( 0.0000000000000000000, -1.224646799147353200E-016, 1.000000000000000000 ) ) ;
#185 = CIRCLE ( 'NONE', #122, 12.69999999999997800 ) ;
#186 = AXIS2_PLACEMENT_3D ( 'NONE', #254, #16, #36 ) ;
#187 = EDGE_CURVE ( 'NONE', #325, #200, #318, .T. ) ;
#188 = VERTEX_POINT ( 'NONE', #142 ) ;
#189 =( NAMED_UNIT ( * ) PLANE_ANGLE_UNIT ( ) SI_UNIT ( $, .RADIAN. ) );
#190 = EDGE_LOOP ( 'NONE', ( #93, #149, #137 ) ) ;
#191 = EDGE_LOOP ( 'NONE', ( #173, #274, #32 ) ) ;
#192 = DIRECTION ( 'NONE',  ( 0.0000000000000000000, -1.000000000000000000, -1.224646799147353200E-016 ) ) ;
#193 = AXIS2_PLACEMENT_3D ( 'NONE', #126, #131, #284 ) ;
#194 = FACE_OUTER_BOUND ( 'NONE', #18, .T. ) ;
#195 = ORIENTED_EDGE ( 'NONE', *, *, #245, .T. ) ;
#196 = DIRECTION ( 'NONE',  ( 0.0000000000000000000, 0.0000000000000000000, 1.000000000000000000 ) ) ;
#197 = DIRECTION ( 'NONE',  ( 0.0000000000000000000, 0.0000000000000000000, -1.000000000000000000 ) ) ;
#198 = FACE_OUTER_BOUND ( 'NONE', #332, .T. ) ;
#199 = SPHERICAL_SURFACE ( 'NONE', #7, 38.69999999999998900 ) ;
#200 = VERTEX_POINT ( 'NONE', #135 ) ;
#201 = UNCERTAINTY_MEASURE_WITH_UNIT (LENGTH_MEASURE( 1.000000000000000100E-005 ), #24, 'distance_accuracy_value', 'NONE');
#202 = PRODUCT_DEFINITION_CONTEXT ( 'detailed design', #275, 'design' ) ;
#203 = SURFACE_STYLE_FILL_AREA ( #241 ) ;
#204 = EDGE_CURVE ( 'NONE', #250, #97, #270, .T. ) ;
#205 = CARTESIAN_POINT ( 'NONE',  ( 307.7807205841151000, 1.555301434917137100E-015, -12.69999999999997800 ) ) ;
#206 = DIRECTION ( 'NONE',  ( 0.0000000000000000000, 1.000000000000000000, 0.0000000000000000000 ) ) ;
#207 =( NAMED_UNIT ( * ) SI_UNIT ( $, .STERADIAN. ) SOLID_ANGLE_UNIT ( ) );
#208 = DIRECTION ( 'NONE',  ( -1.000000000000000000, -0.0000000000000000000, -0.0000000000000000000 ) ) ;
#209 = DIRECTION ( 'NONE',  ( 0.0000000000000000000, 0.0000000000000000000, 1.000000000000000000 ) ) ;
#210 = CIRCLE ( 'NONE', #244, 43.20000000000000300 ) ;
#211 =( LENGTH_UNIT ( ) NAMED_UNIT ( * ) SI_UNIT ( .MILLI., .METRE. ) );
#212 = EDGE_CURVE ( 'NONE', #130, #73, #218, .T. ) ;
#213 = PRESENTATION_LAYER_ASSIGNMENT (  '', '', ( #77 ) ) ;
#214 = SPHERICAL_SURFACE ( 'NONE', #26, 43.20000000000000300 ) ;
#215 = ORIENTED_EDGE ( 'NONE', *, *, #309, .T. ) ;
#216 = PRODUCT_DEFINITION ( 'Î´Öª', '', #271, #202 ) ;
#217 = DIRECTION ( 'NONE',  ( 0.0000000000000000000, 0.0000000000000000000, 1.000000000000000000 ) ) ;
#218 = CIRCLE ( 'NONE', #334, 12.69999999999997800 ) ;
#219 = ORIENTED_EDGE ( 'NONE', *, *, #226, .T. ) ;
#220 = SURFACE_STYLE_FILL_AREA ( #11 ) ;
#221 = CARTESIAN_POINT ( 'NONE',  ( 262.3650300461362700, 0.0000000000000000000, 6.963127528203664000E-015 ) ) ;
#222 = CARTESIAN_POINT ( 'NONE',  ( 337.6650300461362800, 0.0000000000000000000, 6.947574585270388600E-015 ) ) ;
#223 = AXIS2_PLACEMENT_3D ( 'NONE', #222, #1, #304 ) ;
#224 = CIRCLE ( 'NONE', #223, 38.69999999999998900 ) ;
#225 = CYLINDRICAL_SURFACE ( 'NONE', #193, 12.69999999999999200 ) ;
#226 = EDGE_CURVE ( 'NONE', #250, #98, #259, .T. ) ;
#227 = UNCERTAINTY_MEASURE_WITH_UNIT (LENGTH_MEASURE( 1.000000000000000100E-005 ), #323, 'distance_accuracy_value', 'NONE');
#228 = CARTESIAN_POINT ( 'NONE',  ( 301.1082249340918200, 0.0000000000000000000, -12.69999999999999600 ) ) ;
#229 = FACE_OUTER_BOUND ( 'NONE', #233, .T. ) ;
#230 = PRESENTATION_STYLE_ASSIGNMENT (( #344 ) ) ;
#231 = CARTESIAN_POINT ( 'NONE',  ( 301.1082249340918200, 0.0000000000000000000, 0.0000000000000000000 ) ) ;
#232 = EDGE_CURVE ( 'NONE', #302, #247, #167, .T. ) ;
#233 = EDGE_LOOP ( 'NONE', ( #83, #150, #219 ) ) ;
#234 = DIRECTION ( 'NONE',  ( 0.0000000000000000000, 0.0000000000000000000, -1.000000000000000000 ) ) ;
#235 = DIRECTION ( 'NONE',  ( 0.0000000000000000000, 1.000000000000000000, 0.0000000000000000000 ) ) ;
#236 = FILL_AREA_STYLE ('',( #177 ) ) ;
#237 = VECTOR ( 'NONE', #336, 1000.000000000000000 ) ;
#238 = AXIS2_PLACEMENT_3D ( 'NONE', #162, #109, #138 ) ;
#239 = CARTESIAN_POINT ( 'NONE',  ( 305.5650300461362600, 0.0000000000000000000, 9.608364614361947000E-015 ) ) ;
#240 = DIRECTION ( 'NONE',  ( -1.000000000000000000, -0.0000000000000000000, -0.0000000000000000000 ) ) ;
#241 = FILL_AREA_STYLE ('',( #107 ) ) ;
#242 = CYLINDRICAL_SURFACE ( 'NONE', #55, 12.70000000000000600 ) ;
#243 = ORIENTED_EDGE ( 'NONE', *, *, #113, .T. ) ;
#244 = AXIS2_PLACEMENT_3D ( 'NONE', #85, #153, #75 ) ;
#245 = EDGE_CURVE ( 'NONE', #325, #250, #249, .T. ) ;
#246 = VECTOR ( 'NONE', #128, 1000.000000000000000 ) ;
#247 = VERTEX_POINT ( 'NONE', #346 ) ;
#248 = DIRECTION ( 'NONE',  ( -1.000000000000000000, -0.0000000000000000000, -0.0000000000000000000 ) ) ;
#249 = LINE ( 'NONE', #72, #246 ) ;
#250 = VERTEX_POINT ( 'NONE', #228 ) ;
#251 = DIRECTION ( 'NONE',  ( -1.000000000000000000, -0.0000000000000000000, -0.0000000000000000000 ) ) ;
#252 = PRESENTATION_LAYER_ASSIGNMENT (  '', '', ( #328 ) ) ;
#253 = CARTESIAN_POINT ( 'NONE',  ( 262.3650300461362700, 0.0000000000000000000, 6.963127528203664000E-015 ) ) ;
#254 = CARTESIAN_POINT ( 'NONE',  ( 303.6560702364729400, 0.0000000000000000000, 0.0000000000000000000 ) ) ;
#255 = COLOUR_RGB ( '',1.000000000000000000, 1.000000000000000000, 1.000000000000000000 ) ;
#256 = CARTESIAN_POINT ( 'NONE',  ( 303.6560702364729400, 1.555301434917139600E-015, -12.70000000000000300 ) ) ;
#257 = ADVANCED_FACE ( 'NONE', ( #27 ), #277, .T. ) ;
#258 = CARTESIAN_POINT ( 'NONE',  ( 301.1082249340918200, -1.555301434917138000E-015, 12.70000000000000300 ) ) ;
#259 = CIRCLE ( 'NONE', #40, 38.69999999999998900 ) ;
#260 = EDGE_LOOP ( 'NONE', ( #300, #103, #176 ) ) ;
#261 = AXIS2_PLACEMENT_3D ( 'NONE', #12, #312, #89 ) ;
#262 = EDGE_CURVE ( 'NONE', #73, #188, #64, .T. ) ;
#263 = ORIENTED_EDGE ( 'NONE', *, *, #187, .F. ) ;
#264 = CARTESIAN_POINT ( 'NONE',  ( 681.5650300461362600, 0.0000000000000000000, 0.0000000000000000000 ) ) ;
#265 =( NAMED_UNIT ( * ) SI_UNIT ( $, .STERADIAN. ) SOLID_ANGLE_UNIT ( ) );
#266 = DIRECTION ( 'NONE',  ( 0.0000000000000000000, -1.224646799147353200E-016, 1.000000000000000000 ) ) ;
#267 = CARTESIAN_POINT ( 'NONE',  ( 303.6560702364729400, 0.0000000000000000000, 0.0000000000000000000 ) ) ;
#268 = VERTEX_POINT ( 'NONE', #239 ) ;
#269 = EDGE_CURVE ( 'NONE', #130, #188, #133, .T. ) ;
#270 = CIRCLE ( 'NONE', #84, 12.70000000000000600 ) ;
#271 = PRODUCT_DEFINITION_FORMATION_WITH_SPECIFIED_SOURCE ( 'ÈÎºÎ', '', #102, .NOT_KNOWN. ) ;
#272 = FACE_OUTER_BOUND ( 'NONE', #38, .T. ) ;
#273 = CARTESIAN_POINT ( 'NONE',  ( 262.3650300461362700, 0.0000000000000000000, 6.963127528203664000E-015 ) ) ;
#274 = ORIENTED_EDGE ( 'NONE', *, *, #342, .T. ) ;
#275 = APPLICATION_CONTEXT ( 'automotive_design' ) ;
#276 = AXIS2_PLACEMENT_3D ( 'NONE', #267, #293, #147 ) ;
#277 = CYLINDRICAL_SURFACE ( 'NONE', #340, 12.69999999999999200 ) ;
#278 = ORIENTED_EDGE ( 'NONE', *, *, #279, .T. ) ;
#279 = EDGE_CURVE ( 'NONE', #140, #302, #108, .T. ) ;
#280 = ADVANCED_FACE ( 'NONE', ( #198 ), #242, .T. ) ;
#281 = APPLICATION_PROTOCOL_DEFINITION ( 'draft international standard', 'automotive_design', 1998, #307 ) ;
#282 = ADVANCED_FACE ( 'NONE', ( #194 ), #76, .T. ) ;
#283 = DIRECTION ( 'NONE',  ( 0.0000000000000000000, 0.0000000000000000000, 1.000000000000000000 ) ) ;
#284 = DIRECTION ( 'NONE',  ( 0.0000000000000000000, 0.0000000000000000000, 1.000000000000000000 ) ) ;
#285 = FACE_OUTER_BOUND ( 'NONE', #10, .T. ) ;
#286 = ADVANCED_FACE ( 'NONE', ( #285 ), #329, .T. ) ;
#287 = FILL_AREA_STYLE_COLOUR ( '', #15 ) ;
#288 = EDGE_CURVE ( 'NONE', #268, #325, #115, .T. ) ;
#289 = LINE ( 'NONE', #327, #42 ) ;
#290 = ORIENTED_EDGE ( 'NONE', *, *, #132, .T. ) ;
#291 = ADVANCED_BREP_SHAPE_REPRESENTATION ( '145121', ( #29, #30, #238 ), #41 ) ;
#292 = CARTESIAN_POINT ( 'NONE',  ( 298.9650300461362900, 0.0000000000000000000, 4.577883028920261200E-015 ) ) ;
#293 = DIRECTION ( 'NONE',  ( -1.000000000000000000, -0.0000000000000000000, -0.0000000000000000000 ) ) ;
#294 =( NAMED_UNIT ( * ) PLANE_ANGLE_UNIT ( ) SI_UNIT ( $, .RADIAN. ) );
#295 = APPLICATION_PROTOCOL_DEFINITION ( 'draft international standard', 'automotive_design', 1998, #275 ) ;
#296 = PRODUCT_RELATED_PRODUCT_CATEGORY ( 'part', '', ( #102 ) ) ;
#297 = ORIENTED_EDGE ( 'NONE', *, *, #151, .F. ) ;
#298 = ORIENTED_EDGE ( 'NONE', *, *, #303, .F. ) ;
#299 = DIRECTION ( 'NONE',  ( 0.0000000000000000000, -1.000000000000000000, 0.0000000000000000000 ) ) ;
#300 = ORIENTED_EDGE ( 'NONE', *, *, #212, .F. ) ;
#301 = AXIS2_PLACEMENT_3D ( 'NONE', #21, #86, #175 ) ;
#302 = VERTEX_POINT ( 'NONE', #256 ) ;
#303 = EDGE_CURVE ( 'NONE', #247, #302, #9, .T. ) ;
#304 = DIRECTION ( 'NONE',  ( 0.0000000000000000000, 1.224646799147353500E-016, -1.000000000000000000 ) ) ;
#305 = DIRECTION ( 'NONE',  ( 0.0000000000000000000, 0.0000000000000000000, 1.000000000000000000 ) ) ;
#306 = AXIS2_PLACEMENT_3D ( 'NONE', #273, #206, #196 ) ;
#307 = APPLICATION_CONTEXT ( 'automotive_design' ) ;
#308 =( NAMED_UNIT ( * ) SI_UNIT ( $, .STERADIAN. ) SOLID_ANGLE_UNIT ( ) );
#309 = EDGE_CURVE ( 'NONE', #200, #97, #289, .T. ) ;
#310 = CLOSED_SHELL ( 'NONE', ( #118, #17, #335, #337, #257, #63 ) ) ;
#311 = CARTESIAN_POINT ( 'NONE',  ( 124.5233095260452400, 0.0000000000000000000, 0.0000000000000000000 ) ) ;
#312 = DIRECTION ( 'NONE',  ( -1.000000000000000000, -0.0000000000000000000, -0.0000000000000000000 ) ) ;
#313 = CIRCLE ( 'NONE', #276, 12.70000000000000600 ) ;
#314 = SPHERICAL_SURFACE ( 'NONE', #45, 43.20000000000000300 ) ;
#315 = DIRECTION ( 'NONE',  ( 0.0000000000000000000, 0.0000000000000000000, -1.000000000000000000 ) ) ;
#316 = CARTESIAN_POINT ( 'NONE',  ( 307.7807205841151000, 0.0000000000000000000, 0.0000000000000000000 ) ) ;
#317 = SURFACE_SIDE_STYLE ('',( #203 ) ) ;
#318 = CIRCLE ( 'NONE', #261, 12.70000000000000600 ) ;
#319 = FACE_OUTER_BOUND ( 'NONE', #54, .T. ) ;
#320 = ORIENTED_EDGE ( 'NONE', *, *, #35, .T. ) ;
#321 = AXIS2_PLACEMENT_3D ( 'NONE', #68, #96, #152 ) ;
#322 = CARTESIAN_POINT ( 'NONE',  ( 681.5650300461362600, 0.0000000000000000000, 0.0000000000000000000 ) ) ;
#323 =( LENGTH_UNIT ( ) NAMED_UNIT ( * ) SI_UNIT ( .MILLI., .METRE. ) );
#324 = DIRECTION ( 'NONE',  ( 0.0000000000000000000, 0.0000000000000000000, -1.000000000000000000 ) ) ;
#325 = VERTEX_POINT ( 'NONE', #44 ) ;
#326 = DIRECTION ( 'NONE',  ( 0.0000000000000000000, 1.000000000000000000, -0.0000000000000000000 ) ) ;
#327 = CARTESIAN_POINT ( 'NONE',  ( 124.5233095260452400, 0.0000000000000000000, 12.70000000000000600 ) ) ;
#328 = STYLED_ITEM ( 'NONE', ( #160 ), #29 ) ;
#329 = SPHERICAL_SURFACE ( 'NONE', #306, 43.20000000000000300 ) ;
#330 = ORIENTED_EDGE ( 'NONE', *, *, #157, .F. ) ;
#331 = PRODUCT_CONTEXT ( 'NONE', #307, 'mechanical' ) ;
#332 = EDGE_LOOP ( 'NONE', ( #66, #195, #330, #347 ) ) ;
#333 =( NAMED_UNIT ( * ) PLANE_ANGLE_UNIT ( ) SI_UNIT ( $, .RADIAN. ) );
#334 = AXIS2_PLACEMENT_3D ( 'NONE', #99, #172, #341 ) ;
#335 = ADVANCED_FACE ( 'NONE', ( #136 ), #92, .F. ) ;
#336 = DIRECTION ( 'NONE',  ( -1.000000000000000000, -0.0000000000000000000, -0.0000000000000000000 ) ) ;
#337 = ADVANCED_FACE ( 'NONE', ( #272 ), #214, .F. ) ;
#338 = DIRECTION ( 'NONE',  ( -1.000000000000000000, -0.0000000000000000000, -0.0000000000000000000 ) ) ;
#339 = ORIENTED_EDGE ( 'NONE', *, *, #187, .T. ) ;
#340 = AXIS2_PLACEMENT_3D ( 'NONE', #146, #179, #209 ) ;
#341 = DIRECTION ( 'NONE',  ( 0.0000000000000000000, 0.0000000000000000000, 1.000000000000000000 ) ) ;
#342 = EDGE_CURVE ( 'NONE', #97, #98, #224, .T. ) ;
#343 = ORIENTED_EDGE ( 'NONE', *, *, #288, .T. ) ;
#344 = SURFACE_STYLE_USAGE ( .BOTH. , #129 ) ;
#345 = CARTESIAN_POINT ( 'NONE',  ( 262.3650300461362700, 0.0000000000000000000, 6.963127528203664000E-015 ) ) ;
#346 = CARTESIAN_POINT ( 'NONE',  ( 303.6560702364729400, 0.0000000000000000000, 12.70000000000001000 ) ) ;
#347 = ORIENTED_EDGE ( 'NONE', *, *, #309, .F. ) ;
ENDSEC;
END-ISO-10303-21;
