ISO-10303-21;
HEADER;
FILE_DESCRIPTION (( 'STEP AP214' ),
    '1' );
FILE_NAME ('145124.STEP',
    '2019-06-03T05:24:06',
    ( 'user' ),
    ( 'Î¢ÈíÖÐ¹ú' ),
    'SwSTEP 2.0',
    'SolidWorks 2016',
    '' );
FILE_SCHEMA (( 'AUTOMOTIVE_DESIGN' ));
ENDSEC;

DATA;
#1 = AXIS2_PLACEMENT_3D ( 'NONE', #243, #141, #162 ) ;
#2 = EDGE_LOOP ( 'NONE', ( #70, #264, #87, #194 ) ) ;
#3 = DIRECTION ( 'NONE',  ( 0.0000000000000000000, -1.000000000000000000, 0.0000000000000000000 ) ) ;
#4 = EDGE_CURVE ( 'NONE', #165, #328, #129, .T. ) ;
#5 = ADVANCED_FACE ( 'NONE', ( #247 ), #223, .T. ) ;
#6 = MANIFOLD_SOLID_BREP ( 'Ðý×ª3', #132 ) ;
#7 = MANIFOLD_SOLID_BREP ( 'Ðý×ª1', #325 ) ;
#8 = EDGE_CURVE ( 'NONE', #278, #17, #178, .T. ) ;
#9 = APPLICATION_PROTOCOL_DEFINITION ( 'draft international standard', 'automotive_design', 1998, #52 ) ;
#10 = ORIENTED_EDGE ( 'NONE', *, *, #65, .T. ) ;
#11 = CARTESIAN_POINT ( 'NONE',  ( 335.3301259381128100, 0.0000000000000000000, 1.934221885807305800E-015 ) ) ;
#12 = CIRCLE ( 'NONE', #171, 12.70000000000000600 ) ;
#13 = ADVANCED_FACE ( 'NONE', ( #215 ), #116, .T. ) ;
#14 = UNCERTAINTY_MEASURE_WITH_UNIT (LENGTH_MEASURE( 1.000000000000000100E-005 ), #25, 'distance_accuracy_value', 'NONE');
#15 = SURFACE_STYLE_FILL_AREA ( #95 ) ;
#16 =( GEOMETRIC_REPRESENTATION_CONTEXT ( 3 ) GLOBAL_UNCERTAINTY_ASSIGNED_CONTEXT ( ( #196 ) ) GLOBAL_UNIT_ASSIGNED_CONTEXT ( ( #78, #271, #64 ) ) REPRESENTATION_CONTEXT ( 'NONE', 'WORKASPACE' ) );
#17 = VERTEX_POINT ( 'NONE', #123 ) ;
#18 =( NAMED_UNIT ( * ) PLANE_ANGLE_UNIT ( ) SI_UNIT ( $, .RADIAN. ) );
#19 = DIRECTION ( 'NONE',  ( 0.0000000000000000000, 1.000000000000000000, 0.0000000000000000000 ) ) ;
#20 = ORIENTED_EDGE ( 'NONE', *, *, #4, .F. ) ;
#21 = CARTESIAN_POINT ( 'NONE',  ( 418.9301259381127200, 0.0000000000000000000, 7.053245506243238500E-015 ) ) ;
#22 = CARTESIAN_POINT ( 'NONE',  ( 336.3004097338318800, 0.0000000000000000000, -12.69999999999997600 ) ) ;
#23 = MECHANICAL_DESIGN_GEOMETRIC_PRESENTATION_REPRESENTATION (  '', ( #149 ), #342 ) ;
#24 = ORIENTED_EDGE ( 'NONE', *, *, #304, .T. ) ;
#25 =( LENGTH_UNIT ( ) NAMED_UNIT ( * ) SI_UNIT ( .MILLI., .METRE. ) );
#26 = MECHANICAL_DESIGN_GEOMETRIC_PRESENTATION_REPRESENTATION (  '', ( #160 ), #216 ) ;
#27 = EDGE_LOOP ( 'NONE', ( #209, #10, #202 ) ) ;
#28 = CIRCLE ( 'NONE', #69, 1330.499999999999800 ) ;
#29 = DIRECTION ( 'NONE',  ( -1.000000000000000000, -0.0000000000000000000, -0.0000000000000000000 ) ) ;
#30 = ADVANCED_BREP_SHAPE_REPRESENTATION ( '145124', ( #7, #6, #314 ), #16 ) ;
#31 = ORIENTED_EDGE ( 'NONE', *, *, #140, .F. ) ;
#32 = EDGE_CURVE ( 'NONE', #272, #302, #284, .T. ) ;
#33 = CARTESIAN_POINT ( 'NONE',  ( 124.5233095260452400, 0.0000000000000000000, 0.0000000000000000000 ) ) ;
#34 = AXIS2_PLACEMENT_3D ( 'NONE', #33, #250, #189 ) ;
#35 = DIRECTION ( 'NONE',  ( 0.0000000000000000000, -1.224646799147353200E-016, 1.000000000000000000 ) ) ;
#36 = ORIENTED_EDGE ( 'NONE', *, *, #140, .T. ) ;
#37 = CIRCLE ( 'NONE', #104, 89.33000000000008400 ) ;
#38 = EDGE_CURVE ( 'NONE', #193, #50, #166, .T. ) ;
#39 = ORIENTED_EDGE ( 'NONE', *, *, #318, .F. ) ;
#40 = DIRECTION ( 'NONE',  ( -0.0000000000000000000, 1.000000000000000000, 1.224646799147353200E-016 ) ) ;
#41 = FACE_OUTER_BOUND ( 'NONE', #174, .T. ) ;
#42 = DIRECTION ( 'NONE',  ( 0.0000000000000000000, 0.0000000000000000000, 1.000000000000000000 ) ) ;
#43 =( NAMED_UNIT ( * ) PLANE_ANGLE_UNIT ( ) SI_UNIT ( $, .RADIAN. ) );
#44 = ADVANCED_FACE ( 'NONE', ( #73 ), #346, .T. ) ;
#45 = COLOUR_RGB ( '',1.000000000000000000, 1.000000000000000000, 1.000000000000000000 ) ;
#46 = AXIS2_PLACEMENT_3D ( 'NONE', #265, #108, #157 ) ;
#47 = EDGE_LOOP ( 'NONE', ( #319, #311, #168 ) ) ;
#48 = PRESENTATION_STYLE_ASSIGNMENT (( #197 ) ) ;
#49 = CARTESIAN_POINT ( 'NONE',  ( -0.5519199926577972300, 1.555301434917142600E-015, -12.70000000000003300 ) ) ;
#50 = VERTEX_POINT ( 'NONE', #127 ) ;
#51 = VECTOR ( 'NONE', #279, 1000.000000000000000 ) ;
#52 = APPLICATION_CONTEXT ( 'automotive_design' ) ;
#53 = AXIS2_PLACEMENT_3D ( 'NONE', #180, #98, #151 ) ;
#54 = CARTESIAN_POINT ( 'NONE',  ( -987.6698740618869600, 0.0000000000000000000, 0.0000000000000000000 ) ) ;
#55 = ORIENTED_EDGE ( 'NONE', *, *, #77, .T. ) ;
#57 = DIRECTION ( 'NONE',  ( 0.0000000000000000000, 0.0000000000000000000, 1.000000000000000000 ) ) ;
#56 = SPHERICAL_SURFACE ( 'NONE', #299, 89.33000000000008400 ) ;
#58 = EDGE_LOOP ( 'NONE', ( #71, #134, #239 ) ) ;
#59 = AXIS2_PLACEMENT_3D ( 'NONE', #289, #135, #320 ) ;
#60 = CARTESIAN_POINT ( 'NONE',  ( 336.3004097338318800, 0.0000000000000000000, 0.0000000000000000000 ) ) ;
#61 = FILL_AREA_STYLE ('',( #230 ) ) ;
#62 = DIRECTION ( 'NONE',  ( -1.000000000000000000, -0.0000000000000000000, -0.0000000000000000000 ) ) ;
#63 = EDGE_LOOP ( 'NONE', ( #310, #340, #297 ) ) ;
#64 =( NAMED_UNIT ( * ) SI_UNIT ( $, .STERADIAN. ) SOLID_ANGLE_UNIT ( ) );
#65 = EDGE_CURVE ( 'NONE', #253, #278, #37, .T. ) ;
#66 = CIRCLE ( 'NONE', #266, 89.33000000000008400 ) ;
#67 = LINE ( 'NONE', #292, #128 ) ;
#68 = CARTESIAN_POINT ( 'NONE',  ( 124.5233095260452400, 0.0000000000000000000, 0.0000000000000000000 ) ) ;
#69 = AXIS2_PLACEMENT_3D ( 'NONE', #111, #3, #75 ) ;
#70 = ORIENTED_EDGE ( 'NONE', *, *, #219, .T. ) ;
#71 = ORIENTED_EDGE ( 'NONE', *, *, #146, .F. ) ;
#72 =( LENGTH_UNIT ( ) NAMED_UNIT ( * ) SI_UNIT ( .MILLI., .METRE. ) );
#73 = FACE_OUTER_BOUND ( 'NONE', #47, .T. ) ;
#74 = CARTESIAN_POINT ( 'NONE',  ( 338.4227412579505800, 1.555301434917145700E-015, -12.70000000000005100 ) ) ;
#75 = DIRECTION ( 'NONE',  ( 0.0000000000000000000, 0.0000000000000000000, -1.000000000000000000 ) ) ;
#76 = CIRCLE ( 'NONE', #119, 1330.499999999999800 ) ;
#77 = EDGE_CURVE ( 'NONE', #302, #272, #321, .T. ) ;
#78 =( LENGTH_UNIT ( ) NAMED_UNIT ( * ) SI_UNIT ( .MILLI., .METRE. ) );
#79 = CARTESIAN_POINT ( 'NONE',  ( 418.9301259381127200, 0.0000000000000000000, 7.053245506243238500E-015 ) ) ;
#80 = AXIS2_PLACEMENT_3D ( 'NONE', #254, #296, #121 ) ;
#81 = CARTESIAN_POINT ( 'NONE',  ( 339.3301259381128700, 0.0000000000000000000, 1.223360508488965800E-014 ) ) ;
#82 = CARTESIAN_POINT ( 'NONE',  ( -987.6698740618869600, 0.0000000000000000000, 0.0000000000000000000 ) ) ;
#83 = VECTOR ( 'NONE', #187, 1000.000000000000000 ) ;
#84 = APPLICATION_CONTEXT ( 'automotive_design' ) ;
#85 = DIRECTION ( 'NONE',  ( 0.0000000000000000000, 0.0000000000000000000, 1.000000000000000000 ) ) ;
#86 = ADVANCED_FACE ( 'NONE', ( #188 ), #150, .T. ) ;
#87 = ORIENTED_EDGE ( 'NONE', *, *, #333, .F. ) ;
#88 = EDGE_LOOP ( 'NONE', ( #324, #97, #20 ) ) ;
#89 = CARTESIAN_POINT ( 'NONE',  ( 338.4227412579505800, 0.0000000000000000000, 0.0000000000000000000 ) ) ;
#90 =( GEOMETRIC_REPRESENTATION_CONTEXT ( 3 ) GLOBAL_UNCERTAINTY_ASSIGNED_CONTEXT ( ( #251 ) ) GLOBAL_UNIT_ASSIGNED_CONTEXT ( ( #72, #43, #201 ) ) REPRESENTATION_CONTEXT ( 'NONE', 'WORKASPACE' ) );
#91 = ORIENTED_EDGE ( 'NONE', *, *, #32, .T. ) ;
#92 = DIRECTION ( 'NONE',  ( 0.0000000000000000000, 0.0000000000000000000, 1.000000000000000000 ) ) ;
#93 = SURFACE_STYLE_FILL_AREA ( #226 ) ;
#94 = PRESENTATION_LAYER_ASSIGNMENT (  '', '', ( #338 ) ) ;
#95 = FILL_AREA_STYLE ('',( #248 ) ) ;
#96 = ADVANCED_FACE ( 'NONE', ( #339 ), #109, .T. ) ;
#97 = ORIENTED_EDGE ( 'NONE', *, *, #176, .T. ) ;
#98 = DIRECTION ( 'NONE',  ( 0.0000000000000000000, 1.000000000000000000, 0.0000000000000000000 ) ) ;
#99 = AXIS2_PLACEMENT_3D ( 'NONE', #79, #258, #287 ) ;
#100 = DIRECTION ( 'NONE',  ( -1.000000000000000000, -0.0000000000000000000, -0.0000000000000000000 ) ) ;
#101 = ORIENTED_EDGE ( 'NONE', *, *, #285, .T. ) ;
#102 = SPHERICAL_SURFACE ( 'NONE', #99, 83.59999999999993700 ) ;
#103 = DIRECTION ( 'NONE',  ( -1.000000000000000000, -0.0000000000000000000, -0.0000000000000000000 ) ) ;
#104 = AXIS2_PLACEMENT_3D ( 'NONE', #214, #163, #35 ) ;
#105 = CARTESIAN_POINT ( 'NONE',  ( 342.7695120057380800, 0.0000000000000000000, 12.70000000000001000 ) ) ;
#106 = DIRECTION ( 'NONE',  ( 0.0000000000000000000, 0.0000000000000000000, 1.000000000000000000 ) ) ;
#107 = ORIENTED_EDGE ( 'NONE', *, *, #190, .F. ) ;
#108 = DIRECTION ( 'NONE',  ( 0.0000000000000000000, 1.000000000000000000, 0.0000000000000000000 ) ) ;
#109 = SPHERICAL_SURFACE ( 'NONE', #234, 89.33000000000008400 ) ;
#110 =( NAMED_UNIT ( * ) SI_UNIT ( $, .STERADIAN. ) SOLID_ANGLE_UNIT ( ) );
#111 = CARTESIAN_POINT ( 'NONE',  ( -987.6698740618869600, 0.0000000000000000000, 0.0000000000000000000 ) ) ;
#112 = ORIENTED_EDGE ( 'NONE', *, *, #164, .T. ) ;
#113 = AXIS2_PLACEMENT_3D ( 'NONE', #117, #298, #262 ) ;
#114 = EDGE_LOOP ( 'NONE', ( #286, #24, #154 ) ) ;
#116 = SPHERICAL_SURFACE ( 'NONE', #205, 1330.499999999999800 ) ;
#115 = CARTESIAN_POINT ( 'NONE',  ( 338.4227412579505800, 0.0000000000000000000, 0.0000000000000000000 ) ) ;
#117 = CARTESIAN_POINT ( 'NONE',  ( 342.7695120057380800, 0.0000000000000000000, 0.0000000000000000000 ) ) ;
#118 = ORIENTED_EDGE ( 'NONE', *, *, #77, .F. ) ;
#119 = AXIS2_PLACEMENT_3D ( 'NONE', #82, #252, #236 ) ;
#120 = CYLINDRICAL_SURFACE ( 'NONE', #80, 12.70000000000003300 ) ;
#121 = DIRECTION ( 'NONE',  ( 0.0000000000000000000, 0.0000000000000000000, 1.000000000000000000 ) ) ;
#122 = CIRCLE ( 'NONE', #191, 12.70000000000000600 ) ;
#123 = CARTESIAN_POINT ( 'NONE',  ( 338.4227412579505800, 0.0000000000000000000, 12.70000000000000600 ) ) ;
#124 = PRESENTATION_LAYER_ASSIGNMENT (  '', '', ( #149 ) ) ;
#125 = ADVANCED_FACE ( 'NONE', ( #148 ), #56, .T. ) ;
#126 = EDGE_LOOP ( 'NONE', ( #220, #55, #36, #233 ) ) ;
#127 = CARTESIAN_POINT ( 'NONE',  ( 338.4227412579505800, 0.0000000000000000000, 12.70000000000005800 ) ) ;
#128 = VECTOR ( 'NONE', #147, 1000.000000000000000 ) ;
#129 = CIRCLE ( 'NONE', #293, 83.59999999999993700 ) ;
#130 = AXIS2_PLACEMENT_3D ( 'NONE', #143, #183, #300 ) ;
#131 = APPLICATION_PROTOCOL_DEFINITION ( 'draft international standard', 'automotive_design', 1998, #84 ) ;
#132 = CLOSED_SHELL ( 'NONE', ( #13, #192, #294, #274, #86, #301 ) ) ;
#133 = CARTESIAN_POINT ( 'NONE',  ( 338.4227412579505800, 1.555301434917139200E-015, -12.70000000000000600 ) ) ;
#134 = ORIENTED_EDGE ( 'NONE', *, *, #190, .T. ) ;
#135 = DIRECTION ( 'NONE',  ( -1.000000000000000000, -0.0000000000000000000, -0.0000000000000000000 ) ) ;
#136 = AXIS2_PLACEMENT_3D ( 'NONE', #326, #206, #347 ) ;
#137 = CARTESIAN_POINT ( 'NONE',  ( 250.0001259381127700, 0.0000000000000000000, 6.763720156497999700E-015 ) ) ;
#138 = FACE_OUTER_BOUND ( 'NONE', #88, .T. ) ;
#139 = DIRECTION ( 'NONE',  ( 0.0000000000000000000, 0.0000000000000000000, 1.000000000000000000 ) ) ;
#140 = EDGE_CURVE ( 'NONE', #272, #50, #67, .T. ) ;
#141 = DIRECTION ( 'NONE',  ( 0.0000000000000000000, -1.000000000000000000, 0.0000000000000000000 ) ) ;
#142 = FACE_OUTER_BOUND ( 'NONE', #63, .T. ) ;
#143 = CARTESIAN_POINT ( 'NONE',  ( -0.5519199926577972300, 0.0000000000000000000, 0.0000000000000000000 ) ) ;
#144 = FACE_OUTER_BOUND ( 'NONE', #217, .T. ) ;
#145 = PRODUCT_DEFINITION_SHAPE ( 'NONE', 'NONE',  #255 ) ;
#146 = EDGE_CURVE ( 'NONE', #161, #272, #28, .T. ) ;
#147 = DIRECTION ( 'NONE',  ( -1.000000000000000000, -0.0000000000000000000, -0.0000000000000000000 ) ) ;
#148 = FACE_OUTER_BOUND ( 'NONE', #114, .T. ) ;
#149 = STYLED_ITEM ( 'NONE', ( #267 ), #30 ) ;
#150 = CYLINDRICAL_SURFACE ( 'NONE', #130, 12.70000000000003300 ) ;
#151 = DIRECTION ( 'NONE',  ( 0.0000000000000000000, 0.0000000000000000000, 1.000000000000000000 ) ) ;
#152 = DIRECTION ( 'NONE',  ( 1.000000000000000000, 0.0000000000000000000, 0.0000000000000000000 ) ) ;
#153 = VERTEX_POINT ( 'NONE', #74 ) ;
#154 = ORIENTED_EDGE ( 'NONE', *, *, #8, .F. ) ;
#155 = DIRECTION ( 'NONE',  ( 0.0000000000000000000, -1.000000000000000000, 0.0000000000000000000 ) ) ;
#156 = EDGE_CURVE ( 'NONE', #165, #227, #12, .T. ) ;
#157 = DIRECTION ( 'NONE',  ( 0.0000000000000000000, 0.0000000000000000000, 1.000000000000000000 ) ) ;
#159 = CARTESIAN_POINT ( 'NONE',  ( 250.0001259381127700, 0.0000000000000000000, 6.763720156497999700E-015 ) ) ;
#158 = CIRCLE ( 'NONE', #305, 12.70000000000005400 ) ;
#160 = STYLED_ITEM ( 'NONE', ( #48 ), #7 ) ;
#161 = VERTEX_POINT ( 'NONE', #173 ) ;
#162 = DIRECTION ( 'NONE',  ( 0.0000000000000000000, 0.0000000000000000000, -1.000000000000000000 ) ) ;
#163 = DIRECTION ( 'NONE',  ( -0.0000000000000000000, 1.000000000000000000, 1.224646799147353200E-016 ) ) ;
#164 = EDGE_CURVE ( 'NONE', #302, #153, #195, .T. ) ;
#165 = VERTEX_POINT ( 'NONE', #22 ) ;
#166 = CIRCLE ( 'NONE', #273, 89.33000000000008400 ) ;
#167 = CARTESIAN_POINT ( 'NONE',  ( 338.4227412579505800, 0.0000000000000000000, 0.0000000000000000000 ) ) ;
#168 = ORIENTED_EDGE ( 'NONE', *, *, #4, .T. ) ;
#169 = SPHERICAL_SURFACE ( 'NONE', #46, 89.33000000000008400 ) ;
#170 = FILL_AREA_STYLE_COLOUR ( '', #45 ) ;
#171 = AXIS2_PLACEMENT_3D ( 'NONE', #60, #270, #139 ) ;
#172 = ORIENTED_EDGE ( 'NONE', *, *, #291, .F. ) ;
#173 = CARTESIAN_POINT ( 'NONE',  ( 342.8301259381128100, 0.0000000000000000000, 8.146962831327765200E-014 ) ) ;
#174 = EDGE_LOOP ( 'NONE', ( #259, #222, #344 ) ) ;
#175 = LINE ( 'NONE', #317, #51 ) ;
#176 = EDGE_CURVE ( 'NONE', #227, #328, #182, .T. ) ;
#177 = AXIS2_PLACEMENT_3D ( 'NONE', #221, #100, #106 ) ;
#178 = CIRCLE ( 'NONE', #59, 12.70000000000000600 ) ;
#179 =( NAMED_UNIT ( * ) PLANE_ANGLE_UNIT ( ) SI_UNIT ( $, .RADIAN. ) );
#180 = CARTESIAN_POINT ( 'NONE',  ( 250.0001259381127700, 0.0000000000000000000, 6.763720156497999700E-015 ) ) ;
#181 = AXIS2_PLACEMENT_3D ( 'NONE', #68, #103, #92 ) ;
#182 = CIRCLE ( 'NONE', #136, 83.59999999999993700 ) ;
#183 = DIRECTION ( 'NONE',  ( -1.000000000000000000, -0.0000000000000000000, -0.0000000000000000000 ) ) ;
#184 = EDGE_CURVE ( 'NONE', #153, #50, #212, .T. ) ;
#185 = CARTESIAN_POINT ( 'NONE',  ( 124.5233095260452400, 1.555301434917139200E-015, -12.70000000000000600 ) ) ;
#186 = PRODUCT_DEFINITION_FORMATION_WITH_SPECIFIED_SOURCE ( 'ÈÎºÎ', '', #257, .NOT_KNOWN. ) ;
#188 = FACE_OUTER_BOUND ( 'NONE', #126, .T. ) ;
#187 = DIRECTION ( 'NONE',  ( -1.000000000000000000, -0.0000000000000000000, -0.0000000000000000000 ) ) ;
#189 = DIRECTION ( 'NONE',  ( 0.0000000000000000000, 0.0000000000000000000, 1.000000000000000000 ) ) ;
#190 = EDGE_CURVE ( 'NONE', #161, #302, #76, .T. ) ;
#191 = AXIS2_PLACEMENT_3D ( 'NONE', #167, #62, #213 ) ;
#192 = ADVANCED_FACE ( 'NONE', ( #334 ), #120, .T. ) ;
#193 = VERTEX_POINT ( 'NONE', #290 ) ;
#194 = ORIENTED_EDGE ( 'NONE', *, *, #285, .F. ) ;
#195 = LINE ( 'NONE', #49, #83 ) ;
#196 = UNCERTAINTY_MEASURE_WITH_UNIT (LENGTH_MEASURE( 1.000000000000000100E-005 ), #78, 'distance_accuracy_value', 'NONE');
#197 = SURFACE_STYLE_USAGE ( .BOTH. , #308 ) ;
#198 = SPHERICAL_SURFACE ( 'NONE', #242, 1330.499999999999800 ) ;
#199 = PRESENTATION_LAYER_ASSIGNMENT (  '', '', ( #160 ) ) ;
#200 = CARTESIAN_POINT ( 'NONE',  ( 250.0001259381127700, 0.0000000000000000000, 6.763720156497999700E-015 ) ) ;
#201 =( NAMED_UNIT ( * ) SI_UNIT ( $, .STERADIAN. ) SOLID_ANGLE_UNIT ( ) );
#202 = ORIENTED_EDGE ( 'NONE', *, *, #219, .F. ) ;
#203 = CIRCLE ( 'NONE', #313, 12.70000000000000600 ) ;
#204 = CARTESIAN_POINT ( 'NONE',  ( 336.3004097338318800, -1.555301434917135700E-015, 12.69999999999998300 ) ) ;
#205 = AXIS2_PLACEMENT_3D ( 'NONE', #54, #327, #316 ) ;
#206 = DIRECTION ( 'NONE',  ( 0.0000000000000000000, -1.000000000000000000, -1.224646799147353200E-016 ) ) ;
#207 = CIRCLE ( 'NONE', #1, 89.33000000000008400 ) ;
#208 = SURFACE_STYLE_USAGE ( .BOTH. , #282 ) ;
#209 = ORIENTED_EDGE ( 'NONE', *, *, #304, .F. ) ;
#210 = MECHANICAL_DESIGN_GEOMETRIC_PRESENTATION_REPRESENTATION (  '', ( #338 ), #90 ) ;
#212 = CIRCLE ( 'NONE', #260, 12.70000000000005400 ) ;
#211 = DIRECTION ( 'NONE',  ( 0.0000000000000000000, 0.0000000000000000000, 1.000000000000000000 ) ) ;
#213 = DIRECTION ( 'NONE',  ( 0.0000000000000000000, 0.0000000000000000000, 1.000000000000000000 ) ) ;
#214 = CARTESIAN_POINT ( 'NONE',  ( 250.0001259381127700, 0.0000000000000000000, 6.763720156497999700E-015 ) ) ;
#215 = FACE_OUTER_BOUND ( 'NONE', #58, .T. ) ;
#216 =( GEOMETRIC_REPRESENTATION_CONTEXT ( 3 ) GLOBAL_UNCERTAINTY_ASSIGNED_CONTEXT ( ( #288 ) ) GLOBAL_UNIT_ASSIGNED_CONTEXT ( ( #336, #18, #231 ) ) REPRESENTATION_CONTEXT ( 'NONE', 'WORKASPACE' ) );
#217 = EDGE_LOOP ( 'NONE', ( #39, #337, #101, #244 ) ) ;
#218 = SHAPE_DEFINITION_REPRESENTATION ( #145, #30 ) ;
#219 = EDGE_CURVE ( 'NONE', #17, #278, #122, .T. ) ;
#220 = ORIENTED_EDGE ( 'NONE', *, *, #164, .F. ) ;
#221 = CARTESIAN_POINT ( 'NONE',  ( 342.7695120057380800, 0.0000000000000000000, 0.0000000000000000000 ) ) ;
#222 = ORIENTED_EDGE ( 'NONE', *, *, #224, .T. ) ;
#223 = CYLINDRICAL_SURFACE ( 'NONE', #181, 12.70000000000000600 ) ;
#224 = EDGE_CURVE ( 'NONE', #193, #153, #66, .T. ) ;
#225 = SURFACE_STYLE_USAGE ( .BOTH. , #275 ) ;
#226 = FILL_AREA_STYLE ('',( #170 ) ) ;
#227 = VERTEX_POINT ( 'NONE', #204 ) ;
#228 = EDGE_LOOP ( 'NONE', ( #107, #345, #118 ) ) ;
#229 = AXIS2_PLACEMENT_3D ( 'NONE', #21, #261, #232 ) ;
#230 = FILL_AREA_STYLE_COLOUR ( '', #276 ) ;
#231 =( NAMED_UNIT ( * ) SI_UNIT ( $, .STERADIAN. ) SOLID_ANGLE_UNIT ( ) );
#232 = DIRECTION ( 'NONE',  ( 0.0000000000000000000, 0.0000000000000000000, -1.000000000000000000 ) ) ;
#233 = ORIENTED_EDGE ( 'NONE', *, *, #184, .F. ) ;
#234 = AXIS2_PLACEMENT_3D ( 'NONE', #309, #263, #57 ) ;
#236 = DIRECTION ( 'NONE',  ( 0.0000000000000000000, -1.224646799147353200E-016, 1.000000000000000000 ) ) ;
#235 = VECTOR ( 'NONE', #29, 1000.000000000000000 ) ;
#237 = DIRECTION ( 'NONE',  ( 0.0000000000000000000, 0.0000000000000000000, 1.000000000000000000 ) ) ;
#238 = PRODUCT_RELATED_PRODUCT_CATEGORY ( 'part', '', ( #257 ) ) ;
#239 = ORIENTED_EDGE ( 'NONE', *, *, #32, .F. ) ;
#240 = DIRECTION ( 'NONE',  ( -1.000000000000000000, -0.0000000000000000000, -0.0000000000000000000 ) ) ;
#241 = CARTESIAN_POINT ( 'NONE',  ( -987.6698740618869600, 0.0000000000000000000, 0.0000000000000000000 ) ) ;
#242 = AXIS2_PLACEMENT_3D ( 'NONE', #241, #312, #211 ) ;
#243 = CARTESIAN_POINT ( 'NONE',  ( 250.0001259381127700, 0.0000000000000000000, 6.763720156497999700E-015 ) ) ;
#244 = ORIENTED_EDGE ( 'NONE', *, *, #156, .F. ) ;
#245 = PRESENTATION_STYLE_ASSIGNMENT (( #225 ) ) ;
#246 = CYLINDRICAL_SURFACE ( 'NONE', #34, 12.70000000000000600 ) ;
#247 = FACE_OUTER_BOUND ( 'NONE', #2, .T. ) ;
#248 = FILL_AREA_STYLE_COLOUR ( '', #283 ) ;
#249 = CARTESIAN_POINT ( 'NONE',  ( 336.3004097338318800, 0.0000000000000000000, 0.0000000000000000000 ) ) ;
#250 = DIRECTION ( 'NONE',  ( -1.000000000000000000, -0.0000000000000000000, -0.0000000000000000000 ) ) ;
#251 = UNCERTAINTY_MEASURE_WITH_UNIT (LENGTH_MEASURE( 1.000000000000000100E-005 ), #72, 'distance_accuracy_value', 'NONE');
#252 = DIRECTION ( 'NONE',  ( -0.0000000000000000000, 1.000000000000000000, 1.224646799147353200E-016 ) ) ;
#253 = VERTEX_POINT ( 'NONE', #81 ) ;
#254 = CARTESIAN_POINT ( 'NONE',  ( -0.5519199926577972300, 0.0000000000000000000, 0.0000000000000000000 ) ) ;
#255 = PRODUCT_DEFINITION ( 'Î´Öª', '', #186, #307 ) ;
#256 = SPHERICAL_SURFACE ( 'NONE', #53, 89.33000000000008400 ) ;
#257 = PRODUCT ( '145124', '145124', '', ( #315 ) ) ;
#258 = DIRECTION ( 'NONE',  ( -0.0000000000000000000, -1.000000000000000000, -0.0000000000000000000 ) ) ;
#259 = ORIENTED_EDGE ( 'NONE', *, *, #38, .F. ) ;
#260 = AXIS2_PLACEMENT_3D ( 'NONE', #115, #240, #85 ) ;
#261 = DIRECTION ( 'NONE',  ( -0.0000000000000000000, -1.000000000000000000, -0.0000000000000000000 ) ) ;
#262 = DIRECTION ( 'NONE',  ( 0.0000000000000000000, 0.0000000000000000000, 1.000000000000000000 ) ) ;
#263 = DIRECTION ( 'NONE',  ( 0.0000000000000000000, 1.000000000000000000, 0.0000000000000000000 ) ) ;
#264 = ORIENTED_EDGE ( 'NONE', *, *, #318, .T. ) ;
#265 = CARTESIAN_POINT ( 'NONE',  ( 250.0001259381127700, 0.0000000000000000000, 6.763720156497999700E-015 ) ) ;
#266 = AXIS2_PLACEMENT_3D ( 'NONE', #200, #40, #331 ) ;
#267 = PRESENTATION_STYLE_ASSIGNMENT (( #208 ) ) ;
#268 = ADVANCED_FACE ( 'NONE', ( #138 ), #102, .T. ) ;
#269 = DIRECTION ( 'NONE',  ( -1.000000000000000000, -0.0000000000000000000, -0.0000000000000000000 ) ) ;
#270 = DIRECTION ( 'NONE',  ( -1.000000000000000000, -0.0000000000000000000, -0.0000000000000000000 ) ) ;
#271 =( NAMED_UNIT ( * ) PLANE_ANGLE_UNIT ( ) SI_UNIT ( $, .RADIAN. ) );
#272 = VERTEX_POINT ( 'NONE', #105 ) ;
#273 = AXIS2_PLACEMENT_3D ( 'NONE', #137, #155, #322 ) ;
#274 = ADVANCED_FACE ( 'NONE', ( #142 ), #169, .F. ) ;
#275 = SURFACE_SIDE_STYLE ('',( #15 ) ) ;
#276 = COLOUR_RGB ( '',1.000000000000000000, 1.000000000000000000, 1.000000000000000000 ) ;
#277 = DIRECTION ( 'NONE',  ( 0.0000000000000000000, 0.0000000000000000000, 1.000000000000000000 ) ) ;
#278 = VERTEX_POINT ( 'NONE', #133 ) ;
#279 = DIRECTION ( 'NONE',  ( -1.000000000000000000, -0.0000000000000000000, -0.0000000000000000000 ) ) ;
#280 = CARTESIAN_POINT ( 'NONE',  ( 0.0000000000000000000, 0.0000000000000000000, 0.0000000000000000000 ) ) ;
#281 = SURFACE_STYLE_FILL_AREA ( #61 ) ;
#282 = SURFACE_SIDE_STYLE ('',( #281 ) ) ;
#283 = COLOUR_RGB ( '',1.000000000000000000, 1.000000000000000000, 1.000000000000000000 ) ;
#284 = CIRCLE ( 'NONE', #177, 12.70000000000001000 ) ;
#285 = EDGE_CURVE ( 'NONE', #17, #227, #175, .T. ) ;
#286 = ORIENTED_EDGE ( 'NONE', *, *, #65, .F. ) ;
#287 = DIRECTION ( 'NONE',  ( 0.0000000000000000000, 0.0000000000000000000, -1.000000000000000000 ) ) ;
#288 = UNCERTAINTY_MEASURE_WITH_UNIT (LENGTH_MEASURE( 1.000000000000000100E-005 ), #336, 'distance_accuracy_value', 'NONE');
#289 = CARTESIAN_POINT ( 'NONE',  ( 338.4227412579505800, 0.0000000000000000000, 0.0000000000000000000 ) ) ;
#290 = CARTESIAN_POINT ( 'NONE',  ( 339.3301259381128700, 0.0000000000000000000, 1.223360508488965800E-014 ) ) ;
#291 = EDGE_CURVE ( 'NONE', #50, #153, #158, .T. ) ;
#292 = CARTESIAN_POINT ( 'NONE',  ( -0.5519199926577972300, 0.0000000000000000000, 12.70000000000003300 ) ) ;
#293 = AXIS2_PLACEMENT_3D ( 'NONE', #335, #295, #277 ) ;
#294 = ADVANCED_FACE ( 'NONE', ( #41 ), #256, .F. ) ;
#295 = DIRECTION ( 'NONE',  ( 0.0000000000000000000, 1.000000000000000000, -0.0000000000000000000 ) ) ;
#296 = DIRECTION ( 'NONE',  ( -1.000000000000000000, -0.0000000000000000000, -0.0000000000000000000 ) ) ;
#297 = ORIENTED_EDGE ( 'NONE', *, *, #291, .T. ) ;
#298 = DIRECTION ( 'NONE',  ( -1.000000000000000000, -0.0000000000000000000, -0.0000000000000000000 ) ) ;
#299 = AXIS2_PLACEMENT_3D ( 'NONE', #159, #19, #329 ) ;
#300 = DIRECTION ( 'NONE',  ( 0.0000000000000000000, 0.0000000000000000000, 1.000000000000000000 ) ) ;
#301 = ADVANCED_FACE ( 'NONE', ( #303 ), #198, .T. ) ;
#302 = VERTEX_POINT ( 'NONE', #343 ) ;
#303 = FACE_OUTER_BOUND ( 'NONE', #228, .T. ) ;
#304 = EDGE_CURVE ( 'NONE', #253, #17, #207, .T. ) ;
#305 = AXIS2_PLACEMENT_3D ( 'NONE', #89, #269, #42 ) ;
#306 = DIRECTION ( 'NONE',  ( -1.000000000000000000, -0.0000000000000000000, -0.0000000000000000000 ) ) ;
#307 = PRODUCT_DEFINITION_CONTEXT ( 'detailed design', #84, 'design' ) ;
#308 = SURFACE_SIDE_STYLE ('',( #93 ) ) ;
#309 = CARTESIAN_POINT ( 'NONE',  ( 250.0001259381127700, 0.0000000000000000000, 6.763720156497999700E-015 ) ) ;
#310 = ORIENTED_EDGE ( 'NONE', *, *, #224, .F. ) ;
#311 = ORIENTED_EDGE ( 'NONE', *, *, #333, .T. ) ;
#312 = DIRECTION ( 'NONE',  ( 0.0000000000000000000, 1.000000000000000000, 0.0000000000000000000 ) ) ;
#313 = AXIS2_PLACEMENT_3D ( 'NONE', #249, #306, #237 ) ;
#314 = AXIS2_PLACEMENT_3D ( 'NONE', #280, #341, #152 ) ;
#315 = PRODUCT_CONTEXT ( 'NONE', #52, 'mechanical' ) ;
#316 = DIRECTION ( 'NONE',  ( 0.0000000000000000000, 0.0000000000000000000, 1.000000000000000000 ) ) ;
#317 = CARTESIAN_POINT ( 'NONE',  ( 124.5233095260452400, 0.0000000000000000000, 12.70000000000000600 ) ) ;
#318 = EDGE_CURVE ( 'NONE', #278, #165, #330, .T. ) ;
#319 = ORIENTED_EDGE ( 'NONE', *, *, #176, .F. ) ;
#320 = DIRECTION ( 'NONE',  ( 0.0000000000000000000, 0.0000000000000000000, 1.000000000000000000 ) ) ;
#322 = DIRECTION ( 'NONE',  ( 0.0000000000000000000, 0.0000000000000000000, -1.000000000000000000 ) ) ;
#321 = CIRCLE ( 'NONE', #113, 12.70000000000001000 ) ;
#323 = ADVANCED_FACE ( 'NONE', ( #144 ), #246, .T. ) ;
#324 = ORIENTED_EDGE ( 'NONE', *, *, #156, .T. ) ;
#325 = CLOSED_SHELL ( 'NONE', ( #96, #5, #268, #44, #323, #125 ) ) ;
#326 = CARTESIAN_POINT ( 'NONE',  ( 418.9301259381127200, 0.0000000000000000000, 7.053245506243238500E-015 ) ) ;
#327 = DIRECTION ( 'NONE',  ( 0.0000000000000000000, 1.000000000000000000, 0.0000000000000000000 ) ) ;
#328 = VERTEX_POINT ( 'NONE', #11 ) ;
#329 = DIRECTION ( 'NONE',  ( 0.0000000000000000000, 0.0000000000000000000, 1.000000000000000000 ) ) ;
#330 = LINE ( 'NONE', #185, #235 ) ;
#331 = DIRECTION ( 'NONE',  ( 0.0000000000000000000, -1.224646799147353200E-016, 1.000000000000000000 ) ) ;
#332 = EDGE_LOOP ( 'NONE', ( #91, #112, #172, #31 ) ) ;
#333 = EDGE_CURVE ( 'NONE', #227, #165, #203, .T. ) ;
#334 = FACE_OUTER_BOUND ( 'NONE', #332, .T. ) ;
#335 = CARTESIAN_POINT ( 'NONE',  ( 418.9301259381127200, 0.0000000000000000000, 7.053245506243238500E-015 ) ) ;
#336 =( LENGTH_UNIT ( ) NAMED_UNIT ( * ) SI_UNIT ( .MILLI., .METRE. ) );
#337 = ORIENTED_EDGE ( 'NONE', *, *, #8, .T. ) ;
#338 = STYLED_ITEM ( 'NONE', ( #245 ), #6 ) ;
#339 = FACE_OUTER_BOUND ( 'NONE', #27, .T. ) ;
#340 = ORIENTED_EDGE ( 'NONE', *, *, #38, .T. ) ;
#341 = DIRECTION ( 'NONE',  ( 0.0000000000000000000, 0.0000000000000000000, 1.000000000000000000 ) ) ;
#342 =( GEOMETRIC_REPRESENTATION_CONTEXT ( 3 ) GLOBAL_UNCERTAINTY_ASSIGNED_CONTEXT ( ( #14 ) ) GLOBAL_UNIT_ASSIGNED_CONTEXT ( ( #25, #179, #110 ) ) REPRESENTATION_CONTEXT ( 'NONE', 'WORKASPACE' ) );
#343 = CARTESIAN_POINT ( 'NONE',  ( 342.7695120057380800, 1.555301434917141400E-015, -12.70000000000001000 ) ) ;
#344 = ORIENTED_EDGE ( 'NONE', *, *, #184, .T. ) ;
#345 = ORIENTED_EDGE ( 'NONE', *, *, #146, .T. ) ;
#346 = SPHERICAL_SURFACE ( 'NONE', #229, 83.59999999999993700 ) ;
#347 = DIRECTION ( 'NONE',  ( 0.0000000000000000000, 1.224646799147353200E-016, -1.000000000000000000 ) ) ;
ENDSEC;
END-ISO-10303-21;
