ISO-10303-21;
HEADER;
FILE_DESCRIPTION (( 'STEP AP214' ),
    '1' );
FILE_NAME ('145133.STEP',
    '2019-06-04T06:49:58',
    ( 'user' ),
    ( 'Î¢ÈíÖÐ¹ú' ),
    'SwSTEP 2.0',
    'SolidWorks 2016',
    '' );
FILE_SCHEMA (( 'AUTOMOTIVE_DESIGN' ));
ENDSEC;

DATA;
#1 = CARTESIAN_POINT ( 'NONE',  ( -0.5519199926577972300, 0.0000000000000000000, 25.39999999999999900 ) ) ;
#2 = AXIS2_PLACEMENT_3D ( 'NONE', #186, #141, #316 ) ;
#3 = DIRECTION ( 'NONE',  ( -1.000000000000000000, -0.0000000000000000000, -0.0000000000000000000 ) ) ;
#4 = EDGE_LOOP ( 'NONE', ( #172, #343, #41 ) ) ;
#5 = ORIENTED_EDGE ( 'NONE', *, *, #45, .T. ) ;
#6 = AXIS2_PLACEMENT_3D ( 'NONE', #291, #187, #344 ) ;
#7 = AXIS2_PLACEMENT_3D ( 'NONE', #72, #40, #93 ) ;
#8 = CARTESIAN_POINT ( 'NONE',  ( 253.8867532200956700, 0.0000000000000000000, 0.0000000000000000000 ) ) ;
#9 = COLOUR_RGB ( '',1.000000000000000000, 1.000000000000000000, 1.000000000000000000 ) ;
#10 = ORIENTED_EDGE ( 'NONE', *, *, #269, .F. ) ;
#11 = LINE ( 'NONE', #88, #131 ) ;
#12 = ADVANCED_FACE ( 'NONE', ( #305 ), #28, .T. ) ;
#13 = ORIENTED_EDGE ( 'NONE', *, *, #45, .F. ) ;
#14 = CIRCLE ( 'NONE', #153, 25.39999999999999100 ) ;
#15 = AXIS2_PLACEMENT_3D ( 'NONE', #317, #3, #54 ) ;
#16 =( NAMED_UNIT ( * ) SI_UNIT ( $, .STERADIAN. ) SOLID_ANGLE_UNIT ( ) );
#17 = ADVANCED_FACE ( 'NONE', ( #280 ), #202, .T. ) ;
#18 = DIRECTION ( 'NONE',  ( -1.000000000000000000, -0.0000000000000000000, -0.0000000000000000000 ) ) ;
#19 = DIRECTION ( 'NONE',  ( 0.0000000000000000000, -1.000000000000000000, 0.0000000000000000000 ) ) ;
#20 = APPLICATION_PROTOCOL_DEFINITION ( 'draft international standard', 'automotive_design', 1998, #333 ) ;
#21 = CARTESIAN_POINT ( 'NONE',  ( 124.5233095260452400, 0.0000000000000000000, 0.0000000000000000000 ) ) ;
#22 = ORIENTED_EDGE ( 'NONE', *, *, #168, .F. ) ;
#23 = CIRCLE ( 'NONE', #303, 25.39999999999999900 ) ;
#24 = DIRECTION ( 'NONE',  ( 0.0000000000000000000, 0.0000000000000000000, 1.000000000000000000 ) ) ;
#25 = DIRECTION ( 'NONE',  ( 0.0000000000000000000, 1.000000000000000000, 0.0000000000000000000 ) ) ;
#26 = AXIS2_PLACEMENT_3D ( 'NONE', #262, #110, #288 ) ;
#27 = DIRECTION ( 'NONE',  ( 0.0000000000000000000, 0.0000000000000000000, 1.000000000000000000 ) ) ;
#28 = CYLINDRICAL_SURFACE ( 'NONE', #94, 25.39999999999999900 ) ;
#29 = DIRECTION ( 'NONE',  ( -1.000000000000000000, -0.0000000000000000000, -0.0000000000000000000 ) ) ;
#30 = DIRECTION ( 'NONE',  ( -1.000000000000000000, -0.0000000000000000000, -0.0000000000000000000 ) ) ;
#31 = EDGE_LOOP ( 'NONE', ( #22, #144, #246 ) ) ;
#32 = PRESENTATION_STYLE_ASSIGNMENT (( #42 ) ) ;
#33 = DIRECTION ( 'NONE',  ( 0.0000000000000000000, 0.0000000000000000000, 1.000000000000000000 ) ) ;
#34 = ORIENTED_EDGE ( 'NONE', *, *, #251, .T. ) ;
#35 = DIRECTION ( 'NONE',  ( 0.0000000000000000000, 0.0000000000000000000, -1.000000000000000000 ) ) ;
#36 = PRODUCT_DEFINITION_FORMATION_WITH_SPECIFIED_SOURCE ( 'ÈÎºÎ', '', #293, .NOT_KNOWN. ) ;
#37 = FACE_OUTER_BOUND ( 'NONE', #208, .T. ) ;
#38 = PRODUCT_DEFINITION_CONTEXT ( 'detailed design', #277, 'design' ) ;
#39 = AXIS2_PLACEMENT_3D ( 'NONE', #21, #213, #296 ) ;
#40 = DIRECTION ( 'NONE',  ( 0.0000000000000000000, -1.000000000000000000, 0.0000000000000000000 ) ) ;
#41 = ORIENTED_EDGE ( 'NONE', *, *, #67, .T. ) ;
#42 = SURFACE_STYLE_USAGE ( .BOTH. , #105 ) ;
#43 = ORIENTED_EDGE ( 'NONE', *, *, #221, .T. ) ;
#44 = DIRECTION ( 'NONE',  ( 0.0000000000000000000, 0.0000000000000000000, 1.000000000000000000 ) ) ;
#45 = EDGE_CURVE ( 'NONE', #73, #228, #184, .T. ) ;
#46 = CARTESIAN_POINT ( 'NONE',  ( 543.8764944179525900, 3.110602869834276900E-015, -25.39999999999999900 ) ) ;
#47 = DIRECTION ( 'NONE',  ( -1.000000000000000000, -0.0000000000000000000, -0.0000000000000000000 ) ) ;
#48 = PRESENTATION_STYLE_ASSIGNMENT (( #154 ) ) ;
#49 = DIRECTION ( 'NONE',  ( 0.0000000000000000000, -1.224646799147353200E-016, 1.000000000000000000 ) ) ;
#50 = FILL_AREA_STYLE ('',( #301 ) ) ;
#51 = ORIENTED_EDGE ( 'NONE', *, *, #66, .F. ) ;
#52 = DIRECTION ( 'NONE',  ( 0.0000000000000000000, 0.0000000000000000000, 1.000000000000000000 ) ) ;
#53 = AXIS2_PLACEMENT_3D ( 'NONE', #192, #29, #216 ) ;
#54 = DIRECTION ( 'NONE',  ( 0.0000000000000000000, 0.0000000000000000000, 1.000000000000000000 ) ) ;
#55 = MECHANICAL_DESIGN_GEOMETRIC_PRESENTATION_REPRESENTATION (  '', ( #120 ), #321 ) ;
#56 =( GEOMETRIC_REPRESENTATION_CONTEXT ( 3 ) GLOBAL_UNCERTAINTY_ASSIGNED_CONTEXT ( ( #220 ) ) GLOBAL_UNIT_ASSIGNED_CONTEXT ( ( #147, #129, #330 ) ) REPRESENTATION_CONTEXT ( 'NONE', 'WORKASPACE' ) );
#57 = CARTESIAN_POINT ( 'NONE',  ( 534.6416538182779700, 3.110602869834276500E-015, -25.39999999999999900 ) ) ;
#58 = EDGE_CURVE ( 'NONE', #228, #270, #298, .T. ) ;
#59 = CIRCLE ( 'NONE', #75, 25.39999999999999100 ) ;
#60 = AXIS2_PLACEMENT_3D ( 'NONE', #174, #44, #70 ) ;
#61 = VERTEX_POINT ( 'NONE', #46 ) ;
#62 =( LENGTH_UNIT ( ) NAMED_UNIT ( * ) SI_UNIT ( .MILLI., .METRE. ) );
#63 = MANIFOLD_SOLID_BREP ( 'Ðý×ª1', #162 ) ;
#64 = ORIENTED_EDGE ( 'NONE', *, *, #128, .F. ) ;
#65 = PRESENTATION_STYLE_ASSIGNMENT (( #158 ) ) ;
#66 = EDGE_CURVE ( 'NONE', #290, #84, #266, .T. ) ;
#67 = EDGE_CURVE ( 'NONE', #270, #228, #222, .T. ) ;
#68 = SPHERICAL_SURFACE ( 'NONE', #89, 93.10000000000000900 ) ;
#69 = LINE ( 'NONE', #180, #189 ) ;
#70 = DIRECTION ( 'NONE',  ( 1.000000000000000000, 0.0000000000000000000, 0.0000000000000000000 ) ) ;
#71 = CARTESIAN_POINT ( 'NONE',  ( 543.8764944179525900, 0.0000000000000000000, 25.39999999999999900 ) ) ;
#72 = CARTESIAN_POINT ( 'NONE',  ( 446.8867532200956700, 0.0000000000000000000, -6.938893903907228400E-015 ) ) ;
#73 = VERTEX_POINT ( 'NONE', #71 ) ;
#74 = ORIENTED_EDGE ( 'NONE', *, *, #140, .F. ) ;
#75 = AXIS2_PLACEMENT_3D ( 'NONE', #239, #137, #24 ) ;
#76 = PRODUCT_CONTEXT ( 'NONE', #333, 'mechanical' ) ;
#77 = CARTESIAN_POINT ( 'NONE',  ( 536.4548837130338400, 0.0000000000000000000, 25.39999999999999100 ) ) ;
#78 = CARTESIAN_POINT ( 'NONE',  ( 543.8764944179525900, 0.0000000000000000000, 0.0000000000000000000 ) ) ;
#79 = DIRECTION ( 'NONE',  ( 0.0000000000000000000, 0.0000000000000000000, 1.000000000000000000 ) ) ;
#80 = FACE_OUTER_BOUND ( 'NONE', #335, .T. ) ;
#81 = DIRECTION ( 'NONE',  ( 0.0000000000000000000, 1.000000000000000000, 0.0000000000000000000 ) ) ;
#82 = DIRECTION ( 'NONE',  ( 0.0000000000000000000, 0.0000000000000000000, 1.000000000000000000 ) ) ;
#83 = UNCERTAINTY_MEASURE_WITH_UNIT (LENGTH_MEASURE( 1.000000000000000100E-005 ), #328, 'distance_accuracy_value', 'NONE');
#84 = VERTEX_POINT ( 'NONE', #284 ) ;
#85 = EDGE_CURVE ( 'NONE', #308, #73, #209, .T. ) ;
#86 =( NAMED_UNIT ( * ) SI_UNIT ( $, .STERADIAN. ) SOLID_ANGLE_UNIT ( ) );
#87 = STYLED_ITEM ( 'NONE', ( #48 ), #115 ) ;
#88 = CARTESIAN_POINT ( 'NONE',  ( 124.5233095260452400, 0.0000000000000000000, 25.39999999999999100 ) ) ;
#89 = AXIS2_PLACEMENT_3D ( 'NONE', #119, #25, #27 ) ;
#90 = ORIENTED_EDGE ( 'NONE', *, *, #107, .T. ) ;
#91 = ORIENTED_EDGE ( 'NONE', *, *, #85, .T. ) ;
#92 = AXIS2_PLACEMENT_3D ( 'NONE', #181, #225, #35 ) ;
#93 = DIRECTION ( 'NONE',  ( 0.0000000000000000000, 0.0000000000000000000, -1.000000000000000000 ) ) ;
#94 = AXIS2_PLACEMENT_3D ( 'NONE', #244, #167, #219 ) ;
#95 = AXIS2_PLACEMENT_3D ( 'NONE', #241, #81, #118 ) ;
#96 = FACE_OUTER_BOUND ( 'NONE', #111, .T. ) ;
#97 = ORIENTED_EDGE ( 'NONE', *, *, #334, .F. ) ;
#98 = CIRCLE ( 'NONE', #53, 25.39999999999999100 ) ;
#99 = DIRECTION ( 'NONE',  ( 0.0000000000000000000, -1.224646799147353200E-016, 1.000000000000000000 ) ) ;
#100 = SURFACE_SIDE_STYLE ('',( #122 ) ) ;
#101 = FILL_AREA_STYLE ('',( #332 ) ) ;
#102 = SHAPE_DEFINITION_REPRESENTATION ( #322, #115 ) ;
#103 = ADVANCED_FACE ( 'NONE', ( #261 ), #68, .T. ) ;
#104 = DIRECTION ( 'NONE',  ( -1.000000000000000000, -0.0000000000000000000, -0.0000000000000000000 ) ) ;
#105 = SURFACE_SIDE_STYLE ('',( #267 ) ) ;
#106 =( NAMED_UNIT ( * ) PLANE_ANGLE_UNIT ( ) SI_UNIT ( $, .RADIAN. ) );
#107 = EDGE_CURVE ( 'NONE', #217, #236, #323, .T. ) ;
#108 = ADVANCED_FACE ( 'NONE', ( #319 ), #170, .F. ) ;
#109 = APPLICATION_PROTOCOL_DEFINITION ( 'draft international standard', 'automotive_design', 1998, #277 ) ;
#110 = DIRECTION ( 'NONE',  ( -0.0000000000000000000, 1.000000000000000000, 1.224646799147353200E-016 ) ) ;
#111 = EDGE_LOOP ( 'NONE', ( #135, #90, #169, #74 ) ) ;
#112 = DIRECTION ( 'NONE',  ( 0.0000000000000000000, 0.0000000000000000000, 1.000000000000000000 ) ) ;
#113 = ORIENTED_EDGE ( 'NONE', *, *, #128, .T. ) ;
#114 = DIRECTION ( 'NONE',  ( 0.0000000000000000000, 0.0000000000000000000, 1.000000000000000000 ) ) ;
#115 = ADVANCED_BREP_SHAPE_REPRESENTATION ( '145133', ( #63, #279, #60 ), #56 ) ;
#116 = CARTESIAN_POINT ( 'NONE',  ( 536.4548837130338400, 0.0000000000000000000, 0.0000000000000000000 ) ) ;
#117 = ORIENTED_EDGE ( 'NONE', *, *, #85, .F. ) ;
#118 = DIRECTION ( 'NONE',  ( 0.0000000000000000000, 0.0000000000000000000, 1.000000000000000000 ) ) ;
#119 = CARTESIAN_POINT ( 'NONE',  ( 446.8867532200956700, 0.0000000000000000000, -6.938893903907228400E-015 ) ) ;
#120 = STYLED_ITEM ( 'NONE', ( #32 ), #279 ) ;
#121 = EDGE_LOOP ( 'NONE', ( #10, #155, #260 ) ) ;
#122 = SURFACE_STYLE_FILL_AREA ( #50 ) ;
#123 = CARTESIAN_POINT ( 'NONE',  ( 579.7867532200956500, 0.0000000000000000000, -6.938893903286825600E-015 ) ) ;
#124 = MECHANICAL_DESIGN_GEOMETRIC_PRESENTATION_REPRESENTATION (  '', ( #156 ), #234 ) ;
#125 = ORIENTED_EDGE ( 'NONE', *, *, #263, .F. ) ;
#126 = SPHERICAL_SURFACE ( 'NONE', #149, 291.1000000000000800 ) ;
#127 = CIRCLE ( 'NONE', #26, 93.09999999999999400 ) ;
#128 = EDGE_CURVE ( 'NONE', #290, #223, #59, .T. ) ;
#129 =( NAMED_UNIT ( * ) PLANE_ANGLE_UNIT ( ) SI_UNIT ( $, .RADIAN. ) );
#130 = ORIENTED_EDGE ( 'NONE', *, *, #58, .T. ) ;
#131 = VECTOR ( 'NONE', #47, 1000.000000000000000 ) ;
#132 = COLOUR_RGB ( '',1.000000000000000000, 1.000000000000000000, 1.000000000000000000 ) ;
#133 = CARTESIAN_POINT ( 'NONE',  ( 539.9867532200956900, 0.0000000000000000000, -1.238163053876299000E-015 ) ) ;
#134 = CIRCLE ( 'NONE', #2, 93.09999999999999400 ) ;
#135 = ORIENTED_EDGE ( 'NONE', *, *, #221, .F. ) ;
#136 = CYLINDRICAL_SURFACE ( 'NONE', #287, 25.39999999999999100 ) ;
#137 = DIRECTION ( 'NONE',  ( -1.000000000000000000, -0.0000000000000000000, -0.0000000000000000000 ) ) ;
#138 = ADVANCED_FACE ( 'NONE', ( #326 ), #229, .T. ) ;
#139 = ORIENTED_EDGE ( 'NONE', *, *, #200, .F. ) ;
#140 = EDGE_CURVE ( 'NONE', #223, #290, #14, .T. ) ;
#141 = DIRECTION ( 'NONE',  ( -0.0000000000000000000, 1.000000000000000000, 1.224646799147353200E-016 ) ) ;
#142 = FACE_OUTER_BOUND ( 'NONE', #226, .T. ) ;
#143 = DIRECTION ( 'NONE',  ( 0.0000000000000000000, 0.0000000000000000000, 1.000000000000000000 ) ) ;
#144 = ORIENTED_EDGE ( 'NONE', *, *, #269, .T. ) ;
#145 = VERTEX_POINT ( 'NONE', #286 ) ;
#146 = ORIENTED_EDGE ( 'NONE', *, *, #249, .T. ) ;
#147 =( LENGTH_UNIT ( ) NAMED_UNIT ( * ) SI_UNIT ( .MILLI., .METRE. ) );
#148 = FACE_OUTER_BOUND ( 'NONE', #245, .T. ) ;
#149 = AXIS2_PLACEMENT_3D ( 'NONE', #204, #253, #255 ) ;
#150 = UNCERTAINTY_MEASURE_WITH_UNIT (LENGTH_MEASURE( 1.000000000000000100E-005 ), #62, 'distance_accuracy_value', 'NONE');
#151 = ORIENTED_EDGE ( 'NONE', *, *, #242, .T. ) ;
#152 = CIRCLE ( 'NONE', #271, 25.39999999999999900 ) ;
#153 = AXIS2_PLACEMENT_3D ( 'NONE', #337, #104, #198 ) ;
#154 = SURFACE_STYLE_USAGE ( .BOTH. , #161 ) ;
#155 = ORIENTED_EDGE ( 'NONE', *, *, #168, .T. ) ;
#156 = STYLED_ITEM ( 'NONE', ( #65 ), #63 ) ;
#157 = ORIENTED_EDGE ( 'NONE', *, *, #249, .F. ) ;
#158 = SURFACE_STYLE_USAGE ( .BOTH. , #100 ) ;
#159 = ADVANCED_FACE ( 'NONE', ( #142 ), #252, .T. ) ;
#160 = CARTESIAN_POINT ( 'NONE',  ( 536.4548837130338400, 3.110602869834275300E-015, -25.39999999999999100 ) ) ;
#161 = SURFACE_SIDE_STYLE ('',( #300 ) ) ;
#162 = CLOSED_SHELL ( 'NONE', ( #103, #233, #17, #230, #212, #207 ) ) ;
#163 = CIRCLE ( 'NONE', #7, 93.09999999999999400 ) ;
#164 = EDGE_LOOP ( 'NONE', ( #302, #34, #130 ) ) ;
#165 = CARTESIAN_POINT ( 'NONE',  ( 446.8867532200956700, 0.0000000000000000000, -6.938893903907228400E-015 ) ) ;
#166 = PRESENTATION_LAYER_ASSIGNMENT (  '', '', ( #120 ) ) ;
#167 = DIRECTION ( 'NONE',  ( -1.000000000000000000, -0.0000000000000000000, -0.0000000000000000000 ) ) ;
#168 = EDGE_CURVE ( 'NONE', #297, #217, #134, .T. ) ;
#169 = ORIENTED_EDGE ( 'NONE', *, *, #278, .T. ) ;
#170 = SPHERICAL_SURFACE ( 'NONE', #191, 93.09999999999999400 ) ;
#171 = AXIS2_PLACEMENT_3D ( 'NONE', #227, #182, #257 ) ;
#172 = ORIENTED_EDGE ( 'NONE', *, *, #251, .F. ) ;
#173 = ORIENTED_EDGE ( 'NONE', *, *, #215, .T. ) ;
#174 = CARTESIAN_POINT ( 'NONE',  ( 0.0000000000000000000, 0.0000000000000000000, 0.0000000000000000000 ) ) ;
#175 = EDGE_LOOP ( 'NONE', ( #157, #318, #5, #346 ) ) ;
#176 = FILL_AREA_STYLE_COLOUR ( '', #132 ) ;
#177 = CARTESIAN_POINT ( 'NONE',  ( 534.6416538182779700, 0.0000000000000000000, 25.39999999999999100 ) ) ;
#178 = AXIS2_PLACEMENT_3D ( 'NONE', #310, #313, #52 ) ;
#179 = LINE ( 'NONE', #345, #307 ) ;
#180 = CARTESIAN_POINT ( 'NONE',  ( -0.5519199926577972300, 3.110602869834276900E-015, -25.39999999999999900 ) ) ;
#181 = CARTESIAN_POINT ( 'NONE',  ( 446.8867532200956700, 0.0000000000000000000, -6.938893903907228400E-015 ) ) ;
#182 = DIRECTION ( 'NONE',  ( -1.000000000000000000, -0.0000000000000000000, -0.0000000000000000000 ) ) ;
#183 = AXIS2_PLACEMENT_3D ( 'NONE', #285, #294, #79 ) ;
#184 = LINE ( 'NONE', #1, #342 ) ;
#185 = CARTESIAN_POINT ( 'NONE',  ( 536.4548837130338400, 3.110602869834276100E-015, -25.39999999999999100 ) ) ;
#186 = CARTESIAN_POINT ( 'NONE',  ( 446.8867532200956700, 0.0000000000000000000, -6.938893903907228400E-015 ) ) ;
#187 = DIRECTION ( 'NONE',  ( 0.0000000000000000000, -1.000000000000000000, 0.0000000000000000000 ) ) ;
#188 = DIRECTION ( 'NONE',  ( 0.0000000000000000000, 0.0000000000000000000, 1.000000000000000000 ) ) ;
#189 = VECTOR ( 'NONE', #235, 1000.000000000000000 ) ;
#190 = CARTESIAN_POINT ( 'NONE',  ( 536.4548837130338400, 0.0000000000000000000, 0.0000000000000000000 ) ) ;
#191 = AXIS2_PLACEMENT_3D ( 'NONE', #320, #268, #299 ) ;
#192 = CARTESIAN_POINT ( 'NONE',  ( 536.4548837130338400, 0.0000000000000000000, 0.0000000000000000000 ) ) ;
#193 = CARTESIAN_POINT ( 'NONE',  ( 124.5233095260452400, 0.0000000000000000000, 0.0000000000000000000 ) ) ;
#194 = AXIS2_PLACEMENT_3D ( 'NONE', #165, #339, #289 ) ;
#195 = ORIENTED_EDGE ( 'NONE', *, *, #140, .T. ) ;
#196 = DIRECTION ( 'NONE',  ( -1.000000000000000000, -0.0000000000000000000, -0.0000000000000000000 ) ) ;
#197 = SPHERICAL_SURFACE ( 'NONE', #95, 51.79999999999996900 ) ;
#198 = DIRECTION ( 'NONE',  ( 0.0000000000000000000, 0.0000000000000000000, 1.000000000000000000 ) ) ;
#199 = EDGE_LOOP ( 'NONE', ( #113, #151, #51 ) ) ;
#200 = EDGE_CURVE ( 'NONE', #61, #73, #152, .T. ) ;
#201 = ORIENTED_EDGE ( 'NONE', *, *, #334, .T. ) ;
#202 = SPHERICAL_SURFACE ( 'NONE', #324, 51.79999999999996900 ) ;
#203 = AXIS2_PLACEMENT_3D ( 'NONE', #8, #224, #99 ) ;
#204 = CARTESIAN_POINT ( 'NONE',  ( 253.8867532200956700, 0.0000000000000000000, 0.0000000000000000000 ) ) ;
#205 = PRODUCT_RELATED_PRODUCT_CATEGORY ( 'part', '', ( #293 ) ) ;
#206 = CARTESIAN_POINT ( 'NONE',  ( 579.7867532200956500, 0.0000000000000000000, -6.938893903286825600E-015 ) ) ;
#207 = ADVANCED_FACE ( 'NONE', ( #276 ), #247, .T. ) ;
#208 = EDGE_LOOP ( 'NONE', ( #281, #195, #275 ) ) ;
#209 = CIRCLE ( 'NONE', #6, 291.1000000000000800 ) ;
#210 =( LENGTH_UNIT ( ) NAMED_UNIT ( * ) SI_UNIT ( .MILLI., .METRE. ) );
#211 =( NAMED_UNIT ( * ) PLANE_ANGLE_UNIT ( ) SI_UNIT ( $, .RADIAN. ) );
#212 = ADVANCED_FACE ( 'NONE', ( #96 ), #314, .T. ) ;
#213 = DIRECTION ( 'NONE',  ( -1.000000000000000000, -0.0000000000000000000, -0.0000000000000000000 ) ) ;
#214 = CIRCLE ( 'NONE', #218, 51.79999999999996900 ) ;
#215 = EDGE_CURVE ( 'NONE', #236, #217, #98, .T. ) ;
#216 = DIRECTION ( 'NONE',  ( 0.0000000000000000000, 0.0000000000000000000, 1.000000000000000000 ) ) ;
#217 = VERTEX_POINT ( 'NONE', #185 ) ;
#218 = AXIS2_PLACEMENT_3D ( 'NONE', #206, #231, #49 ) ;
#219 = DIRECTION ( 'NONE',  ( 0.0000000000000000000, 0.0000000000000000000, 1.000000000000000000 ) ) ;
#220 = UNCERTAINTY_MEASURE_WITH_UNIT (LENGTH_MEASURE( 1.000000000000000100E-005 ), #147, 'distance_accuracy_value', 'NONE');
#221 = EDGE_CURVE ( 'NONE', #217, #223, #179, .T. ) ;
#222 = CIRCLE ( 'NONE', #338, 25.39999999999999500 ) ;
#223 = VERTEX_POINT ( 'NONE', #57 ) ;
#224 = DIRECTION ( 'NONE',  ( -0.0000000000000000000, 1.000000000000000000, 1.224646799147353200E-016 ) ) ;
#225 = DIRECTION ( 'NONE',  ( 0.0000000000000000000, -1.000000000000000000, 0.0000000000000000000 ) ) ;
#226 = EDGE_LOOP ( 'NONE', ( #201, #146, #272, #13 ) ) ;
#227 = CARTESIAN_POINT ( 'NONE',  ( 536.4548837130338400, 0.0000000000000000000, 0.0000000000000000000 ) ) ;
#228 = VERTEX_POINT ( 'NONE', #237 ) ;
#229 = SPHERICAL_SURFACE ( 'NONE', #183, 291.1000000000000800 ) ;
#230 = ADVANCED_FACE ( 'NONE', ( #37 ), #197, .T. ) ;
#231 = DIRECTION ( 'NONE',  ( -0.0000000000000000000, 1.000000000000000000, 1.224646799147353200E-016 ) ) ;
#232 = EDGE_CURVE ( 'NONE', #145, #270, #127, .T. ) ;
#233 = ADVANCED_FACE ( 'NONE', ( #80 ), #136, .T. ) ;
#234 =( GEOMETRIC_REPRESENTATION_CONTEXT ( 3 ) GLOBAL_UNCERTAINTY_ASSIGNED_CONTEXT ( ( #304 ) ) GLOBAL_UNIT_ASSIGNED_CONTEXT ( ( #210, #106, #16 ) ) REPRESENTATION_CONTEXT ( 'NONE', 'WORKASPACE' ) );
#235 = DIRECTION ( 'NONE',  ( -1.000000000000000000, -0.0000000000000000000, -0.0000000000000000000 ) ) ;
#236 = VERTEX_POINT ( 'NONE', #77 ) ;
#237 = CARTESIAN_POINT ( 'NONE',  ( 536.4548837130338400, 0.0000000000000000000, 25.39999999999998400 ) ) ;
#238 = CLOSED_SHELL ( 'NONE', ( #138, #159, #108, #336, #12, #311 ) ) ;
#239 = CARTESIAN_POINT ( 'NONE',  ( 534.6416538182779700, 0.0000000000000000000, 0.0000000000000000000 ) ) ;
#240 = PRODUCT_DEFINITION ( 'Î´Öª', '', #36, #38 ) ;
#241 = CARTESIAN_POINT ( 'NONE',  ( 579.7867532200956500, 0.0000000000000000000, -6.938893903286825600E-015 ) ) ;
#242 = EDGE_CURVE ( 'NONE', #223, #84, #214, .T. ) ;
#243 = DIRECTION ( 'NONE',  ( -1.000000000000000000, -0.0000000000000000000, -0.0000000000000000000 ) ) ;
#244 = CARTESIAN_POINT ( 'NONE',  ( -0.5519199926577972300, 0.0000000000000000000, 0.0000000000000000000 ) ) ;
#245 = EDGE_LOOP ( 'NONE', ( #125, #91, #139 ) ) ;
#246 = ORIENTED_EDGE ( 'NONE', *, *, #107, .F. ) ;
#247 = SPHERICAL_SURFACE ( 'NONE', #194, 93.10000000000000900 ) ;
#248 = CIRCLE ( 'NONE', #92, 93.10000000000002300 ) ;
#249 = EDGE_CURVE ( 'NONE', #61, #270, #69, .T. ) ;
#250 = EDGE_LOOP ( 'NONE', ( #117, #254, #97 ) ) ;
#251 = EDGE_CURVE ( 'NONE', #145, #228, #163, .T. ) ;
#252 = CYLINDRICAL_SURFACE ( 'NONE', #15, 25.39999999999999900 ) ;
#253 = DIRECTION ( 'NONE',  ( 0.0000000000000000000, 1.000000000000000000, 0.0000000000000000000 ) ) ;
#254 = ORIENTED_EDGE ( 'NONE', *, *, #263, .T. ) ;
#255 = DIRECTION ( 'NONE',  ( 0.0000000000000000000, 0.0000000000000000000, 1.000000000000000000 ) ) ;
#256 =( GEOMETRIC_REPRESENTATION_CONTEXT ( 3 ) GLOBAL_UNCERTAINTY_ASSIGNED_CONTEXT ( ( #83 ) ) GLOBAL_UNIT_ASSIGNED_CONTEXT ( ( #328, #327, #86 ) ) REPRESENTATION_CONTEXT ( 'NONE', 'WORKASPACE' ) );
#257 = DIRECTION ( 'NONE',  ( 0.0000000000000000000, 0.0000000000000000000, 1.000000000000000000 ) ) ;
#258 =( NAMED_UNIT ( * ) SI_UNIT ( $, .STERADIAN. ) SOLID_ANGLE_UNIT ( ) );
#259 = CARTESIAN_POINT ( 'NONE',  ( 579.7867532200956500, 0.0000000000000000000, -6.938893903286825600E-015 ) ) ;
#260 = ORIENTED_EDGE ( 'NONE', *, *, #215, .F. ) ;
#261 = FACE_OUTER_BOUND ( 'NONE', #121, .T. ) ;
#262 = CARTESIAN_POINT ( 'NONE',  ( 446.8867532200956700, 0.0000000000000000000, -6.938893903907228400E-015 ) ) ;
#263 = EDGE_CURVE ( 'NONE', #308, #61, #309, .T. ) ;
#264 = FACE_OUTER_BOUND ( 'NONE', #164, .T. ) ;
#265 = DIRECTION ( 'NONE',  ( -1.000000000000000000, -0.0000000000000000000, -0.0000000000000000000 ) ) ;
#266 = CIRCLE ( 'NONE', #306, 51.79999999999996900 ) ;
#267 = SURFACE_STYLE_FILL_AREA ( #101 ) ;
#268 = DIRECTION ( 'NONE',  ( 0.0000000000000000000, 1.000000000000000000, 0.0000000000000000000 ) ) ;
#269 = EDGE_CURVE ( 'NONE', #297, #236, #248, .T. ) ;
#270 = VERTEX_POINT ( 'NONE', #160 ) ;
#271 = AXIS2_PLACEMENT_3D ( 'NONE', #78, #265, #112 ) ;
#272 = ORIENTED_EDGE ( 'NONE', *, *, #58, .F. ) ;
#273 = PRESENTATION_LAYER_ASSIGNMENT (  '', '', ( #87 ) ) ;
#274 = CARTESIAN_POINT ( 'NONE',  ( 543.8764944179525900, 0.0000000000000000000, 0.0000000000000000000 ) ) ;
#275 = ORIENTED_EDGE ( 'NONE', *, *, #66, .T. ) ;
#276 = FACE_OUTER_BOUND ( 'NONE', #31, .T. ) ;
#277 = APPLICATION_CONTEXT ( 'automotive_design' ) ;
#278 = EDGE_CURVE ( 'NONE', #236, #290, #11, .T. ) ;
#279 = MANIFOLD_SOLID_BREP ( 'Ðý×ª3', #238 ) ;
#280 = FACE_OUTER_BOUND ( 'NONE', #199, .T. ) ;
#281 = ORIENTED_EDGE ( 'NONE', *, *, #242, .F. ) ;
#282 = COLOUR_RGB ( '',1.000000000000000000, 1.000000000000000000, 1.000000000000000000 ) ;
#283 = CARTESIAN_POINT ( 'NONE',  ( 544.9867532200958100, 0.0000000000000000000, 1.782473416158973100E-014 ) ) ;
#284 = CARTESIAN_POINT ( 'NONE',  ( 527.9867532200956900, 0.0000000000000000000, -3.767058693495182700E-015 ) ) ;
#285 = CARTESIAN_POINT ( 'NONE',  ( 253.8867532200956700, 0.0000000000000000000, 0.0000000000000000000 ) ) ;
#286 = CARTESIAN_POINT ( 'NONE',  ( 539.9867532200956900, 0.0000000000000000000, -1.238163053876299800E-015 ) ) ;
#287 = AXIS2_PLACEMENT_3D ( 'NONE', #193, #30, #82 ) ;
#288 = DIRECTION ( 'NONE',  ( 0.0000000000000000000, -1.224646799147353200E-016, 1.000000000000000000 ) ) ;
#289 = DIRECTION ( 'NONE',  ( 0.0000000000000000000, 0.0000000000000000000, 1.000000000000000000 ) ) ;
#290 = VERTEX_POINT ( 'NONE', #177 ) ;
#291 = CARTESIAN_POINT ( 'NONE',  ( 253.8867532200956700, 0.0000000000000000000, 0.0000000000000000000 ) ) ;
#292 = PRESENTATION_LAYER_ASSIGNMENT (  '', '', ( #156 ) ) ;
#293 = PRODUCT ( '145133', '145133', '', ( #76 ) ) ;
#294 = DIRECTION ( 'NONE',  ( 0.0000000000000000000, 1.000000000000000000, 0.0000000000000000000 ) ) ;
#295 = MECHANICAL_DESIGN_GEOMETRIC_PRESENTATION_REPRESENTATION (  '', ( #87 ), #256 ) ;
#296 = DIRECTION ( 'NONE',  ( 0.0000000000000000000, 0.0000000000000000000, 1.000000000000000000 ) ) ;
#297 = VERTEX_POINT ( 'NONE', #133 ) ;
#298 = CIRCLE ( 'NONE', #171, 25.39999999999999500 ) ;
#299 = DIRECTION ( 'NONE',  ( 0.0000000000000000000, 0.0000000000000000000, 1.000000000000000000 ) ) ;
#300 = SURFACE_STYLE_FILL_AREA ( #331 ) ;
#301 = FILL_AREA_STYLE_COLOUR ( '', #9 ) ;
#302 = ORIENTED_EDGE ( 'NONE', *, *, #232, .F. ) ;
#303 = AXIS2_PLACEMENT_3D ( 'NONE', #274, #18, #33 ) ;
#304 = UNCERTAINTY_MEASURE_WITH_UNIT (LENGTH_MEASURE( 1.000000000000000100E-005 ), #210, 'distance_accuracy_value', 'NONE');
#305 = FACE_OUTER_BOUND ( 'NONE', #175, .T. ) ;
#306 = AXIS2_PLACEMENT_3D ( 'NONE', #259, #19, #312 ) ;
#307 = VECTOR ( 'NONE', #243, 1000.000000000000000 ) ;
#308 = VERTEX_POINT ( 'NONE', #283 ) ;
#309 = CIRCLE ( 'NONE', #203, 291.1000000000000800 ) ;
#310 = CARTESIAN_POINT ( 'NONE',  ( 446.8867532200956700, 0.0000000000000000000, -6.938893903907228400E-015 ) ) ;
#311 = ADVANCED_FACE ( 'NONE', ( #148 ), #126, .T. ) ;
#312 = DIRECTION ( 'NONE',  ( 0.0000000000000000000, 0.0000000000000000000, -1.000000000000000000 ) ) ;
#313 = DIRECTION ( 'NONE',  ( 0.0000000000000000000, 1.000000000000000000, 0.0000000000000000000 ) ) ;
#314 = CYLINDRICAL_SURFACE ( 'NONE', #39, 25.39999999999999100 ) ;
#315 = SPHERICAL_SURFACE ( 'NONE', #178, 93.09999999999999400 ) ;
#316 = DIRECTION ( 'NONE',  ( 0.0000000000000000000, -1.224646799147353200E-016, 1.000000000000000000 ) ) ;
#317 = CARTESIAN_POINT ( 'NONE',  ( -0.5519199926577972300, 0.0000000000000000000, 0.0000000000000000000 ) ) ;
#318 = ORIENTED_EDGE ( 'NONE', *, *, #200, .T. ) ;
#319 = FACE_OUTER_BOUND ( 'NONE', #4, .T. ) ;
#320 = CARTESIAN_POINT ( 'NONE',  ( 446.8867532200956700, 0.0000000000000000000, -6.938893903907228400E-015 ) ) ;
#321 =( GEOMETRIC_REPRESENTATION_CONTEXT ( 3 ) GLOBAL_UNCERTAINTY_ASSIGNED_CONTEXT ( ( #150 ) ) GLOBAL_UNIT_ASSIGNED_CONTEXT ( ( #62, #211, #258 ) ) REPRESENTATION_CONTEXT ( 'NONE', 'WORKASPACE' ) );
#322 = PRODUCT_DEFINITION_SHAPE ( 'NONE', 'NONE',  #240 ) ;
#323 = CIRCLE ( 'NONE', #341, 25.39999999999999100 ) ;
#324 = AXIS2_PLACEMENT_3D ( 'NONE', #123, #325, #114 ) ;
#325 = DIRECTION ( 'NONE',  ( 0.0000000000000000000, 1.000000000000000000, 0.0000000000000000000 ) ) ;
#326 = FACE_OUTER_BOUND ( 'NONE', #250, .T. ) ;
#327 =( NAMED_UNIT ( * ) PLANE_ANGLE_UNIT ( ) SI_UNIT ( $, .RADIAN. ) );
#328 =( LENGTH_UNIT ( ) NAMED_UNIT ( * ) SI_UNIT ( .MILLI., .METRE. ) );
#329 = ORIENTED_EDGE ( 'NONE', *, *, #278, .F. ) ;
#330 =( NAMED_UNIT ( * ) SI_UNIT ( $, .STERADIAN. ) SOLID_ANGLE_UNIT ( ) );
#331 = FILL_AREA_STYLE ('',( #176 ) ) ;
#332 = FILL_AREA_STYLE_COLOUR ( '', #282 ) ;
#333 = APPLICATION_CONTEXT ( 'automotive_design' ) ;
#334 = EDGE_CURVE ( 'NONE', #73, #61, #23, .T. ) ;
#335 = EDGE_LOOP ( 'NONE', ( #173, #43, #64, #329 ) ) ;
#336 = ADVANCED_FACE ( 'NONE', ( #264 ), #315, .F. ) ;
#337 = CARTESIAN_POINT ( 'NONE',  ( 534.6416538182779700, 0.0000000000000000000, 0.0000000000000000000 ) ) ;
#338 = AXIS2_PLACEMENT_3D ( 'NONE', #190, #340, #188 ) ;
#339 = DIRECTION ( 'NONE',  ( 0.0000000000000000000, 1.000000000000000000, 0.0000000000000000000 ) ) ;
#340 = DIRECTION ( 'NONE',  ( -1.000000000000000000, -0.0000000000000000000, -0.0000000000000000000 ) ) ;
#341 = AXIS2_PLACEMENT_3D ( 'NONE', #116, #347, #143 ) ;
#342 = VECTOR ( 'NONE', #196, 1000.000000000000000 ) ;
#343 = ORIENTED_EDGE ( 'NONE', *, *, #232, .T. ) ;
#344 = DIRECTION ( 'NONE',  ( 0.0000000000000000000, 0.0000000000000000000, -1.000000000000000000 ) ) ;
#345 = CARTESIAN_POINT ( 'NONE',  ( 124.5233095260452400, 3.110602869834276100E-015, -25.39999999999999100 ) ) ;
#346 = ORIENTED_EDGE ( 'NONE', *, *, #67, .F. ) ;
#347 = DIRECTION ( 'NONE',  ( -1.000000000000000000, -0.0000000000000000000, -0.0000000000000000000 ) ) ;
ENDSEC;
END-ISO-10303-21;
