ISO-10303-21;
HEADER;
FILE_DESCRIPTION (( 'STEP AP214' ),
    '1' );
FILE_NAME ('145151.STEP',
    '2019-06-06T07:31:21',
    ( 'user' ),
    ( 'Î¢ÈíÖÐ¹ú' ),
    'SwSTEP 2.0',
    'SolidWorks 2016',
    '' );
FILE_SCHEMA (( 'AUTOMOTIVE_DESIGN' ));
ENDSEC;

DATA;
#1 = CIRCLE ( 'NONE', #131, 4.000000000000000000 ) ;
#2 = STYLED_ITEM ( 'NONE', ( #248 ), #268 ) ;
#3 = FACE_OUTER_BOUND ( 'NONE', #83, .T. ) ;
#4 = DIRECTION ( 'NONE',  ( -1.000000000000000000, -0.0000000000000000000, -0.0000000000000000000 ) ) ;
#5 = DIRECTION ( 'NONE',  ( 0.0000000000000000000, 1.224646799147353200E-016, -1.000000000000000000 ) ) ;
#6 = DIRECTION ( 'NONE',  ( 0.0000000000000000000, 1.000000000000000000, 0.0000000000000000000 ) ) ;
#7 = ADVANCED_FACE ( 'NONE', ( #236 ), #27, .F. ) ;
#8 = EDGE_LOOP ( 'NONE', ( #274, #99, #50 ) ) ;
#9 = CARTESIAN_POINT ( 'NONE',  ( -0.5519199926577972300, 4.898587196589412800E-016, -4.000000000000000000 ) ) ;
#10 = CARTESIAN_POINT ( 'NONE',  ( 25.62807962044827500, -4.898587196589442400E-016, 4.000000000000024000 ) ) ;
#11 = AXIS2_PLACEMENT_3D ( 'NONE', #237, #270, #231 ) ;
#12 = AXIS2_PLACEMENT_3D ( 'NONE', #128, #26, #34 ) ;
#13 = VERTEX_POINT ( 'NONE', #283 ) ;
#14 = ADVANCED_FACE ( 'NONE', ( #227 ), #70, .T. ) ;
#15 = DIRECTION ( 'NONE',  ( -1.000000000000000000, -0.0000000000000000000, -0.0000000000000000000 ) ) ;
#16 = CIRCLE ( 'NONE', #331, 7.749999999999999100 ) ;
#17 = CIRCLE ( 'NONE', #110, 7.750000000000000000 ) ;
#18 = PRESENTATION_STYLE_ASSIGNMENT (( #345 ) ) ;
#19 = VERTEX_POINT ( 'NONE', #10 ) ;
#20 = ADVANCED_FACE ( 'NONE', ( #145 ), #133, .T. ) ;
#21 =( NAMED_UNIT ( * ) PLANE_ANGLE_UNIT ( ) SI_UNIT ( $, .RADIAN. ) );
#22 = AXIS2_PLACEMENT_3D ( 'NONE', #132, #198, #49 ) ;
#23 = DIRECTION ( 'NONE',  ( -0.0000000000000000000, 1.000000000000000000, 1.224646799147353200E-016 ) ) ;
#24 = FACE_OUTER_BOUND ( 'NONE', #291, .T. ) ;
#25 = ORIENTED_EDGE ( 'NONE', *, *, #29, .F. ) ;
#26 = DIRECTION ( 'NONE',  ( 0.0000000000000000000, 1.000000000000000000, -0.0000000000000000000 ) ) ;
#27 = SPHERICAL_SURFACE ( 'NONE', #295, 68.54000000000000600 ) ;
#28 = FILL_AREA_STYLE_COLOUR ( '', #344 ) ;
#29 = EDGE_CURVE ( 'NONE', #55, #321, #16, .T. ) ;
#30 = CARTESIAN_POINT ( 'NONE',  ( 16.46125990315656300, 0.0000000000000000000, 8.919463054943386000E-030 ) ) ;
#31 = VERTEX_POINT ( 'NONE', #205 ) ;
#32 = ORIENTED_EDGE ( 'NONE', *, *, #167, .T. ) ;
#33 = DIRECTION ( 'NONE',  ( 0.0000000000000000000, -1.224646799147353200E-016, 1.000000000000000000 ) ) ;
#34 = DIRECTION ( 'NONE',  ( 0.0000000000000000000, 0.0000000000000000000, 1.000000000000000000 ) ) ;
#35 = FILL_AREA_STYLE_COLOUR ( '', #184 ) ;
#36 = ORIENTED_EDGE ( 'NONE', *, *, #56, .F. ) ;
#37 = ADVANCED_FACE ( 'NONE', ( #96 ), #152, .T. ) ;
#38 = CARTESIAN_POINT ( 'NONE',  ( 23.09921892683243900, 0.0000000000000000000, 4.000000000000000000 ) ) ;
#39 = AXIS2_PLACEMENT_3D ( 'NONE', #250, #325, #212 ) ;
#40 = ADVANCED_BREP_SHAPE_REPRESENTATION ( '145151', ( #282, #268, #320 ), #346 ) ;
#41 = SPHERICAL_SURFACE ( 'NONE', #82, 7.749999999999999100 ) ;
#42 = DIRECTION ( 'NONE',  ( 0.0000000000000000000, 0.0000000000000000000, 1.000000000000000000 ) ) ;
#43 = ORIENTED_EDGE ( 'NONE', *, *, #161, .F. ) ;
#44 = EDGE_LOOP ( 'NONE', ( #25, #259, #233 ) ) ;
#45 = CARTESIAN_POINT ( 'NONE',  ( -0.5519199926577972300, 0.0000000000000000000, 0.0000000000000000000 ) ) ;
#46 = DIRECTION ( 'NONE',  ( -1.000000000000000000, -0.0000000000000000000, -0.0000000000000000000 ) ) ;
#47 = AXIS2_PLACEMENT_3D ( 'NONE', #159, #247, #5 ) ;
#48 = CIRCLE ( 'NONE', #109, 4.000000000000000000 ) ;
#49 = DIRECTION ( 'NONE',  ( 0.0000000000000000000, 0.0000000000000000000, 1.000000000000000000 ) ) ;
#50 = ORIENTED_EDGE ( 'NONE', *, *, #68, .T. ) ;
#51 = EDGE_CURVE ( 'NONE', #336, #321, #123, .T. ) ;
#52 = DIRECTION ( 'NONE',  ( 0.0000000000000000000, 0.0000000000000000000, -1.000000000000000000 ) ) ;
#53 = ORIENTED_EDGE ( 'NONE', *, *, #276, .F. ) ;
#54 = CARTESIAN_POINT ( 'NONE',  ( 16.46125990315656300, 0.0000000000000000000, 8.919463054943386000E-030 ) ) ;
#55 = VERTEX_POINT ( 'NONE', #91 ) ;
#56 = EDGE_CURVE ( 'NONE', #19, #277, #208, .T. ) ;
#57 = AXIS2_PLACEMENT_3D ( 'NONE', #337, #186, #278 ) ;
#58 = VECTOR ( 'NONE', #172, 1000.000000000000000 ) ;
#59 = DIRECTION ( 'NONE',  ( -1.000000000000000000, -0.0000000000000000000, -0.0000000000000000000 ) ) ;
#60 = ADVANCED_FACE ( 'NONE', ( #308 ), #319, .T. ) ;
#61 = EDGE_CURVE ( 'NONE', #155, #255, #48, .T. ) ;
#62 = AXIS2_PLACEMENT_3D ( 'NONE', #102, #46, #294 ) ;
#63 = DIRECTION ( 'NONE',  ( 0.0000000000000000000, 0.0000000000000000000, 1.000000000000000000 ) ) ;
#64 = AXIS2_PLACEMENT_3D ( 'NONE', #301, #126, #52 ) ;
#65 = VERTEX_POINT ( 'NONE', #262 ) ;
#66 = EDGE_CURVE ( 'NONE', #255, #155, #194, .T. ) ;
#67 = DIRECTION ( 'NONE',  ( -1.000000000000000000, -0.0000000000000000000, -0.0000000000000000000 ) ) ;
#68 = EDGE_CURVE ( 'NONE', #336, #327, #238, .T. ) ;
#69 = CARTESIAN_POINT ( 'NONE',  ( -0.8160621761658039000, 4.898587196589412800E-016, -4.000000000000000000 ) ) ;
#70 = CYLINDRICAL_SURFACE ( 'NONE', #93, 4.000000000000000000 ) ;
#71 = ADVANCED_FACE ( 'NONE', ( #169 ), #86, .T. ) ;
#72 = DIRECTION ( 'NONE',  ( 0.0000000000000000000, 0.0000000000000000000, -1.000000000000000000 ) ) ;
#73 = DIRECTION ( 'NONE',  ( 0.0000000000000000000, 0.0000000000000000000, 1.000000000000000000 ) ) ;
#74 = CARTESIAN_POINT ( 'NONE',  ( 23.09921892683243900, -4.898587196589412800E-016, 4.000000000000000000 ) ) ;
#75 = ORIENTED_EDGE ( 'NONE', *, *, #56, .T. ) ;
#76 = CARTESIAN_POINT ( 'NONE',  ( 21.87615847199413500, 0.0000000000000000000, 0.0000000000000000000 ) ) ;
#77 = CARTESIAN_POINT ( 'NONE',  ( 94.05125990315656300, 0.0000000000000000000, 0.0000000000000000000 ) ) ;
#78 = CARTESIAN_POINT ( 'NONE',  ( 0.0000000000000000000, 0.0000000000000000000, 0.0000000000000000000 ) ) ;
#79 = ORIENTED_EDGE ( 'NONE', *, *, #185, .F. ) ;
#80 = PRESENTATION_STYLE_ASSIGNMENT (( #130 ) ) ;
#81 = SPHERICAL_SURFACE ( 'NONE', #168, 7.750000000000000000 ) ;
#82 = AXIS2_PLACEMENT_3D ( 'NONE', #54, #246, #330 ) ;
#83 = EDGE_LOOP ( 'NONE', ( #215, #253, #75, #135 ) ) ;
#84 = DIRECTION ( 'NONE',  ( -0.0000000000000000000, -1.000000000000000000, -0.0000000000000000000 ) ) ;
#85 = SURFACE_SIDE_STYLE ('',( #88 ) ) ;
#86 = CYLINDRICAL_SURFACE ( 'NONE', #103, 4.000000000000000000 ) ;
#87 = DIRECTION ( 'NONE',  ( 0.0000000000000000000, 1.224646799147353200E-016, -1.000000000000000000 ) ) ;
#88 = SURFACE_STYLE_FILL_AREA ( #199 ) ;
#89 = ORIENTED_EDGE ( 'NONE', *, *, #329, .F. ) ;
#90 = AXIS2_PLACEMENT_3D ( 'NONE', #222, #154, #72 ) ;
#91 = CARTESIAN_POINT ( 'NONE',  ( 24.21125990315656300, 0.0000000000000000000, -4.745506346695903200E-016 ) ) ;
#92 = FILL_AREA_STYLE_COLOUR ( '', #211 ) ;
#93 = AXIS2_PLACEMENT_3D ( 'NONE', #228, #59, #347 ) ;
#94 = CARTESIAN_POINT ( 'NONE',  ( 28.16125990315656600, 0.0000000000000000000, 9.401587630829701800E-017 ) ) ;
#95 = ORIENTED_EDGE ( 'NONE', *, *, #302, .T. ) ;
#96 = FACE_OUTER_BOUND ( 'NONE', #111, .T. ) ;
#97 = EDGE_LOOP ( 'NONE', ( #79, #120, #230 ) ) ;
#98 = UNCERTAINTY_MEASURE_WITH_UNIT (LENGTH_MEASURE( 1.000000000000000100E-005 ), #162, 'distance_accuracy_value', 'NONE');
#99 = ORIENTED_EDGE ( 'NONE', *, *, #272, .F. ) ;
#100 = APPLICATION_CONTEXT ( 'automotive_design' ) ;
#101 = FILL_AREA_STYLE ('',( #28 ) ) ;
#102 = CARTESIAN_POINT ( 'NONE',  ( 23.09921892683243900, 0.0000000000000000000, 0.0000000000000000000 ) ) ;
#103 = AXIS2_PLACEMENT_3D ( 'NONE', #317, #181, #340 ) ;
#104 = DIRECTION ( 'NONE',  ( 0.0000000000000000000, 1.224646799147353000E-016, -1.000000000000000000 ) ) ;
#105 = ORIENTED_EDGE ( 'NONE', *, *, #51, .T. ) ;
#106 = EDGE_CURVE ( 'NONE', #333, #31, #307, .T. ) ;
#107 = CARTESIAN_POINT ( 'NONE',  ( 16.46125990315656300, 0.0000000000000000000, 8.919463054943386000E-030 ) ) ;
#108 = AXIS2_PLACEMENT_3D ( 'NONE', #77, #258, #87 ) ;
#109 = AXIS2_PLACEMENT_3D ( 'NONE', #76, #296, #153 ) ;
#110 = AXIS2_PLACEMENT_3D ( 'NONE', #192, #23, #33 ) ;
#111 = EDGE_LOOP ( 'NONE', ( #310, #125, #129, #53 ) ) ;
#112 = EDGE_CURVE ( 'NONE', #321, #277, #318, .T. ) ;
#113 = DIRECTION ( 'NONE',  ( -1.000000000000000000, -0.0000000000000000000, -0.0000000000000000000 ) ) ;
#114 = AXIS2_PLACEMENT_3D ( 'NONE', #309, #183, #273 ) ;
#115 =( GEOMETRIC_REPRESENTATION_CONTEXT ( 3 ) GLOBAL_UNCERTAINTY_ASSIGNED_CONTEXT ( ( #147 ) ) GLOBAL_UNIT_ASSIGNED_CONTEXT ( ( #216, #334, #178 ) ) REPRESENTATION_CONTEXT ( 'NONE', 'WORKASPACE' ) );
#116 =( LENGTH_UNIT ( ) NAMED_UNIT ( * ) SI_UNIT ( .MILLI., .METRE. ) );
#117 = CLOSED_SHELL ( 'NONE', ( #60, #37, #299, #20, #71, #173 ) ) ;
#118 = PRESENTATION_LAYER_ASSIGNMENT (  '', '', ( #195 ) ) ;
#119 = VECTOR ( 'NONE', #15, 1000.000000000000000 ) ;
#120 = ORIENTED_EDGE ( 'NONE', *, *, #161, .T. ) ;
#121 = APPLICATION_CONTEXT ( 'automotive_design' ) ;
#122 = AXIS2_PLACEMENT_3D ( 'NONE', #266, #210, #104 ) ;
#123 = LINE ( 'NONE', #9, #300 ) ;
#124 = DIRECTION ( 'NONE',  ( 0.0000000000000000000, 0.0000000000000000000, 1.000000000000000000 ) ) ;
#125 = ORIENTED_EDGE ( 'NONE', *, *, #176, .T. ) ;
#126 = DIRECTION ( 'NONE',  ( -0.0000000000000000000, -1.000000000000000000, -0.0000000000000000000 ) ) ;
#127 = AXIS2_PLACEMENT_3D ( 'NONE', #193, #306, #63 ) ;
#128 = CARTESIAN_POINT ( 'NONE',  ( 94.05125990315656300, 0.0000000000000000000, 0.0000000000000000000 ) ) ;
#129 = ORIENTED_EDGE ( 'NONE', *, *, #66, .F. ) ;
#130 = SURFACE_STYLE_USAGE ( .BOTH. , #326 ) ;
#131 = AXIS2_PLACEMENT_3D ( 'NONE', #156, #314, #219 ) ;
#132 = CARTESIAN_POINT ( 'NONE',  ( 23.09921892683243900, 0.0000000000000000000, 0.0000000000000000000 ) ) ;
#133 = SPHERICAL_SURFACE ( 'NONE', #235, 7.450000000000001100 ) ;
#134 = CARTESIAN_POINT ( 'NONE',  ( 16.46125990315656300, 0.0000000000000000000, 8.919463054943386000E-030 ) ) ;
#135 = ORIENTED_EDGE ( 'NONE', *, *, #112, .F. ) ;
#136 = APPLICATION_PROTOCOL_DEFINITION ( 'draft international standard', 'automotive_design', 1998, #100 ) ;
#137 = AXIS2_PLACEMENT_3D ( 'NONE', #94, #220, #170 ) ;
#138 = FILL_AREA_STYLE ('',( #35 ) ) ;
#139 = ORIENTED_EDGE ( 'NONE', *, *, #302, .F. ) ;
#140 = CARTESIAN_POINT ( 'NONE',  ( 21.87615847199413500, 0.0000000000000000000, -4.000000000000000000 ) ) ;
#141 =( NAMED_UNIT ( * ) SI_UNIT ( $, .STERADIAN. ) SOLID_ANGLE_UNIT ( ) );
#142 = FACE_OUTER_BOUND ( 'NONE', #275, .T. ) ;
#143 = MECHANICAL_DESIGN_GEOMETRIC_PRESENTATION_REPRESENTATION (  '', ( #195 ), #191 ) ;
#144 = AXIS2_PLACEMENT_3D ( 'NONE', #45, #67, #42 ) ;
#145 = FACE_OUTER_BOUND ( 'NONE', #241, .T. ) ;
#146 =( LENGTH_UNIT ( ) NAMED_UNIT ( * ) SI_UNIT ( .MILLI., .METRE. ) );
#147 = UNCERTAINTY_MEASURE_WITH_UNIT (LENGTH_MEASURE( 1.000000000000000100E-005 ), #216, 'distance_accuracy_value', 'NONE');
#148 =( NAMED_UNIT ( * ) PLANE_ANGLE_UNIT ( ) SI_UNIT ( $, .RADIAN. ) );
#149 = ADVANCED_FACE ( 'NONE', ( #179 ), #41, .F. ) ;
#150 = CIRCLE ( 'NONE', #114, 7.450000000000001100 ) ;
#151 = EDGE_LOOP ( 'NONE', ( #43, #323, #89 ) ) ;
#152 = CYLINDRICAL_SURFACE ( 'NONE', #127, 4.000000000000000000 ) ;
#153 = DIRECTION ( 'NONE',  ( 0.0000000000000000000, 0.0000000000000000000, 1.000000000000000000 ) ) ;
#154 = DIRECTION ( 'NONE',  ( 0.0000000000000000000, -1.000000000000000000, 0.0000000000000000000 ) ) ;
#155 = VERTEX_POINT ( 'NONE', #140 ) ;
#156 = CARTESIAN_POINT ( 'NONE',  ( 23.09921892683243900, 0.0000000000000000000, 0.0000000000000000000 ) ) ;
#157 = DIRECTION ( 'NONE',  ( -0.0000000000000000000, -1.000000000000000000, -0.0000000000000000000 ) ) ;
#158 =( NAMED_UNIT ( * ) SI_UNIT ( $, .STERADIAN. ) SOLID_ANGLE_UNIT ( ) );
#159 = CARTESIAN_POINT ( 'NONE',  ( 16.46125990315656300, 0.0000000000000000000, 8.919463054943386000E-030 ) ) ;
#160 = ORIENTED_EDGE ( 'NONE', *, *, #329, .T. ) ;
#161 = EDGE_CURVE ( 'NONE', #13, #31, #17, .T. ) ;
#162 =( LENGTH_UNIT ( ) NAMED_UNIT ( * ) SI_UNIT ( .MILLI., .METRE. ) );
#163 = EDGE_CURVE ( 'NONE', #19, #327, #339, .T. ) ;
#164 = SURFACE_STYLE_FILL_AREA ( #138 ) ;
#165 = FACE_OUTER_BOUND ( 'NONE', #151, .T. ) ;
#166 = CIRCLE ( 'NONE', #298, 4.000000000000000000 ) ;
#167 = EDGE_CURVE ( 'NONE', #155, #65, #150, .T. ) ;
#168 = AXIS2_PLACEMENT_3D ( 'NONE', #30, #251, #73 ) ;
#169 = FACE_OUTER_BOUND ( 'NONE', #269, .T. ) ;
#170 = DIRECTION ( 'NONE',  ( 0.0000000000000000000, 0.0000000000000000000, -1.000000000000000000 ) ) ;
#171 = DIRECTION ( 'NONE',  ( 0.0000000000000000000, 0.0000000000000000000, 1.000000000000000000 ) ) ;
#172 = DIRECTION ( 'NONE',  ( -1.000000000000000000, -0.0000000000000000000, -0.0000000000000000000 ) ) ;
#173 = ADVANCED_FACE ( 'NONE', ( #165 ), #81, .T. ) ;
#174 = ORIENTED_EDGE ( 'NONE', *, *, #29, .T. ) ;
#175 = DIRECTION ( 'NONE',  ( 0.0000000000000000000, 0.0000000000000000000, 1.000000000000000000 ) ) ;
#176 = EDGE_CURVE ( 'NONE', #31, #155, #341, .T. ) ;
#177 = EDGE_LOOP ( 'NONE', ( #290, #105, #297, #36 ) ) ;
#178 =( NAMED_UNIT ( * ) SI_UNIT ( $, .STERADIAN. ) SOLID_ANGLE_UNIT ( ) );
#179 = FACE_OUTER_BOUND ( 'NONE', #44, .T. ) ;
#180 = VECTOR ( 'NONE', #271, 1000.000000000000000 ) ;
#181 = DIRECTION ( 'NONE',  ( -1.000000000000000000, -0.0000000000000000000, -0.0000000000000000000 ) ) ;
#182 = SPHERICAL_SURFACE ( 'NONE', #137, 7.450000000000001100 ) ;
#183 = DIRECTION ( 'NONE',  ( 0.0000000000000000000, 1.000000000000000000, -0.0000000000000000000 ) ) ;
#184 = COLOUR_RGB ( '',1.000000000000000000, 1.000000000000000000, 1.000000000000000000 ) ;
#185 = EDGE_CURVE ( 'NONE', #13, #333, #267, .T. ) ;
#186 = DIRECTION ( 'NONE',  ( -0.0000000000000000000, -1.000000000000000000, -0.0000000000000000000 ) ) ;
#187 =( NAMED_UNIT ( * ) SI_UNIT ( $, .STERADIAN. ) SOLID_ANGLE_UNIT ( ) );
#188 = UNCERTAINTY_MEASURE_WITH_UNIT (LENGTH_MEASURE( 1.000000000000000100E-005 ), #116, 'distance_accuracy_value', 'NONE');
#189 = ADVANCED_FACE ( 'NONE', ( #3 ), #223, .T. ) ;
#190 = CLOSED_SHELL ( 'NONE', ( #14, #214, #149, #239, #7, #189 ) ) ;
#191 =( GEOMETRIC_REPRESENTATION_CONTEXT ( 3 ) GLOBAL_UNCERTAINTY_ASSIGNED_CONTEXT ( ( #218 ) ) GLOBAL_UNIT_ASSIGNED_CONTEXT ( ( #146, #148, #187 ) ) REPRESENTATION_CONTEXT ( 'NONE', 'WORKASPACE' ) );
#192 = CARTESIAN_POINT ( 'NONE',  ( 16.46125990315656300, 0.0000000000000000000, 8.919463054943386000E-030 ) ) ;
#193 = CARTESIAN_POINT ( 'NONE',  ( -0.8160621761658039000, 0.0000000000000000000, 0.0000000000000000000 ) ) ;
#194 = CIRCLE ( 'NONE', #221, 4.000000000000000000 ) ;
#195 = STYLED_ITEM ( 'NONE', ( #18 ), #282 ) ;
#196 = DIRECTION ( 'NONE',  ( 0.0000000000000000000, 0.0000000000000000000, -1.000000000000000000 ) ) ;
#197 = ORIENTED_EDGE ( 'NONE', *, *, #167, .F. ) ;
#198 = DIRECTION ( 'NONE',  ( -1.000000000000000000, -0.0000000000000000000, -0.0000000000000000000 ) ) ;
#199 = FILL_AREA_STYLE ('',( #92 ) ) ;
#200 = EDGE_CURVE ( 'NONE', #19, #336, #204, .T. ) ;
#201 = ORIENTED_EDGE ( 'NONE', *, *, #61, .F. ) ;
#202 = SURFACE_SIDE_STYLE ('',( #254 ) ) ;
#203 = CARTESIAN_POINT ( 'NONE',  ( 21.87615847199413500, 0.0000000000000000000, 0.0000000000000000000 ) ) ;
#204 = CIRCLE ( 'NONE', #11, 4.000000000000000000 ) ;
#205 = CARTESIAN_POINT ( 'NONE',  ( 23.09921892683243900, 4.898587196589412800E-016, -4.000000000000000000 ) ) ;
#206 = EDGE_LOOP ( 'NONE', ( #264, #95, #197 ) ) ;
#207 = CARTESIAN_POINT ( 'NONE',  ( 21.87615847199413500, -4.898587196589411800E-016, 4.000000000000000000 ) ) ;
#208 = LINE ( 'NONE', #286, #180 ) ;
#209 = CARTESIAN_POINT ( 'NONE',  ( 28.16125990315656600, 0.0000000000000000000, 9.401587630829701800E-017 ) ) ;
#210 = DIRECTION ( 'NONE',  ( 0.0000000000000000000, -1.000000000000000000, -1.224646799147353200E-016 ) ) ;
#211 = COLOUR_RGB ( '',1.000000000000000000, 1.000000000000000000, 1.000000000000000000 ) ;
#212 = DIRECTION ( 'NONE',  ( 0.0000000000000000000, 0.0000000000000000000, 1.000000000000000000 ) ) ;
#213 = PRESENTATION_LAYER_ASSIGNMENT (  '', '', ( #2 ) ) ;
#214 = ADVANCED_FACE ( 'NONE', ( #142 ), #279, .F. ) ;
#215 = ORIENTED_EDGE ( 'NONE', *, *, #51, .F. ) ;
#216 =( LENGTH_UNIT ( ) NAMED_UNIT ( * ) SI_UNIT ( .MILLI., .METRE. ) );
#217 = PRODUCT ( '145151', '145151', '', ( #311 ) ) ;
#218 = UNCERTAINTY_MEASURE_WITH_UNIT (LENGTH_MEASURE( 1.000000000000000100E-005 ), #146, 'distance_accuracy_value', 'NONE');
#219 = DIRECTION ( 'NONE',  ( 0.0000000000000000000, 0.0000000000000000000, 1.000000000000000000 ) ) ;
#220 = DIRECTION ( 'NONE',  ( -0.0000000000000000000, -1.000000000000000000, -0.0000000000000000000 ) ) ;
#221 = AXIS2_PLACEMENT_3D ( 'NONE', #203, #113, #171 ) ;
#222 = CARTESIAN_POINT ( 'NONE',  ( 16.46125990315656300, 0.0000000000000000000, 8.919463054943386000E-030 ) ) ;
#223 = CYLINDRICAL_SURFACE ( 'NONE', #144, 4.000000000000000000 ) ;
#224 = ORIENTED_EDGE ( 'NONE', *, *, #68, .F. ) ;
#225 = SURFACE_STYLE_USAGE ( .BOTH. , #85 ) ;
#226 = PRODUCT_DEFINITION_SHAPE ( 'NONE', 'NONE',  #316 ) ;
#227 = FACE_OUTER_BOUND ( 'NONE', #177, .T. ) ;
#228 = CARTESIAN_POINT ( 'NONE',  ( -0.5519199926577972300, 0.0000000000000000000, 0.0000000000000000000 ) ) ;
#229 = ORIENTED_EDGE ( 'NONE', *, *, #249, .F. ) ;
#230 = ORIENTED_EDGE ( 'NONE', *, *, #106, .F. ) ;
#231 = DIRECTION ( 'NONE',  ( 0.0000000000000000000, 0.0000000000000000000, 1.000000000000000000 ) ) ;
#232 = ORIENTED_EDGE ( 'NONE', *, *, #163, .T. ) ;
#233 = ORIENTED_EDGE ( 'NONE', *, *, #252, .T. ) ;
#234 = CARTESIAN_POINT ( 'NONE',  ( -0.8160621761658039000, 0.0000000000000000000, 4.000000000000000000 ) ) ;
#235 = AXIS2_PLACEMENT_3D ( 'NONE', #209, #157, #280 ) ;
#236 = FACE_OUTER_BOUND ( 'NONE', #8, .T. ) ;
#237 = CARTESIAN_POINT ( 'NONE',  ( 25.62807962044827200, 0.0000000000000000000, 0.0000000000000000000 ) ) ;
#238 = CIRCLE ( 'NONE', #12, 68.54000000000000600 ) ;
#239 = ADVANCED_FACE ( 'NONE', ( #24 ), #304, .F. ) ;
#240 = DIRECTION ( 'NONE',  ( 0.0000000000000000000, 1.000000000000000000, -0.0000000000000000000 ) ) ;
#241 = EDGE_LOOP ( 'NONE', ( #139, #303, #32 ) ) ;
#242 = PRODUCT_DEFINITION_CONTEXT ( 'detailed design', #121, 'design' ) ;
#243 = ORIENTED_EDGE ( 'NONE', *, *, #176, .F. ) ;
#244 = CARTESIAN_POINT ( 'NONE',  ( 23.09921892683243900, 0.0000000000000000000, -4.000000000000000000 ) ) ;
#245 = MECHANICAL_DESIGN_GEOMETRIC_PRESENTATION_REPRESENTATION (  '', ( #2 ), #115 ) ;
#246 = DIRECTION ( 'NONE',  ( -0.0000000000000000000, -1.000000000000000000, -0.0000000000000000000 ) ) ;
#247 = DIRECTION ( 'NONE',  ( 0.0000000000000000000, -1.000000000000000000, -1.224646799147353200E-016 ) ) ;
#248 = PRESENTATION_STYLE_ASSIGNMENT (( #225 ) ) ;
#249 = EDGE_CURVE ( 'NONE', #55, #277, #265, .T. ) ;
#250 = CARTESIAN_POINT ( 'NONE',  ( 23.09921892683243900, 0.0000000000000000000, 0.0000000000000000000 ) ) ;
#251 = DIRECTION ( 'NONE',  ( 0.0000000000000000000, 1.000000000000000000, 0.0000000000000000000 ) ) ;
#252 = EDGE_CURVE ( 'NONE', #277, #321, #288, .T. ) ;
#253 = ORIENTED_EDGE ( 'NONE', *, *, #272, .T. ) ;
#254 = SURFACE_STYLE_FILL_AREA ( #101 ) ;
#255 = VERTEX_POINT ( 'NONE', #207 ) ;
#256 = AXIS2_PLACEMENT_3D ( 'NONE', #107, #6, #315 ) ;
#257 = SHAPE_DEFINITION_REPRESENTATION ( #226, #40 ) ;
#258 = DIRECTION ( 'NONE',  ( 0.0000000000000000000, -1.000000000000000000, -1.224646799147353200E-016 ) ) ;
#259 = ORIENTED_EDGE ( 'NONE', *, *, #249, .T. ) ;
#260 = DIRECTION ( 'NONE',  ( -1.000000000000000000, -0.0000000000000000000, -0.0000000000000000000 ) ) ;
#261 = FACE_OUTER_BOUND ( 'NONE', #206, .T. ) ;
#262 = CARTESIAN_POINT ( 'NONE',  ( 20.71125990315656300, 0.0000000000000000000, -3.621650563740920900E-016 ) ) ;
#263 = ORIENTED_EDGE ( 'NONE', *, *, #276, .T. ) ;
#264 = ORIENTED_EDGE ( 'NONE', *, *, #61, .T. ) ;
#265 = CIRCLE ( 'NONE', #47, 7.749999999999999100 ) ;
#266 = CARTESIAN_POINT ( 'NONE',  ( 28.16125990315656600, 0.0000000000000000000, 9.401587630829701800E-017 ) ) ;
#267 = CIRCLE ( 'NONE', #90, 7.750000000000000000 ) ;
#268 = MANIFOLD_SOLID_BREP ( 'Ðý×ª2', #190 ) ;
#269 = EDGE_LOOP ( 'NONE', ( #243, #160, #263, #201 ) ) ;
#270 = DIRECTION ( 'NONE',  ( -1.000000000000000000, -0.0000000000000000000, -0.0000000000000000000 ) ) ;
#271 = DIRECTION ( 'NONE',  ( -1.000000000000000000, -0.0000000000000000000, -0.0000000000000000000 ) ) ;
#272 = EDGE_CURVE ( 'NONE', #336, #19, #166, .T. ) ;
#273 = DIRECTION ( 'NONE',  ( 0.0000000000000000000, 0.0000000000000000000, 1.000000000000000000 ) ) ;
#274 = ORIENTED_EDGE ( 'NONE', *, *, #163, .F. ) ;
#275 = EDGE_LOOP ( 'NONE', ( #342, #232, #224 ) ) ;
#276 = EDGE_CURVE ( 'NONE', #333, #255, #305, .T. ) ;
#277 = VERTEX_POINT ( 'NONE', #74 ) ;
#278 = DIRECTION ( 'NONE',  ( 0.0000000000000000000, 0.0000000000000000000, -1.000000000000000000 ) ) ;
#279 = SPHERICAL_SURFACE ( 'NONE', #64, 68.54000000000000600 ) ;
#280 = DIRECTION ( 'NONE',  ( 0.0000000000000000000, 0.0000000000000000000, -1.000000000000000000 ) ) ;
#281 = ORIENTED_EDGE ( 'NONE', *, *, #112, .T. ) ;
#282 = MANIFOLD_SOLID_BREP ( 'Ðý×ª1', #117 ) ;
#283 = CARTESIAN_POINT ( 'NONE',  ( 24.21125990315656300, 0.0000000000000000000, 4.745506346696083600E-016 ) ) ;
#284 = CIRCLE ( 'NONE', #122, 7.450000000000001100 ) ;
#285 = DIRECTION ( 'NONE',  ( 0.0000000000000000000, 0.0000000000000000000, 1.000000000000000000 ) ) ;
#286 = CARTESIAN_POINT ( 'NONE',  ( -0.5519199926577972300, 0.0000000000000000000, 4.000000000000000000 ) ) ;
#287 =( NAMED_UNIT ( * ) PLANE_ANGLE_UNIT ( ) SI_UNIT ( $, .RADIAN. ) );
#288 = CIRCLE ( 'NONE', #62, 4.000000000000000900 ) ;
#289 = CARTESIAN_POINT ( 'NONE',  ( 25.51125990315655700, 0.0000000000000000000, -4.196864580677979500E-015 ) ) ;
#290 = ORIENTED_EDGE ( 'NONE', *, *, #200, .T. ) ;
#291 = EDGE_LOOP ( 'NONE', ( #229, #174, #281 ) ) ;
#292 = CARTESIAN_POINT ( 'NONE',  ( 25.62807962044827200, 0.0000000000000000000, 0.0000000000000000000 ) ) ;
#293 = PRODUCT_RELATED_PRODUCT_CATEGORY ( 'part', '', ( #217 ) ) ;
#294 = DIRECTION ( 'NONE',  ( 0.0000000000000000000, 0.0000000000000000000, 1.000000000000000000 ) ) ;
#295 = AXIS2_PLACEMENT_3D ( 'NONE', #324, #84, #196 ) ;
#296 = DIRECTION ( 'NONE',  ( -1.000000000000000000, -0.0000000000000000000, -0.0000000000000000000 ) ) ;
#297 = ORIENTED_EDGE ( 'NONE', *, *, #252, .F. ) ;
#298 = AXIS2_PLACEMENT_3D ( 'NONE', #292, #4, #285 ) ;
#299 = ADVANCED_FACE ( 'NONE', ( #261 ), #182, .T. ) ;
#300 = VECTOR ( 'NONE', #260, 1000.000000000000000 ) ;
#301 = CARTESIAN_POINT ( 'NONE',  ( 94.05125990315656300, 0.0000000000000000000, 0.0000000000000000000 ) ) ;
#302 = EDGE_CURVE ( 'NONE', #255, #65, #284, .T. ) ;
#303 = ORIENTED_EDGE ( 'NONE', *, *, #66, .T. ) ;
#304 = SPHERICAL_SURFACE ( 'NONE', #57, 7.749999999999999100 ) ;
#305 = LINE ( 'NONE', #234, #119 ) ;
#306 = DIRECTION ( 'NONE',  ( -1.000000000000000000, -0.0000000000000000000, -0.0000000000000000000 ) ) ;
#307 = CIRCLE ( 'NONE', #22, 4.000000000000000000 ) ;
#308 = FACE_OUTER_BOUND ( 'NONE', #97, .T. ) ;
#309 = CARTESIAN_POINT ( 'NONE',  ( 28.16125990315656600, 0.0000000000000000000, 9.401587630829701800E-017 ) ) ;
#310 = ORIENTED_EDGE ( 'NONE', *, *, #106, .T. ) ;
#311 = PRODUCT_CONTEXT ( 'NONE', #100, 'mechanical' ) ;
#312 = APPLICATION_PROTOCOL_DEFINITION ( 'draft international standard', 'automotive_design', 1998, #121 ) ;
#313 = PRODUCT_DEFINITION_FORMATION_WITH_SPECIFIED_SOURCE ( 'ÈÎºÎ', '', #217, .NOT_KNOWN. ) ;
#314 = DIRECTION ( 'NONE',  ( -1.000000000000000000, -0.0000000000000000000, -0.0000000000000000000 ) ) ;
#315 = DIRECTION ( 'NONE',  ( 0.0000000000000000000, 0.0000000000000000000, 1.000000000000000000 ) ) ;
#316 = PRODUCT_DEFINITION ( 'Î´Öª', '', #313, #242 ) ;
#317 = CARTESIAN_POINT ( 'NONE',  ( -0.8160621761658039000, 0.0000000000000000000, 0.0000000000000000000 ) ) ;
#318 = CIRCLE ( 'NONE', #39, 4.000000000000000900 ) ;
#319 = SPHERICAL_SURFACE ( 'NONE', #256, 7.750000000000000000 ) ;
#320 = AXIS2_PLACEMENT_3D ( 'NONE', #78, #175, #322 ) ;
#321 = VERTEX_POINT ( 'NONE', #244 ) ;
#322 = DIRECTION ( 'NONE',  ( 1.000000000000000000, 0.0000000000000000000, 0.0000000000000000000 ) ) ;
#323 = ORIENTED_EDGE ( 'NONE', *, *, #185, .T. ) ;
#324 = CARTESIAN_POINT ( 'NONE',  ( 94.05125990315656300, 0.0000000000000000000, 0.0000000000000000000 ) ) ;
#325 = DIRECTION ( 'NONE',  ( -1.000000000000000000, -0.0000000000000000000, -0.0000000000000000000 ) ) ;
#326 = SURFACE_SIDE_STYLE ('',( #164 ) ) ;
#327 = VERTEX_POINT ( 'NONE', #289 ) ;
#328 = CARTESIAN_POINT ( 'NONE',  ( 25.62807962044827500, 0.0000000000000000000, -4.000000000000024000 ) ) ;
#329 = EDGE_CURVE ( 'NONE', #31, #333, #1, .T. ) ;
#330 = DIRECTION ( 'NONE',  ( 0.0000000000000000000, 0.0000000000000000000, -1.000000000000000000 ) ) ;
#331 = AXIS2_PLACEMENT_3D ( 'NONE', #134, #240, #124 ) ;
#332 =( GEOMETRIC_REPRESENTATION_CONTEXT ( 3 ) GLOBAL_UNCERTAINTY_ASSIGNED_CONTEXT ( ( #188 ) ) GLOBAL_UNIT_ASSIGNED_CONTEXT ( ( #116, #287, #158 ) ) REPRESENTATION_CONTEXT ( 'NONE', 'WORKASPACE' ) );
#333 = VERTEX_POINT ( 'NONE', #38 ) ;
#334 =( NAMED_UNIT ( * ) PLANE_ANGLE_UNIT ( ) SI_UNIT ( $, .RADIAN. ) );
#335 = PRESENTATION_LAYER_ASSIGNMENT (  '', '', ( #338 ) ) ;
#336 = VERTEX_POINT ( 'NONE', #328 ) ;
#337 = CARTESIAN_POINT ( 'NONE',  ( 16.46125990315656300, 0.0000000000000000000, 8.919463054943386000E-030 ) ) ;
#338 = STYLED_ITEM ( 'NONE', ( #80 ), #40 ) ;
#339 = CIRCLE ( 'NONE', #108, 68.54000000000000600 ) ;
#340 = DIRECTION ( 'NONE',  ( 0.0000000000000000000, 0.0000000000000000000, 1.000000000000000000 ) ) ;
#341 = LINE ( 'NONE', #69, #58 ) ;
#342 = ORIENTED_EDGE ( 'NONE', *, *, #200, .F. ) ;
#343 = MECHANICAL_DESIGN_GEOMETRIC_PRESENTATION_REPRESENTATION (  '', ( #338 ), #332 ) ;
#344 = COLOUR_RGB ( '',1.000000000000000000, 1.000000000000000000, 1.000000000000000000 ) ;
#345 = SURFACE_STYLE_USAGE ( .BOTH. , #202 ) ;
#346 =( GEOMETRIC_REPRESENTATION_CONTEXT ( 3 ) GLOBAL_UNCERTAINTY_ASSIGNED_CONTEXT ( ( #98 ) ) GLOBAL_UNIT_ASSIGNED_CONTEXT ( ( #162, #21, #141 ) ) REPRESENTATION_CONTEXT ( 'NONE', 'WORKASPACE' ) );
#347 = DIRECTION ( 'NONE',  ( 0.0000000000000000000, 0.0000000000000000000, 1.000000000000000000 ) ) ;
ENDSEC;
END-ISO-10303-21;
