ISO-10303-21;
HEADER;
FILE_DESCRIPTION (( 'STEP AP214' ),
    '1' );
FILE_NAME ('145152.STEP',
    '2019-06-06T07:48:00',
    ( 'user' ),
    ( 'Î¢ÈíÖÐ¹ú' ),
    'SwSTEP 2.0',
    'SolidWorks 2016',
    '' );
FILE_SCHEMA (( 'AUTOMOTIVE_DESIGN' ));
ENDSEC;

DATA;
#1 = CARTESIAN_POINT ( 'NONE',  ( 16.46125990315656300, 0.0000000000000000000, 8.919463054943386000E-030 ) ) ;
#2 = UNCERTAINTY_MEASURE_WITH_UNIT (LENGTH_MEASURE( 1.000000000000000100E-005 ), #187, 'distance_accuracy_value', 'NONE');
#3 = FACE_OUTER_BOUND ( 'NONE', #68, .T. ) ;
#4 = CARTESIAN_POINT ( 'NONE',  ( 29.51125990315656000, 0.0000000000000000000, 9.344430936081264100E-016 ) ) ;
#5 =( NAMED_UNIT ( * ) SI_UNIT ( $, .STERADIAN. ) SOLID_ANGLE_UNIT ( ) );
#6 = DIRECTION ( 'NONE',  ( 0.0000000000000000000, 0.0000000000000000000, -1.000000000000000000 ) ) ;
#7 = SPHERICAL_SURFACE ( 'NONE', #208, 7.749999999999998200 ) ;
#8 = ORIENTED_EDGE ( 'NONE', *, *, #316, .F. ) ;
#9 = PRESENTATION_STYLE_ASSIGNMENT (( #305 ) ) ;
#10 = EDGE_CURVE ( 'NONE', #225, #249, #14, .T. ) ;
#11 = PRODUCT_DEFINITION_CONTEXT ( 'detailed design', #30, 'design' ) ;
#12 = DIRECTION ( 'NONE',  ( 0.0000000000000000000, 0.0000000000000000000, 1.000000000000000000 ) ) ;
#13 = EDGE_LOOP ( 'NONE', ( #26, #98, #262, #189 ) ) ;
#14 = CIRCLE ( 'NONE', #91, 31.92000000000000500 ) ;
#15 = FILL_AREA_STYLE ('',( #246 ) ) ;
#16 = DIRECTION ( 'NONE',  ( 0.0000000000000000000, -1.000000000000000000, -1.224646799147353200E-016 ) ) ;
#17 = AXIS2_PLACEMENT_3D ( 'NONE', #297, #169, #118 ) ;
#18 = CARTESIAN_POINT ( 'NONE',  ( 22.87330087948068400, 0.0000000000000000000, 0.0000000000000000000 ) ) ;
#19 = VERTEX_POINT ( 'NONE', #263 ) ;
#20 = VERTEX_POINT ( 'NONE', #95 ) ;
#21 = FILL_AREA_STYLE_COLOUR ( '', #89 ) ;
#22 = CIRCLE ( 'NONE', #96, 3.999999999999997300 ) ;
#23 = CARTESIAN_POINT ( 'NONE',  ( 0.0000000000000000000, 0.0000000000000000000, 0.0000000000000000000 ) ) ;
#24 = CARTESIAN_POINT ( 'NONE',  ( 26.61287819521322700, 0.0000000000000000000, 0.0000000000000000000 ) ) ;
#25 = VECTOR ( 'NONE', #174, 1000.000000000000000 ) ;
#26 = ORIENTED_EDGE ( 'NONE', *, *, #275, .T. ) ;
#27 =( GEOMETRIC_REPRESENTATION_CONTEXT ( 3 ) GLOBAL_UNCERTAINTY_ASSIGNED_CONTEXT ( ( #206 ) ) GLOBAL_UNIT_ASSIGNED_CONTEXT ( ( #182, #51, #32 ) ) REPRESENTATION_CONTEXT ( 'NONE', 'WORKASPACE' ) );
#28 = VERTEX_POINT ( 'NONE', #70 ) ;
#29 = DIRECTION ( 'NONE',  ( 0.0000000000000000000, 0.0000000000000000000, 1.000000000000000000 ) ) ;
#30 = APPLICATION_CONTEXT ( 'automotive_design' ) ;
#31 = ORIENTED_EDGE ( 'NONE', *, *, #236, .T. ) ;
#32 =( NAMED_UNIT ( * ) SI_UNIT ( $, .STERADIAN. ) SOLID_ANGLE_UNIT ( ) );
#33 = FACE_OUTER_BOUND ( 'NONE', #338, .T. ) ;
#34 = ORIENTED_EDGE ( 'NONE', *, *, #283, .T. ) ;
#35 = EDGE_LOOP ( 'NONE', ( #321, #178, #304 ) ) ;
#36 = EDGE_CURVE ( 'NONE', #296, #28, #163, .T. ) ;
#37 = ORIENTED_EDGE ( 'NONE', *, *, #78, .F. ) ;
#38 = PRODUCT_CONTEXT ( 'NONE', #87, 'mechanical' ) ;
#39 = VERTEX_POINT ( 'NONE', #209 ) ;
#40 =( GEOMETRIC_REPRESENTATION_CONTEXT ( 3 ) GLOBAL_UNCERTAINTY_ASSIGNED_CONTEXT ( ( #2 ) ) GLOBAL_UNIT_ASSIGNED_CONTEXT ( ( #187, #104, #5 ) ) REPRESENTATION_CONTEXT ( 'NONE', 'WORKASPACE' ) );
#41 = DIRECTION ( 'NONE',  ( -1.000000000000000000, -0.0000000000000000000, -0.0000000000000000000 ) ) ;
#42 = SPHERICAL_SURFACE ( 'NONE', #244, 8.599999999999999600 ) ;
#43 = DIRECTION ( 'NONE',  ( 0.0000000000000000000, 0.0000000000000000000, 1.000000000000000000 ) ) ;
#44 = ORIENTED_EDGE ( 'NONE', *, *, #264, .F. ) ;
#45 = SURFACE_SIDE_STYLE ('',( #333 ) ) ;
#46 = MECHANICAL_DESIGN_GEOMETRIC_PRESENTATION_REPRESENTATION (  '', ( #234 ), #69 ) ;
#47 = AXIS2_PLACEMENT_3D ( 'NONE', #293, #295, #106 ) ;
#48 = VECTOR ( 'NONE', #41, 1000.000000000000000 ) ;
#49 = LINE ( 'NONE', #151, #25 ) ;
#50 = DIRECTION ( 'NONE',  ( -1.000000000000000000, -0.0000000000000000000, -0.0000000000000000000 ) ) ;
#51 =( NAMED_UNIT ( * ) PLANE_ANGLE_UNIT ( ) SI_UNIT ( $, .RADIAN. ) );
#52 = AXIS2_PLACEMENT_3D ( 'NONE', #324, #93, #311 ) ;
#53 = LINE ( 'NONE', #94, #185 ) ;
#54 = CARTESIAN_POINT ( 'NONE',  ( -0.5519199926577972300, 0.0000000000000000000, 0.0000000000000000000 ) ) ;
#55 = CARTESIAN_POINT ( 'NONE',  ( 16.46125990315656300, 0.0000000000000000000, 8.919463054943386000E-030 ) ) ;
#56 = SURFACE_STYLE_USAGE ( .BOTH. , #242 ) ;
#57 = FACE_OUTER_BOUND ( 'NONE', #123, .T. ) ;
#58 = CLOSED_SHELL ( 'NONE', ( #219, #176, #229, #280, #250, #196 ) ) ;
#59 = CARTESIAN_POINT ( 'NONE',  ( 16.46125990315656300, 0.0000000000000000000, 8.919463054943386000E-030 ) ) ;
#60 =( GEOMETRIC_REPRESENTATION_CONTEXT ( 3 ) GLOBAL_UNCERTAINTY_ASSIGNED_CONTEXT ( ( #82 ) ) GLOBAL_UNIT_ASSIGNED_CONTEXT ( ( #332, #251, #61 ) ) REPRESENTATION_CONTEXT ( 'NONE', 'WORKASPACE' ) );
#61 =( NAMED_UNIT ( * ) SI_UNIT ( $, .STERADIAN. ) SOLID_ANGLE_UNIT ( ) );
#62 = VERTEX_POINT ( 'NONE', #218 ) ;
#63 = AXIS2_PLACEMENT_3D ( 'NONE', #256, #221, #12 ) ;
#64 = CIRCLE ( 'NONE', #76, 3.999999999999997300 ) ;
#65 = CYLINDRICAL_SURFACE ( 'NONE', #343, 3.999999999999993300 ) ;
#66 = MECHANICAL_DESIGN_GEOMETRIC_PRESENTATION_REPRESENTATION (  '', ( #217 ), #60 ) ;
#67 = ORIENTED_EDGE ( 'NONE', *, *, #184, .F. ) ;
#68 = EDGE_LOOP ( 'NONE', ( #277, #270, #131 ) ) ;
#69 =( GEOMETRIC_REPRESENTATION_CONTEXT ( 3 ) GLOBAL_UNCERTAINTY_ASSIGNED_CONTEXT ( ( #179 ) ) GLOBAL_UNIT_ASSIGNED_CONTEXT ( ( #110, #282, #197 ) ) REPRESENTATION_CONTEXT ( 'NONE', 'WORKASPACE' ) );
#70 = CARTESIAN_POINT ( 'NONE',  ( 21.76125990315656000, 0.0000000000000000000, 4.598924589385272200E-016 ) ) ;
#71 = FACE_OUTER_BOUND ( 'NONE', #344, .T. ) ;
#72 = AXIS2_PLACEMENT_3D ( 'NONE', #120, #16, #113 ) ;
#73 = CARTESIAN_POINT ( 'NONE',  ( 22.87330087948068400, 0.0000000000000000000, 0.0000000000000000000 ) ) ;
#74 = CYLINDRICAL_SURFACE ( 'NONE', #258, 3.999999999999993300 ) ;
#75 = DIRECTION ( 'NONE',  ( 0.0000000000000000000, 0.0000000000000000000, 1.000000000000000000 ) ) ;
#76 = AXIS2_PLACEMENT_3D ( 'NONE', #107, #201, #194 ) ;
#77 = ORIENTED_EDGE ( 'NONE', *, *, #231, .F. ) ;
#78 = EDGE_CURVE ( 'NONE', #39, #239, #142, .T. ) ;
#79 = CARTESIAN_POINT ( 'NONE',  ( 58.28125990315656700, 0.0000000000000000000, 0.0000000000000000000 ) ) ;
#80 = PRODUCT_DEFINITION_SHAPE ( 'NONE', 'NONE',  #203 ) ;
#81 = ORIENTED_EDGE ( 'NONE', *, *, #86, .F. ) ;
#82 = UNCERTAINTY_MEASURE_WITH_UNIT (LENGTH_MEASURE( 1.000000000000000100E-005 ), #332, 'distance_accuracy_value', 'NONE');
#83 = PRODUCT_RELATED_PRODUCT_CATEGORY ( 'part', '', ( #139 ) ) ;
#84 = DIRECTION ( 'NONE',  ( 0.0000000000000000000, -1.000000000000000000, 0.0000000000000000000 ) ) ;
#85 = ORIENTED_EDGE ( 'NONE', *, *, #264, .T. ) ;
#86 = EDGE_CURVE ( 'NONE', #153, #199, #64, .T. ) ;
#87 = APPLICATION_CONTEXT ( 'automotive_design' ) ;
#88 = DIRECTION ( 'NONE',  ( -1.000000000000000000, -0.0000000000000000000, -0.0000000000000000000 ) ) ;
#89 = COLOUR_RGB ( '',1.000000000000000000, 1.000000000000000000, 1.000000000000000000 ) ;
#90 = DIRECTION ( 'NONE',  ( 0.0000000000000000000, 1.000000000000000000, 0.0000000000000000000 ) ) ;
#91 = AXIS2_PLACEMENT_3D ( 'NONE', #313, #119, #165 ) ;
#92 = DIRECTION ( 'NONE',  ( 0.0000000000000000000, 0.0000000000000000000, 1.000000000000000000 ) ) ;
#93 = DIRECTION ( 'NONE',  ( -0.0000000000000000000, -1.000000000000000000, -0.0000000000000000000 ) ) ;
#94 = CARTESIAN_POINT ( 'NONE',  ( -0.5519199926577972300, 0.0000000000000000000, 3.999999999999993300 ) ) ;
#95 = CARTESIAN_POINT ( 'NONE',  ( 26.61287819521322700, 0.0000000000000000000, -3.999999999999991600 ) ) ;
#96 = AXIS2_PLACEMENT_3D ( 'NONE', #336, #122, #286 ) ;
#97 = FACE_OUTER_BOUND ( 'NONE', #266, .T. ) ;
#98 = ORIENTED_EDGE ( 'NONE', *, *, #188, .T. ) ;
#99 = EDGE_LOOP ( 'NONE', ( #347, #127, #335, #128 ) ) ;
#100 = DIRECTION ( 'NONE',  ( 0.0000000000000000000, 0.0000000000000000000, 1.000000000000000000 ) ) ;
#101 = AXIS2_PLACEMENT_3D ( 'NONE', #24, #143, #215 ) ;
#102 = FACE_OUTER_BOUND ( 'NONE', #172, .T. ) ;
#103 = CYLINDRICAL_SURFACE ( 'NONE', #63, 4.000000000000001800 ) ;
#104 =( NAMED_UNIT ( * ) PLANE_ANGLE_UNIT ( ) SI_UNIT ( $, .RADIAN. ) );
#105 = ORIENTED_EDGE ( 'NONE', *, *, #275, .F. ) ;
#106 = DIRECTION ( 'NONE',  ( 0.0000000000000000000, 0.0000000000000000000, -1.000000000000000000 ) ) ;
#107 = CARTESIAN_POINT ( 'NONE',  ( 24.07440642742627500, 0.0000000000000000000, 0.0000000000000000000 ) ) ;
#108 = EDGE_CURVE ( 'NONE', #199, #153, #22, .T. ) ;
#109 = AXIS2_PLACEMENT_3D ( 'NONE', #73, #291, #310 ) ;
#110 =( LENGTH_UNIT ( ) NAMED_UNIT ( * ) SI_UNIT ( .MILLI., .METRE. ) );
#111 = ORIENTED_EDGE ( 'NONE', *, *, #10, .T. ) ;
#112 = ORIENTED_EDGE ( 'NONE', *, *, #157, .F. ) ;
#113 = DIRECTION ( 'NONE',  ( 0.0000000000000000000, 1.224646799147353200E-016, -1.000000000000000000 ) ) ;
#114 = DIRECTION ( 'NONE',  ( -1.000000000000000000, -0.0000000000000000000, -0.0000000000000000000 ) ) ;
#115 = AXIS2_PLACEMENT_3D ( 'NONE', #23, #43, #126 ) ;
#116 = CIRCLE ( 'NONE', #101, 3.999999999999988000 ) ;
#117 = DIRECTION ( 'NONE',  ( -1.000000000000000000, -0.0000000000000000000, -0.0000000000000000000 ) ) ;
#118 = DIRECTION ( 'NONE',  ( 0.0000000000000000000, 0.0000000000000000000, 1.000000000000000000 ) ) ;
#119 = DIRECTION ( 'NONE',  ( 0.0000000000000000000, -1.000000000000000000, -1.224646799147353200E-016 ) ) ;
#120 = CARTESIAN_POINT ( 'NONE',  ( 16.46125990315656300, 0.0000000000000000000, 8.919463054943386000E-030 ) ) ;
#121 = CIRCLE ( 'NONE', #109, 4.000000000000001800 ) ;
#122 = DIRECTION ( 'NONE',  ( -1.000000000000000000, -0.0000000000000000000, -0.0000000000000000000 ) ) ;
#123 = EDGE_LOOP ( 'NONE', ( #105, #111, #44 ) ) ;
#124 = DIRECTION ( 'NONE',  ( 0.0000000000000000000, 0.0000000000000000000, -1.000000000000000000 ) ) ;
#125 = FILL_AREA_STYLE ('',( #21 ) ) ;
#126 = DIRECTION ( 'NONE',  ( 1.000000000000000000, 0.0000000000000000000, 0.0000000000000000000 ) ) ;
#127 = ORIENTED_EDGE ( 'NONE', *, *, #157, .T. ) ;
#128 = ORIENTED_EDGE ( 'NONE', *, *, #236, .F. ) ;
#129 = CARTESIAN_POINT ( 'NONE',  ( -0.5519199926577972300, 0.0000000000000000000, 0.0000000000000000000 ) ) ;
#130 = VERTEX_POINT ( 'NONE', #202 ) ;
#131 = ORIENTED_EDGE ( 'NONE', *, *, #36, .F. ) ;
#132 = ADVANCED_BREP_SHAPE_REPRESENTATION ( '145152', ( #214, #294, #115 ), #40 ) ;
#133 = CARTESIAN_POINT ( 'NONE',  ( -0.8160621761658039000, 4.898587196589415800E-016, -4.000000000000001800 ) ) ;
#134 = SURFACE_STYLE_USAGE ( .BOTH. , #45 ) ;
#135 = FILL_AREA_STYLE_COLOUR ( '', #166 ) ;
#136 = COLOUR_RGB ( '',1.000000000000000000, 1.000000000000000000, 1.000000000000000000 ) ;
#137 = CARTESIAN_POINT ( 'NONE',  ( 26.61287819521322700, 0.0000000000000000000, 0.0000000000000000000 ) ) ;
#138 = CARTESIAN_POINT ( 'NONE',  ( 24.07440642742627500, 4.898587196589414800E-016, -4.000000000000000900 ) ) ;
#139 = PRODUCT ( '145152', '145152', '', ( #38 ) ) ;
#140 = DIRECTION ( 'NONE',  ( -0.0000000000000000000, 1.000000000000000000, 1.224646799147353200E-016 ) ) ;
#141 = SURFACE_STYLE_FILL_AREA ( #240 ) ;
#142 = CIRCLE ( 'NONE', #323, 4.000000000000000900 ) ;
#143 = DIRECTION ( 'NONE',  ( -1.000000000000000000, -0.0000000000000000000, -0.0000000000000000000 ) ) ;
#144 = DIRECTION ( 'NONE',  ( -0.0000000000000000000, -1.000000000000000000, -0.0000000000000000000 ) ) ;
#145 = ORIENTED_EDGE ( 'NONE', *, *, #188, .F. ) ;
#146 = DIRECTION ( 'NONE',  ( 0.0000000000000000000, 1.000000000000000000, -0.0000000000000000000 ) ) ;
#147 = PRESENTATION_LAYER_ASSIGNMENT (  '', '', ( #217 ) ) ;
#148 = CIRCLE ( 'NONE', #252, 8.599999999999999600 ) ;
#149 = LINE ( 'NONE', #133, #156 ) ;
#150 = AXIS2_PLACEMENT_3D ( 'NONE', #55, #84, #211 ) ;
#151 = CARTESIAN_POINT ( 'NONE',  ( -0.8160621761658039000, 0.0000000000000000000, 4.000000000000001800 ) ) ;
#152 = ORIENTED_EDGE ( 'NONE', *, *, #222, .T. ) ;
#153 = VERTEX_POINT ( 'NONE', #228 ) ;
#154 = DIRECTION ( 'NONE',  ( -0.0000000000000000000, -1.000000000000000000, -0.0000000000000000000 ) ) ;
#155 = CIRCLE ( 'NONE', #299, 3.999999999999988000 ) ;
#156 = VECTOR ( 'NONE', #339, 1000.000000000000000 ) ;
#157 = EDGE_CURVE ( 'NONE', #239, #296, #149, .T. ) ;
#158 = DIRECTION ( 'NONE',  ( 0.0000000000000000000, 0.0000000000000000000, 1.000000000000000000 ) ) ;
#159 = EDGE_LOOP ( 'NONE', ( #8, #34, #224 ) ) ;
#160 = ORIENTED_EDGE ( 'NONE', *, *, #342, .T. ) ;
#161 = CARTESIAN_POINT ( 'NONE',  ( 24.07440642742627500, 0.0000000000000000000, 0.0000000000000000000 ) ) ;
#162 = EDGE_CURVE ( 'NONE', #20, #225, #116, .T. ) ;
#163 = CIRCLE ( 'NONE', #302, 7.749999999999998200 ) ;
#164 = AXIS2_PLACEMENT_3D ( 'NONE', #161, #245, #317 ) ;
#165 = DIRECTION ( 'NONE',  ( 0.0000000000000000000, 1.224646799147353200E-016, -1.000000000000000000 ) ) ;
#166 = COLOUR_RGB ( '',1.000000000000000000, 1.000000000000000000, 1.000000000000000000 ) ;
#167 = DIRECTION ( 'NONE',  ( 0.0000000000000000000, -1.000000000000000000, -1.224646799147353200E-016 ) ) ;
#168 = EDGE_CURVE ( 'NONE', #225, #199, #53, .T. ) ;
#169 = DIRECTION ( 'NONE',  ( -1.000000000000000000, -0.0000000000000000000, -0.0000000000000000000 ) ) ;
#170 = DIRECTION ( 'NONE',  ( 0.0000000000000000000, 1.000000000000000000, -0.0000000000000000000 ) ) ;
#171 = CARTESIAN_POINT ( 'NONE',  ( 16.46125990315656300, 0.0000000000000000000, 8.919463054943386000E-030 ) ) ;
#172 = EDGE_LOOP ( 'NONE', ( #145, #212, #267, #81 ) ) ;
#173 = SPHERICAL_SURFACE ( 'NONE', #337, 8.599999999999999600 ) ;
#174 = DIRECTION ( 'NONE',  ( -1.000000000000000000, -0.0000000000000000000, -0.0000000000000000000 ) ) ;
#175 = PRESENTATION_LAYER_ASSIGNMENT (  '', '', ( #234 ) ) ;
#176 = ADVANCED_FACE ( 'NONE', ( #57 ), #220, .F. ) ;
#177 = DIRECTION ( 'NONE',  ( 0.0000000000000000000, 1.000000000000000000, 0.0000000000000000000 ) ) ;
#178 = ORIENTED_EDGE ( 'NONE', *, *, #316, .T. ) ;
#179 = UNCERTAINTY_MEASURE_WITH_UNIT (LENGTH_MEASURE( 1.000000000000000100E-005 ), #110, 'distance_accuracy_value', 'NONE');
#180 = DIRECTION ( 'NONE',  ( 0.0000000000000000000, -1.224646799147353200E-016, 1.000000000000000000 ) ) ;
#181 = ORIENTED_EDGE ( 'NONE', *, *, #231, .T. ) ;
#182 =( LENGTH_UNIT ( ) NAMED_UNIT ( * ) SI_UNIT ( .MILLI., .METRE. ) );
#183 = DIRECTION ( 'NONE',  ( 0.0000000000000000000, 1.000000000000000000, -0.0000000000000000000 ) ) ;
#184 = EDGE_CURVE ( 'NONE', #130, #28, #334, .T. ) ;
#185 = VECTOR ( 'NONE', #117, 1000.000000000000000 ) ;
#186 = AXIS2_PLACEMENT_3D ( 'NONE', #272, #170, #158 ) ;
#187 =( LENGTH_UNIT ( ) NAMED_UNIT ( * ) SI_UNIT ( .MILLI., .METRE. ) );
#188 = EDGE_CURVE ( 'NONE', #20, #153, #301, .T. ) ;
#189 = ORIENTED_EDGE ( 'NONE', *, *, #168, .F. ) ;
#190 = AXIS2_PLACEMENT_3D ( 'NONE', #1, #177, #92 ) ;
#191 = CARTESIAN_POINT ( 'NONE',  ( -0.5519199926577972300, 4.898587196589404900E-016, -3.999999999999993300 ) ) ;
#192 = CIRCLE ( 'NONE', #186, 31.92000000000000500 ) ;
#193 = EDGE_CURVE ( 'NONE', #296, #130, #230, .T. ) ;
#194 = DIRECTION ( 'NONE',  ( 0.0000000000000000000, 0.0000000000000000000, 1.000000000000000000 ) ) ;
#195 = CIRCLE ( 'NONE', #150, 8.599999999999999600 ) ;
#196 = ADVANCED_FACE ( 'NONE', ( #102 ), #74, .T. ) ;
#197 =( NAMED_UNIT ( * ) SI_UNIT ( $, .STERADIAN. ) SOLID_ANGLE_UNIT ( ) );
#198 = DIRECTION ( 'NONE',  ( -0.0000000000000000000, -1.000000000000000000, -0.0000000000000000000 ) ) ;
#199 = VERTEX_POINT ( 'NONE', #284 ) ;
#200 = ORIENTED_EDGE ( 'NONE', *, *, #10, .F. ) ;
#201 = DIRECTION ( 'NONE',  ( -1.000000000000000000, -0.0000000000000000000, -0.0000000000000000000 ) ) ;
#202 = CARTESIAN_POINT ( 'NONE',  ( 22.87330087948068400, -4.898587196589412800E-016, 4.000000000000000000 ) ) ;
#203 = PRODUCT_DEFINITION ( 'Î´Öª', '', #265, #11 ) ;
#204 = FACE_OUTER_BOUND ( 'NONE', #13, .T. ) ;
#205 = CARTESIAN_POINT ( 'NONE',  ( 24.07440642742627500, 0.0000000000000000000, 0.0000000000000000000 ) ) ;
#206 = UNCERTAINTY_MEASURE_WITH_UNIT (LENGTH_MEASURE( 1.000000000000000100E-005 ), #182, 'distance_accuracy_value', 'NONE');
#207 = CARTESIAN_POINT ( 'NONE',  ( 26.61287819521322700, -4.898587196589402000E-016, 3.999999999999991600 ) ) ;
#208 = AXIS2_PLACEMENT_3D ( 'NONE', #4, #144, #308 ) ;
#209 = CARTESIAN_POINT ( 'NONE',  ( 24.07440642742627500, 0.0000000000000000000, 4.000000000000000900 ) ) ;
#210 = AXIS2_PLACEMENT_3D ( 'NONE', #79, #269, #261 ) ;
#211 = DIRECTION ( 'NONE',  ( 0.0000000000000000000, 0.0000000000000000000, -1.000000000000000000 ) ) ;
#212 = ORIENTED_EDGE ( 'NONE', *, *, #162, .T. ) ;
#213 = SPHERICAL_SURFACE ( 'NONE', #248, 8.599999999999999600 ) ;
#214 = MANIFOLD_SOLID_BREP ( 'Ðý×ª1', #254 ) ;
#215 = DIRECTION ( 'NONE',  ( 0.0000000000000000000, 0.0000000000000000000, 1.000000000000000000 ) ) ;
#216 = ADVANCED_FACE ( 'NONE', ( #309 ), #326, .T. ) ;
#217 = STYLED_ITEM ( 'NONE', ( #223 ), #132 ) ;
#218 = CARTESIAN_POINT ( 'NONE',  ( 25.06125990315656100, 0.0000000000000000000, -5.265981236333528700E-016 ) ) ;
#219 = ADVANCED_FACE ( 'NONE', ( #204 ), #65, .T. ) ;
#220 = SPHERICAL_SURFACE ( 'NONE', #210, 31.92000000000000500 ) ;
#221 = DIRECTION ( 'NONE',  ( -1.000000000000000000, -0.0000000000000000000, -0.0000000000000000000 ) ) ;
#222 = EDGE_CURVE ( 'NONE', #239, #39, #345, .T. ) ;
#223 = PRESENTATION_STYLE_ASSIGNMENT (( #134 ) ) ;
#224 = ORIENTED_EDGE ( 'NONE', *, *, #86, .T. ) ;
#225 = VERTEX_POINT ( 'NONE', #207 ) ;
#226 = CARTESIAN_POINT ( 'NONE',  ( 29.51125990315656000, 0.0000000000000000000, 9.344430936081264100E-016 ) ) ;
#227 = EDGE_CURVE ( 'NONE', #19, #239, #318, .T. ) ;
#228 = CARTESIAN_POINT ( 'NONE',  ( 24.07440642742627500, 0.0000000000000000000, -3.999999999999998200 ) ) ;
#229 = ADVANCED_FACE ( 'NONE', ( #331 ), #173, .F. ) ;
#230 = CIRCLE ( 'NONE', #320, 4.000000000000001800 ) ;
#231 = EDGE_CURVE ( 'NONE', #19, #39, #195, .T. ) ;
#232 = CARTESIAN_POINT ( 'NONE',  ( 16.46125990315656300, 0.0000000000000000000, 8.919463054943386000E-030 ) ) ;
#233 = SPHERICAL_SURFACE ( 'NONE', #190, 8.599999999999999600 ) ;
#234 = STYLED_ITEM ( 'NONE', ( #346 ), #294 ) ;
#235 = EDGE_LOOP ( 'NONE', ( #77, #322, #37 ) ) ;
#236 = EDGE_CURVE ( 'NONE', #39, #130, #49, .T. ) ;
#237 = ADVANCED_FACE ( 'NONE', ( #314 ), #103, .T. ) ;
#238 = CARTESIAN_POINT ( 'NONE',  ( 26.36125990315656200, 0.0000000000000000000, -1.954536291439176000E-015 ) ) ;
#239 = VERTEX_POINT ( 'NONE', #138 ) ;
#240 = FILL_AREA_STYLE ('',( #135 ) ) ;
#241 = CARTESIAN_POINT ( 'NONE',  ( 29.51125990315656000, 0.0000000000000000000, 9.344430936081264100E-016 ) ) ;
#242 = SURFACE_SIDE_STYLE ('',( #141 ) ) ;
#243 = ADVANCED_FACE ( 'NONE', ( #33 ), #328, .T. ) ;
#244 = AXIS2_PLACEMENT_3D ( 'NONE', #59, #154, #124 ) ;
#245 = DIRECTION ( 'NONE',  ( -1.000000000000000000, -0.0000000000000000000, -0.0000000000000000000 ) ) ;
#246 = FILL_AREA_STYLE_COLOUR ( '', #136 ) ;
#247 = DIRECTION ( 'NONE',  ( 0.0000000000000000000, 0.0000000000000000000, 1.000000000000000000 ) ) ;
#248 = AXIS2_PLACEMENT_3D ( 'NONE', #268, #90, #75 ) ;
#249 = VERTEX_POINT ( 'NONE', #238 ) ;
#250 = ADVANCED_FACE ( 'NONE', ( #71 ), #290, .F. ) ;
#251 =( NAMED_UNIT ( * ) PLANE_ANGLE_UNIT ( ) SI_UNIT ( $, .RADIAN. ) );
#252 = AXIS2_PLACEMENT_3D ( 'NONE', #232, #146, #247 ) ;
#253 = CIRCLE ( 'NONE', #72, 8.599999999999999600 ) ;
#254 = CLOSED_SHELL ( 'NONE', ( #274, #237, #273, #216, #243, #260 ) ) ;
#255 = APPLICATION_PROTOCOL_DEFINITION ( 'draft international standard', 'automotive_design', 1998, #87 ) ;
#256 = CARTESIAN_POINT ( 'NONE',  ( -0.8160621761658039000, 0.0000000000000000000, 0.0000000000000000000 ) ) ;
#257 = FACE_OUTER_BOUND ( 'NONE', #235, .T. ) ;
#258 = AXIS2_PLACEMENT_3D ( 'NONE', #54, #319, #327 ) ;
#259 = ORIENTED_EDGE ( 'NONE', *, *, #36, .T. ) ;
#260 = ADVANCED_FACE ( 'NONE', ( #97 ), #233, .T. ) ;
#261 = DIRECTION ( 'NONE',  ( 0.0000000000000000000, 0.0000000000000000000, -1.000000000000000000 ) ) ;
#262 = ORIENTED_EDGE ( 'NONE', *, *, #108, .F. ) ;
#263 = CARTESIAN_POINT ( 'NONE',  ( 25.06125990315656100, 0.0000000000000000000, 5.265981236333708200E-016 ) ) ;
#264 = EDGE_CURVE ( 'NONE', #20, #249, #192, .T. ) ;
#265 = PRODUCT_DEFINITION_FORMATION_WITH_SPECIFIED_SOURCE ( 'ÈÎºÎ', '', #139, .NOT_KNOWN. ) ;
#266 = EDGE_LOOP ( 'NONE', ( #298, #181, #315 ) ) ;
#267 = ORIENTED_EDGE ( 'NONE', *, *, #168, .T. ) ;
#268 = CARTESIAN_POINT ( 'NONE',  ( 16.46125990315656300, 0.0000000000000000000, 8.919463054943386000E-030 ) ) ;
#269 = DIRECTION ( 'NONE',  ( -0.0000000000000000000, -1.000000000000000000, -0.0000000000000000000 ) ) ;
#270 = ORIENTED_EDGE ( 'NONE', *, *, #184, .T. ) ;
#271 = EDGE_LOOP ( 'NONE', ( #67, #160, #259 ) ) ;
#272 = CARTESIAN_POINT ( 'NONE',  ( 58.28125990315656700, 0.0000000000000000000, 0.0000000000000000000 ) ) ;
#273 = ADVANCED_FACE ( 'NONE', ( #3 ), #7, .T. ) ;
#274 = ADVANCED_FACE ( 'NONE', ( #257 ), #213, .T. ) ;
#275 = EDGE_CURVE ( 'NONE', #225, #20, #155, .T. ) ;
#276 = CARTESIAN_POINT ( 'NONE',  ( 16.46125990315656300, 0.0000000000000000000, 8.919463054943386000E-030 ) ) ;
#277 = ORIENTED_EDGE ( 'NONE', *, *, #193, .T. ) ;
#278 = SURFACE_STYLE_FILL_AREA ( #15 ) ;
#279 = DIRECTION ( 'NONE',  ( 0.0000000000000000000, 1.224646799147353200E-016, -1.000000000000000000 ) ) ;
#280 = ADVANCED_FACE ( 'NONE', ( #285 ), #42, .F. ) ;
#281 = DIRECTION ( 'NONE',  ( 0.0000000000000000000, 0.0000000000000000000, 1.000000000000000000 ) ) ;
#282 =( NAMED_UNIT ( * ) PLANE_ANGLE_UNIT ( ) SI_UNIT ( $, .RADIAN. ) );
#283 = EDGE_CURVE ( 'NONE', #62, #153, #148, .T. ) ;
#284 = CARTESIAN_POINT ( 'NONE',  ( 24.07440642742627500, -4.898587196589411800E-016, 3.999999999999998200 ) ) ;
#285 = FACE_OUTER_BOUND ( 'NONE', #159, .T. ) ;
#286 = DIRECTION ( 'NONE',  ( 0.0000000000000000000, 0.0000000000000000000, 1.000000000000000000 ) ) ;
#287 = ORIENTED_EDGE ( 'NONE', *, *, #193, .F. ) ;
#288 = DIRECTION ( 'NONE',  ( -1.000000000000000000, -0.0000000000000000000, -0.0000000000000000000 ) ) ;
#289 = DIRECTION ( 'NONE',  ( 0.0000000000000000000, 0.0000000000000000000, 1.000000000000000000 ) ) ;
#290 = SPHERICAL_SURFACE ( 'NONE', #52, 31.92000000000000500 ) ;
#291 = DIRECTION ( 'NONE',  ( -1.000000000000000000, -0.0000000000000000000, -0.0000000000000000000 ) ) ;
#292 = APPLICATION_PROTOCOL_DEFINITION ( 'draft international standard', 'automotive_design', 1998, #30 ) ;
#293 = CARTESIAN_POINT ( 'NONE',  ( 29.51125990315656000, 0.0000000000000000000, 9.344430936081264100E-016 ) ) ;
#294 = MANIFOLD_SOLID_BREP ( 'Ðý×ª2', #58 ) ;
#295 = DIRECTION ( 'NONE',  ( -0.0000000000000000000, -1.000000000000000000, -0.0000000000000000000 ) ) ;
#296 = VERTEX_POINT ( 'NONE', #307 ) ;
#297 = CARTESIAN_POINT ( 'NONE',  ( -0.8160621761658039000, 0.0000000000000000000, 0.0000000000000000000 ) ) ;
#298 = ORIENTED_EDGE ( 'NONE', *, *, #227, .F. ) ;
#299 = AXIS2_PLACEMENT_3D ( 'NONE', #137, #88, #281 ) ;
#300 = SHAPE_DEFINITION_REPRESENTATION ( #80, #132 ) ;
#301 = LINE ( 'NONE', #191, #48 ) ;
#302 = AXIS2_PLACEMENT_3D ( 'NONE', #226, #183, #29 ) ;
#303 = PRESENTATION_LAYER_ASSIGNMENT (  '', '', ( #325 ) ) ;
#304 = ORIENTED_EDGE ( 'NONE', *, *, #108, .T. ) ;
#305 = SURFACE_STYLE_USAGE ( .BOTH. , #340 ) ;
#306 = AXIS2_PLACEMENT_3D ( 'NONE', #241, #167, #279 ) ;
#307 = CARTESIAN_POINT ( 'NONE',  ( 22.87330087948068400, 0.0000000000000000000, -4.000000000000000000 ) ) ;
#308 = DIRECTION ( 'NONE',  ( 0.0000000000000000000, 0.0000000000000000000, -1.000000000000000000 ) ) ;
#309 = FACE_OUTER_BOUND ( 'NONE', #271, .T. ) ;
#310 = DIRECTION ( 'NONE',  ( 0.0000000000000000000, 0.0000000000000000000, 1.000000000000000000 ) ) ;
#311 = DIRECTION ( 'NONE',  ( 0.0000000000000000000, 0.0000000000000000000, -1.000000000000000000 ) ) ;
#312 = AXIS2_PLACEMENT_3D ( 'NONE', #171, #140, #180 ) ;
#313 = CARTESIAN_POINT ( 'NONE',  ( 58.28125990315656700, 0.0000000000000000000, 0.0000000000000000000 ) ) ;
#314 = FACE_OUTER_BOUND ( 'NONE', #99, .T. ) ;
#315 = ORIENTED_EDGE ( 'NONE', *, *, #222, .F. ) ;
#316 = EDGE_CURVE ( 'NONE', #62, #199, #253, .T. ) ;
#317 = DIRECTION ( 'NONE',  ( 0.0000000000000000000, 0.0000000000000000000, 1.000000000000000000 ) ) ;
#318 = CIRCLE ( 'NONE', #312, 8.599999999999999600 ) ;
#319 = DIRECTION ( 'NONE',  ( -1.000000000000000000, -0.0000000000000000000, -0.0000000000000000000 ) ) ;
#320 = AXIS2_PLACEMENT_3D ( 'NONE', #18, #288, #341 ) ;
#321 = ORIENTED_EDGE ( 'NONE', *, *, #283, .F. ) ;
#322 = ORIENTED_EDGE ( 'NONE', *, *, #227, .T. ) ;
#323 = AXIS2_PLACEMENT_3D ( 'NONE', #205, #114, #289 ) ;
#324 = CARTESIAN_POINT ( 'NONE',  ( 58.28125990315656700, 0.0000000000000000000, 0.0000000000000000000 ) ) ;
#325 = STYLED_ITEM ( 'NONE', ( #9 ), #214 ) ;
#326 = SPHERICAL_SURFACE ( 'NONE', #47, 7.749999999999998200 ) ;
#327 = DIRECTION ( 'NONE',  ( 0.0000000000000000000, 0.0000000000000000000, 1.000000000000000000 ) ) ;
#328 = CYLINDRICAL_SURFACE ( 'NONE', #17, 4.000000000000001800 ) ;
#329 = MECHANICAL_DESIGN_GEOMETRIC_PRESENTATION_REPRESENTATION (  '', ( #325 ), #27 ) ;
#330 = ORIENTED_EDGE ( 'NONE', *, *, #162, .F. ) ;
#331 = FACE_OUTER_BOUND ( 'NONE', #35, .T. ) ;
#332 =( LENGTH_UNIT ( ) NAMED_UNIT ( * ) SI_UNIT ( .MILLI., .METRE. ) );
#333 = SURFACE_STYLE_FILL_AREA ( #125 ) ;
#334 = CIRCLE ( 'NONE', #306, 7.749999999999998200 ) ;
#335 = ORIENTED_EDGE ( 'NONE', *, *, #342, .F. ) ;
#336 = CARTESIAN_POINT ( 'NONE',  ( 24.07440642742627500, 0.0000000000000000000, 0.0000000000000000000 ) ) ;
#337 = AXIS2_PLACEMENT_3D ( 'NONE', #276, #198, #6 ) ;
#338 = EDGE_LOOP ( 'NONE', ( #112, #152, #31, #287 ) ) ;
#339 = DIRECTION ( 'NONE',  ( -1.000000000000000000, -0.0000000000000000000, -0.0000000000000000000 ) ) ;
#340 = SURFACE_SIDE_STYLE ('',( #278 ) ) ;
#341 = DIRECTION ( 'NONE',  ( 0.0000000000000000000, 0.0000000000000000000, 1.000000000000000000 ) ) ;
#342 = EDGE_CURVE ( 'NONE', #130, #296, #121, .T. ) ;
#343 = AXIS2_PLACEMENT_3D ( 'NONE', #129, #50, #100 ) ;
#344 = EDGE_LOOP ( 'NONE', ( #200, #330, #85 ) ) ;
#345 = CIRCLE ( 'NONE', #164, 4.000000000000000900 ) ;
#346 = PRESENTATION_STYLE_ASSIGNMENT (( #56 ) ) ;
#347 = ORIENTED_EDGE ( 'NONE', *, *, #78, .T. ) ;
ENDSEC;
END-ISO-10303-21;
