ISO-10303-21;
HEADER;
FILE_DESCRIPTION (( 'STEP AP214' ),
    '1' );
FILE_NAME ('145153.STEP',
    '2019-06-06T08:05:18',
    ( 'user' ),
    ( 'Î¢ÈíÖÐ¹ú' ),
    'SwSTEP 2.0',
    'SolidWorks 2016',
    '' );
FILE_SCHEMA (( 'AUTOMOTIVE_DESIGN' ));
ENDSEC;

DATA;
#1 = ORIENTED_EDGE ( 'NONE', *, *, #170, .T. ) ;
#2 = CLOSED_SHELL ( 'NONE', ( #271, #206, #143, #37, #300, #140 ) ) ;
#3 = PRODUCT_RELATED_PRODUCT_CATEGORY ( 'part', '', ( #341 ) ) ;
#4 = DIRECTION ( 'NONE',  ( -0.0000000000000000000, -1.000000000000000000, -0.0000000000000000000 ) ) ;
#5 =( GEOMETRIC_REPRESENTATION_CONTEXT ( 3 ) GLOBAL_UNCERTAINTY_ASSIGNED_CONTEXT ( ( #24 ) ) GLOBAL_UNIT_ASSIGNED_CONTEXT ( ( #81, #196, #142 ) ) REPRESENTATION_CONTEXT ( 'NONE', 'WORKASPACE' ) );
#6 = PRODUCT_DEFINITION_SHAPE ( 'NONE', 'NONE',  #330 ) ;
#7 = CYLINDRICAL_SURFACE ( 'NONE', #294, 6.349999999999985400 ) ;
#8 = DIRECTION ( 'NONE',  ( 0.0000000000000000000, 0.0000000000000000000, 1.000000000000000000 ) ) ;
#9 = ORIENTED_EDGE ( 'NONE', *, *, #269, .T. ) ;
#10 = DIRECTION ( 'NONE',  ( 0.0000000000000000000, 0.0000000000000000000, -1.000000000000000000 ) ) ;
#11 = MANIFOLD_SOLID_BREP ( 'Ðý×ª1', #2 ) ;
#12 = VECTOR ( 'NONE', #118, 1000.000000000000000 ) ;
#13 = ORIENTED_EDGE ( 'NONE', *, *, #327, .F. ) ;
#14 = DIRECTION ( 'NONE',  ( 0.0000000000000000000, 0.0000000000000000000, 1.000000000000000000 ) ) ;
#15 = DIRECTION ( 'NONE',  ( -1.000000000000000000, -0.0000000000000000000, -0.0000000000000000000 ) ) ;
#16 = ORIENTED_EDGE ( 'NONE', *, *, #76, .T. ) ;
#17 = CARTESIAN_POINT ( 'NONE',  ( -0.8160621761658039000, 0.0000000000000000000, 0.0000000000000000000 ) ) ;
#18 = CIRCLE ( 'NONE', #228, 10.01000000000000900 ) ;
#19 = CYLINDRICAL_SURFACE ( 'NONE', #107, 6.349999999999985400 ) ;
#20 = CARTESIAN_POINT ( 'NONE',  ( 29.71592517938952600, 0.0000000000000000000, -1.486340163181221600E-022 ) ) ;
#21 = ORIENTED_EDGE ( 'NONE', *, *, #224, .F. ) ;
#22 = UNCERTAINTY_MEASURE_WITH_UNIT (LENGTH_MEASURE( 1.000000000000000100E-005 ), #214, 'distance_accuracy_value', 'NONE');
#23 = ORIENTED_EDGE ( 'NONE', *, *, #272, .T. ) ;
#24 = UNCERTAINTY_MEASURE_WITH_UNIT (LENGTH_MEASURE( 1.000000000000000100E-005 ), #81, 'distance_accuracy_value', 'NONE');
#25 = CARTESIAN_POINT ( 'NONE',  ( 12.28592517938952600, 0.0000000000000000000, 0.0000000000000000000 ) ) ;
#26 = AXIS2_PLACEMENT_3D ( 'NONE', #216, #255, #10 ) ;
#27 = CYLINDRICAL_SURFACE ( 'NONE', #134, 6.349999999999999600 ) ;
#28 = CIRCLE ( 'NONE', #303, 6.349999999999985400 ) ;
#29 = DIRECTION ( 'NONE',  ( -1.000000000000000000, -0.0000000000000000000, -0.0000000000000000000 ) ) ;
#30 = ORIENTED_EDGE ( 'NONE', *, *, #320, .F. ) ;
#31 = CARTESIAN_POINT ( 'NONE',  ( 20.02398695221096100, 0.0000000000000000000, 0.0000000000000000000 ) ) ;
#32 = AXIS2_PLACEMENT_3D ( 'NONE', #335, #251, #283 ) ;
#33 = LINE ( 'NONE', #314, #12 ) ;
#34 = CARTESIAN_POINT ( 'NONE',  ( -24.95407482061046900, 0.0000000000000000000, 0.0000000000000000000 ) ) ;
#35 = AXIS2_PLACEMENT_3D ( 'NONE', #153, #29, #212 ) ;
#36 = CARTESIAN_POINT ( 'NONE',  ( -0.5519199926577972300, 0.0000000000000000000, 6.349999999999985400 ) ) ;
#37 = ADVANCED_FACE ( 'NONE', ( #148 ), #172, .T. ) ;
#38 = CIRCLE ( 'NONE', #135, 6.349999999999985400 ) ;
#39 = FACE_OUTER_BOUND ( 'NONE', #47, .T. ) ;
#40 = CIRCLE ( 'NONE', #221, 12.41999999999999800 ) ;
#41 = CIRCLE ( 'NONE', #26, 12.41999999999999800 ) ;
#42 = CARTESIAN_POINT ( 'NONE',  ( -0.8160621761658039000, 0.0000000000000000000, 6.349999999999999600 ) ) ;
#43 = DIRECTION ( 'NONE',  ( -0.0000000000000000000, -1.000000000000000000, -0.0000000000000000000 ) ) ;
#44 = EDGE_CURVE ( 'NONE', #105, #146, #171, .T. ) ;
#45 = CARTESIAN_POINT ( 'NONE',  ( 19.04194279229519500, 0.0000000000000000000, 6.349999999999997900 ) ) ;
#46 = CYLINDRICAL_SURFACE ( 'NONE', #35, 6.349999999999999600 ) ;
#47 = EDGE_LOOP ( 'NONE', ( #336, #23, #158 ) ) ;
#48 = EDGE_CURVE ( 'NONE', #132, #223, #164, .T. ) ;
#49 = SPHERICAL_SURFACE ( 'NONE', #109, 48.75000000000000700 ) ;
#50 = FACE_OUTER_BOUND ( 'NONE', #131, .T. ) ;
#51 = PRESENTATION_LAYER_ASSIGNMENT (  '', '', ( #286 ) ) ;
#52 = AXIS2_PLACEMENT_3D ( 'NONE', #189, #99, #258 ) ;
#53 = SURFACE_STYLE_USAGE ( .BOTH. , #343 ) ;
#54 = CIRCLE ( 'NONE', #183, 6.349999999999999600 ) ;
#55 = FACE_OUTER_BOUND ( 'NONE', #103, .T. ) ;
#56 =( GEOMETRIC_REPRESENTATION_CONTEXT ( 3 ) GLOBAL_UNCERTAINTY_ASSIGNED_CONTEXT ( ( #126 ) ) GLOBAL_UNIT_ASSIGNED_CONTEXT ( ( #157, #298, #319 ) ) REPRESENTATION_CONTEXT ( 'NONE', 'WORKASPACE' ) );
#57 = EDGE_LOOP ( 'NONE', ( #13, #144, #114, #338 ) ) ;
#58 = CARTESIAN_POINT ( 'NONE',  ( 20.02398695221096100, 0.0000000000000000000, 6.349999999999999600 ) ) ;
#59 = SPHERICAL_SURFACE ( 'NONE', #253, 48.75000000000000700 ) ;
#60 = SPHERICAL_SURFACE ( 'NONE', #52, 10.01000000000000900 ) ;
#61 = APPLICATION_PROTOCOL_DEFINITION ( 'draft international standard', 'automotive_design', 1998, #169 ) ;
#62 = CARTESIAN_POINT ( 'NONE',  ( 19.04194279229519500, 7.776507174585690200E-016, -6.349999999999997900 ) ) ;
#63 = FACE_OUTER_BOUND ( 'NONE', #220, .T. ) ;
#64 = FACE_OUTER_BOUND ( 'NONE', #89, .T. ) ;
#65 = DIRECTION ( 'NONE',  ( -0.0000000000000000000, 1.000000000000000000, 1.224646799147353200E-016 ) ) ;
#66 = SPHERICAL_SURFACE ( 'NONE', #297, 10.01000000000000900 ) ;
#67 = VECTOR ( 'NONE', #337, 1000.000000000000000 ) ;
#68 = DIRECTION ( 'NONE',  ( 0.0000000000000000000, 1.224646799147353200E-016, -1.000000000000000000 ) ) ;
#69 = VERTEX_POINT ( 'NONE', #62 ) ;
#70 = PRESENTATION_LAYER_ASSIGNMENT (  '', '', ( #102 ) ) ;
#71 = DIRECTION ( 'NONE',  ( -1.000000000000000000, -0.0000000000000000000, -0.0000000000000000000 ) ) ;
#72 = AXIS2_PLACEMENT_3D ( 'NONE', #125, #309, #329 ) ;
#73 = FACE_OUTER_BOUND ( 'NONE', #301, .T. ) ;
#74 = DIRECTION ( 'NONE',  ( 0.0000000000000000000, -1.000000000000000000, 0.0000000000000000000 ) ) ;
#75 = ORIENTED_EDGE ( 'NONE', *, *, #48, .T. ) ;
#76 = EDGE_CURVE ( 'NONE', #205, #132, #175, .T. ) ;
#77 = ORIENTED_EDGE ( 'NONE', *, *, #178, .F. ) ;
#78 = VERTEX_POINT ( 'NONE', #345 ) ;
#79 = CARTESIAN_POINT ( 'NONE',  ( 22.29592517938953100, 0.0000000000000000000, 6.129357229732508100E-016 ) ) ;
#80 = AXIS2_PLACEMENT_3D ( 'NONE', #306, #248, #242 ) ;
#81 =( LENGTH_UNIT ( ) NAMED_UNIT ( * ) SI_UNIT ( .MILLI., .METRE. ) );
#82 = SPHERICAL_SURFACE ( 'NONE', #316, 12.41999999999999800 ) ;
#83 = VECTOR ( 'NONE', #71, 1000.000000000000000 ) ;
#84 = EDGE_CURVE ( 'NONE', #276, #223, #197, .T. ) ;
#85 = CARTESIAN_POINT ( 'NONE',  ( 0.0000000000000000000, 0.0000000000000000000, 0.0000000000000000000 ) ) ;
#86 = CARTESIAN_POINT ( 'NONE',  ( -0.5519199926577972300, 0.0000000000000000000, 0.0000000000000000000 ) ) ;
#87 = LINE ( 'NONE', #36, #83 ) ;
#88 = CARTESIAN_POINT ( 'NONE',  ( 20.02398695221095800, 0.0000000000000000000, 0.0000000000000000000 ) ) ;
#89 = EDGE_LOOP ( 'NONE', ( #152, #324, #202, #77 ) ) ;
#90 = COLOUR_RGB ( '',1.000000000000000000, 1.000000000000000000, 1.000000000000000000 ) ;
#91 = MANIFOLD_SOLID_BREP ( 'Ðý×ª2', #243 ) ;
#92 = FILL_AREA_STYLE_COLOUR ( '', #181 ) ;
#93 = VERTEX_POINT ( 'NONE', #79 ) ;
#94 = EDGE_CURVE ( 'NONE', #93, #146, #200, .T. ) ;
#95 = CIRCLE ( 'NONE', #119, 48.75000000000000700 ) ;
#96 = DIRECTION ( 'NONE',  ( 0.0000000000000000000, 0.0000000000000000000, 1.000000000000000000 ) ) ;
#97 = ORIENTED_EDGE ( 'NONE', *, *, #162, .T. ) ;
#98 = CARTESIAN_POINT ( 'NONE',  ( -24.95407482061046900, 0.0000000000000000000, 0.0000000000000000000 ) ) ;
#99 = DIRECTION ( 'NONE',  ( -0.0000000000000000000, -1.000000000000000000, -0.0000000000000000000 ) ) ;
#100 = CARTESIAN_POINT ( 'NONE',  ( 22.29592517938953100, 0.0000000000000000000, -6.129357229732508100E-016 ) ) ;
#101 = SURFACE_STYLE_FILL_AREA ( #195 ) ;
#102 = STYLED_ITEM ( 'NONE', ( #117 ), #11 ) ;
#103 = EDGE_LOOP ( 'NONE', ( #30, #16, #75 ) ) ;
#104 = ORIENTED_EDGE ( 'NONE', *, *, #145, .T. ) ;
#105 = VERTEX_POINT ( 'NONE', #128 ) ;
#106 =( NAMED_UNIT ( * ) PLANE_ANGLE_UNIT ( ) SI_UNIT ( $, .RADIAN. ) );
#107 = AXIS2_PLACEMENT_3D ( 'NONE', #86, #218, #8 ) ;
#108 = VERTEX_POINT ( 'NONE', #45 ) ;
#109 = AXIS2_PLACEMENT_3D ( 'NONE', #203, #43, #332 ) ;
#110 = CARTESIAN_POINT ( 'NONE',  ( 12.28592517938952600, 0.0000000000000000000, 0.0000000000000000000 ) ) ;
#111 =( NAMED_UNIT ( * ) SI_UNIT ( $, .STERADIAN. ) SOLID_ANGLE_UNIT ( ) );
#112 = FILL_AREA_STYLE ('',( #92 ) ) ;
#113 = DIRECTION ( 'NONE',  ( 0.0000000000000000000, 0.0000000000000000000, -1.000000000000000000 ) ) ;
#114 = ORIENTED_EDGE ( 'NONE', *, *, #208, .T. ) ;
#115 = DIRECTION ( 'NONE',  ( 0.0000000000000000000, 0.0000000000000000000, 1.000000000000000000 ) ) ;
#116 = FILL_AREA_STYLE_COLOUR ( '', #127 ) ;
#117 = PRESENTATION_STYLE_ASSIGNMENT (( #274 ) ) ;
#118 = DIRECTION ( 'NONE',  ( -1.000000000000000000, -0.0000000000000000000, -0.0000000000000000000 ) ) ;
#119 = AXIS2_PLACEMENT_3D ( 'NONE', #234, #342, #307 ) ;
#120 = ORIENTED_EDGE ( 'NONE', *, *, #208, .F. ) ;
#121 = DIRECTION ( 'NONE',  ( 0.0000000000000000000, -1.224646799147353500E-016, 1.000000000000000000 ) ) ;
#122 = APPLICATION_PROTOCOL_DEFINITION ( 'draft international standard', 'automotive_design', 1998, #293 ) ;
#123 = CARTESIAN_POINT ( 'NONE',  ( 12.28592517938952600, 0.0000000000000000000, 0.0000000000000000000 ) ) ;
#124 = STYLED_ITEM ( 'NONE', ( #263 ), #150 ) ;
#125 = CARTESIAN_POINT ( 'NONE',  ( 20.02398695221095800, 0.0000000000000000000, 0.0000000000000000000 ) ) ;
#126 = UNCERTAINTY_MEASURE_WITH_UNIT (LENGTH_MEASURE( 1.000000000000000100E-005 ), #157, 'distance_accuracy_value', 'NONE');
#127 = COLOUR_RGB ( '',1.000000000000000000, 1.000000000000000000, 1.000000000000000000 ) ;
#128 = CARTESIAN_POINT ( 'NONE',  ( 20.02398695221096100, 7.776507174585692200E-016, -6.349999999999999600 ) ) ;
#129 = ORIENTED_EDGE ( 'NONE', *, *, #272, .F. ) ;
#130 = EDGE_CURVE ( 'NONE', #146, #105, #156, .T. ) ;
#131 = EDGE_LOOP ( 'NONE', ( #264, #273, #315, #120 ) ) ;
#132 = VERTEX_POINT ( 'NONE', #222 ) ;
#133 = AXIS2_PLACEMENT_3D ( 'NONE', #20, #194, #299 ) ;
#134 = AXIS2_PLACEMENT_3D ( 'NONE', #17, #15, #136 ) ;
#135 = AXIS2_PLACEMENT_3D ( 'NONE', #231, #290, #289 ) ;
#136 = DIRECTION ( 'NONE',  ( 0.0000000000000000000, 0.0000000000000000000, 1.000000000000000000 ) ) ;
#137 = ORIENTED_EDGE ( 'NONE', *, *, #308, .T. ) ;
#138 = VERTEX_POINT ( 'NONE', #149 ) ;
#139 = EDGE_CURVE ( 'NONE', #108, #69, #226, .T. ) ;
#140 = ADVANCED_FACE ( 'NONE', ( #237 ), #246, .T. ) ;
#141 = FACE_OUTER_BOUND ( 'NONE', #215, .T. ) ;
#142 =( NAMED_UNIT ( * ) SI_UNIT ( $, .STERADIAN. ) SOLID_ANGLE_UNIT ( ) );
#143 = ADVANCED_FACE ( 'NONE', ( #252 ), #82, .T. ) ;
#144 = ORIENTED_EDGE ( 'NONE', *, *, #44, .T. ) ;
#145 = EDGE_CURVE ( 'NONE', #276, #239, #235, .T. ) ;
#146 = VERTEX_POINT ( 'NONE', #58 ) ;
#147 = ORIENTED_EDGE ( 'NONE', *, *, #76, .F. ) ;
#148 = FACE_OUTER_BOUND ( 'NONE', #313, .T. ) ;
#149 = CARTESIAN_POINT ( 'NONE',  ( 23.79592517938954200, 0.0000000000000000000, -2.985076572921674000E-015 ) ) ;
#150 = ADVANCED_BREP_SHAPE_REPRESENTATION ( '145153', ( #11, #91, #262 ), #185 ) ;
#151 = CARTESIAN_POINT ( 'NONE',  ( 19.04194279229519500, 0.0000000000000000000, 0.0000000000000000000 ) ) ;
#152 = ORIENTED_EDGE ( 'NONE', *, *, #224, .T. ) ;
#153 = CARTESIAN_POINT ( 'NONE',  ( -0.8160621761658039000, 0.0000000000000000000, 0.0000000000000000000 ) ) ;
#154 = CARTESIAN_POINT ( 'NONE',  ( 20.02398695221096100, 0.0000000000000000000, 0.0000000000000000000 ) ) ;
#155 =( GEOMETRIC_REPRESENTATION_CONTEXT ( 3 ) GLOBAL_UNCERTAINTY_ASSIGNED_CONTEXT ( ( #22 ) ) GLOBAL_UNIT_ASSIGNED_CONTEXT ( ( #214, #334, #111 ) ) REPRESENTATION_CONTEXT ( 'NONE', 'WORKASPACE' ) );
#156 = CIRCLE ( 'NONE', #344, 6.349999999999999600 ) ;
#157 =( LENGTH_UNIT ( ) NAMED_UNIT ( * ) SI_UNIT ( .MILLI., .METRE. ) );
#158 = ORIENTED_EDGE ( 'NONE', *, *, #130, .F. ) ;
#159 = EDGE_LOOP ( 'NONE', ( #129, #331, #229 ) ) ;
#160 = MECHANICAL_DESIGN_GEOMETRIC_PRESENTATION_REPRESENTATION (  '', ( #102 ), #56 ) ;
#161 = DIRECTION ( 'NONE',  ( 0.0000000000000000000, 0.0000000000000000000, 1.000000000000000000 ) ) ;
#162 = EDGE_CURVE ( 'NONE', #138, #276, #95, .T. ) ;
#163 = CARTESIAN_POINT ( 'NONE',  ( 29.71592517938952600, 0.0000000000000000000, -1.486340163181221600E-022 ) ) ;
#164 = CIRCLE ( 'NONE', #72, 6.349999999999985400 ) ;
#165 = MECHANICAL_DESIGN_GEOMETRIC_PRESENTATION_REPRESENTATION (  '', ( #124 ), #155 ) ;
#166 = DIRECTION ( 'NONE',  ( 0.0000000000000000000, -1.000000000000000000, -1.224646799147353200E-016 ) ) ;
#167 = CARTESIAN_POINT ( 'NONE',  ( 23.38059182766590600, -7.776507174585681300E-016, 6.349999999999989000 ) ) ;
#168 = CARTESIAN_POINT ( 'NONE',  ( 20.02398695221095800, 0.0000000000000000000, -6.349999999999985400 ) ) ;
#169 = APPLICATION_CONTEXT ( 'automotive_design' ) ;
#170 = EDGE_CURVE ( 'NONE', #69, #108, #54, .T. ) ;
#171 = CIRCLE ( 'NONE', #333, 6.349999999999999600 ) ;
#172 = SPHERICAL_SURFACE ( 'NONE', #133, 12.41999999999999800 ) ;
#173 = DIRECTION ( 'NONE',  ( 0.0000000000000000000, 0.0000000000000000000, 1.000000000000000000 ) ) ;
#174 = ADVANCED_FACE ( 'NONE', ( #55 ), #60, .F. ) ;
#175 = CIRCLE ( 'NONE', #176, 10.01000000000000900 ) ;
#176 = AXIS2_PLACEMENT_3D ( 'NONE', #123, #254, #182 ) ;
#177 = ORIENTED_EDGE ( 'NONE', *, *, #240, .F. ) ;
#178 = EDGE_CURVE ( 'NONE', #239, #132, #87, .T. ) ;
#179 = DIRECTION ( 'NONE',  ( 0.0000000000000000000, 0.0000000000000000000, -1.000000000000000000 ) ) ;
#180 = SURFACE_STYLE_FILL_AREA ( #112 ) ;
#181 = COLOUR_RGB ( '',1.000000000000000000, 1.000000000000000000, 1.000000000000000000 ) ;
#182 = DIRECTION ( 'NONE',  ( 0.0000000000000000000, 1.224646799147353200E-016, -1.000000000000000000 ) ) ;
#183 = AXIS2_PLACEMENT_3D ( 'NONE', #186, #244, #304 ) ;
#184 = DIRECTION ( 'NONE',  ( -1.000000000000000000, -0.0000000000000000000, -0.0000000000000000000 ) ) ;
#185 =( GEOMETRIC_REPRESENTATION_CONTEXT ( 3 ) GLOBAL_UNCERTAINTY_ASSIGNED_CONTEXT ( ( #318 ) ) GLOBAL_UNIT_ASSIGNED_CONTEXT ( ( #310, #106, #321 ) ) REPRESENTATION_CONTEXT ( 'NONE', 'WORKASPACE' ) );
#186 = CARTESIAN_POINT ( 'NONE',  ( 19.04194279229519500, 0.0000000000000000000, 0.0000000000000000000 ) ) ;
#187 = VECTOR ( 'NONE', #201, 1000.000000000000000 ) ;
#188 = AXIS2_PLACEMENT_3D ( 'NONE', #110, #339, #285 ) ;
#189 = CARTESIAN_POINT ( 'NONE',  ( 12.28592517938952600, 0.0000000000000000000, 0.0000000000000000000 ) ) ;
#190 = ADVANCED_FACE ( 'NONE', ( #73 ), #66, .F. ) ;
#191 = DIRECTION ( 'NONE',  ( -1.000000000000000000, -0.0000000000000000000, -0.0000000000000000000 ) ) ;
#192 = ADVANCED_FACE ( 'NONE', ( #347 ), #59, .T. ) ;
#193 = FACE_OUTER_BOUND ( 'NONE', #57, .T. ) ;
#194 = DIRECTION ( 'NONE',  ( 0.0000000000000000000, 1.000000000000000000, 0.0000000000000000000 ) ) ;
#195 = FILL_AREA_STYLE ('',( #247 ) ) ;
#196 =( NAMED_UNIT ( * ) PLANE_ANGLE_UNIT ( ) SI_UNIT ( $, .RADIAN. ) );
#197 = LINE ( 'NONE', #325, #187 ) ;
#198 = PRESENTATION_STYLE_ASSIGNMENT (( #53 ) ) ;
#199 = PRODUCT_DEFINITION_CONTEXT ( 'detailed design', #169, 'design' ) ;
#200 = CIRCLE ( 'NONE', #312, 10.01000000000000900 ) ;
#201 = DIRECTION ( 'NONE',  ( -1.000000000000000000, -0.0000000000000000000, -0.0000000000000000000 ) ) ;
#202 = ORIENTED_EDGE ( 'NONE', *, *, #48, .F. ) ;
#203 = CARTESIAN_POINT ( 'NONE',  ( -24.95407482061046900, 0.0000000000000000000, 0.0000000000000000000 ) ) ;
#204 = MECHANICAL_DESIGN_GEOMETRIC_PRESENTATION_REPRESENTATION (  '', ( #286 ), #5 ) ;
#205 = VERTEX_POINT ( 'NONE', #100 ) ;
#206 = ADVANCED_FACE ( 'NONE', ( #50 ), #46, .T. ) ;
#207 = CARTESIAN_POINT ( 'NONE',  ( -0.5519199926577972300, 0.0000000000000000000, 0.0000000000000000000 ) ) ;
#208 = EDGE_CURVE ( 'NONE', #146, #108, #323, .T. ) ;
#209 = ORIENTED_EDGE ( 'NONE', *, *, #320, .T. ) ;
#210 = DIRECTION ( 'NONE',  ( -1.000000000000000000, -0.0000000000000000000, -0.0000000000000000000 ) ) ;
#211 = CIRCLE ( 'NONE', #282, 48.75000000000000700 ) ;
#212 = DIRECTION ( 'NONE',  ( 0.0000000000000000000, 0.0000000000000000000, 1.000000000000000000 ) ) ;
#213 = ADVANCED_FACE ( 'NONE', ( #63 ), #49, .T. ) ;
#214 =( LENGTH_UNIT ( ) NAMED_UNIT ( * ) SI_UNIT ( .MILLI., .METRE. ) );
#215 = EDGE_LOOP ( 'NONE', ( #281, #104, #236, #340 ) ) ;
#216 = CARTESIAN_POINT ( 'NONE',  ( 29.71592517938952600, 0.0000000000000000000, -1.486340163181221600E-022 ) ) ;
#217 = DIRECTION ( 'NONE',  ( 0.0000000000000000000, 0.0000000000000000000, -1.000000000000000000 ) ) ;
#218 = DIRECTION ( 'NONE',  ( -1.000000000000000000, -0.0000000000000000000, -0.0000000000000000000 ) ) ;
#219 = SPHERICAL_SURFACE ( 'NONE', #80, 10.01000000000000900 ) ;
#220 = EDGE_LOOP ( 'NONE', ( #279, #97, #21 ) ) ;
#221 = AXIS2_PLACEMENT_3D ( 'NONE', #163, #296, #121 ) ;
#222 = CARTESIAN_POINT ( 'NONE',  ( 20.02398695221095800, -7.776507174585675400E-016, 6.349999999999985400 ) ) ;
#223 = VERTEX_POINT ( 'NONE', #168 ) ;
#224 = EDGE_CURVE ( 'NONE', #239, #276, #38, .T. ) ;
#225 = CIRCLE ( 'NONE', #260, 10.01000000000000900 ) ;
#226 = CIRCLE ( 'NONE', #346, 6.349999999999999600 ) ;
#227 = ORIENTED_EDGE ( 'NONE', *, *, #162, .F. ) ;
#228 = AXIS2_PLACEMENT_3D ( 'NONE', #25, #291, #295 ) ;
#229 = ORIENTED_EDGE ( 'NONE', *, *, #44, .F. ) ;
#230 = DIRECTION ( 'NONE',  ( 1.000000000000000000, 0.0000000000000000000, 0.0000000000000000000 ) ) ;
#231 = CARTESIAN_POINT ( 'NONE',  ( 23.38059182766590600, 0.0000000000000000000, 0.0000000000000000000 ) ) ;
#232 = FILL_AREA_STYLE ('',( #116 ) ) ;
#233 = CARTESIAN_POINT ( 'NONE',  ( 29.71592517938952600, 0.0000000000000000000, -1.486340163181221600E-022 ) ) ;
#234 = CARTESIAN_POINT ( 'NONE',  ( -24.95407482061046900, 0.0000000000000000000, 0.0000000000000000000 ) ) ;
#235 = CIRCLE ( 'NONE', #32, 6.349999999999985400 ) ;
#236 = ORIENTED_EDGE ( 'NONE', *, *, #178, .T. ) ;
#237 = FACE_OUTER_BOUND ( 'NONE', #159, .T. ) ;
#238 = EDGE_LOOP ( 'NONE', ( #227, #137, #249 ) ) ;
#239 = VERTEX_POINT ( 'NONE', #167 ) ;
#240 = EDGE_CURVE ( 'NONE', #69, #78, #40, .T. ) ;
#241 = PRESENTATION_LAYER_ASSIGNMENT (  '', '', ( #124 ) ) ;
#242 = DIRECTION ( 'NONE',  ( 0.0000000000000000000, 0.0000000000000000000, 1.000000000000000000 ) ) ;
#243 = CLOSED_SHELL ( 'NONE', ( #317, #192, #174, #190, #213, #305 ) ) ;
#244 = DIRECTION ( 'NONE',  ( -1.000000000000000000, -0.0000000000000000000, -0.0000000000000000000 ) ) ;
#245 = CARTESIAN_POINT ( 'NONE',  ( 12.28592517938952600, 0.0000000000000000000, 0.0000000000000000000 ) ) ;
#246 = SPHERICAL_SURFACE ( 'NONE', #188, 10.01000000000000900 ) ;
#247 = FILL_AREA_STYLE_COLOUR ( '', #90 ) ;
#248 = DIRECTION ( 'NONE',  ( 0.0000000000000000000, 1.000000000000000000, 0.0000000000000000000 ) ) ;
#249 = ORIENTED_EDGE ( 'NONE', *, *, #145, .F. ) ;
#250 = CARTESIAN_POINT ( 'NONE',  ( 23.38059182766590600, 0.0000000000000000000, -6.349999999999989000 ) ) ;
#251 = DIRECTION ( 'NONE',  ( -1.000000000000000000, -0.0000000000000000000, -0.0000000000000000000 ) ) ;
#252 = FACE_OUTER_BOUND ( 'NONE', #284, .T. ) ;
#253 = AXIS2_PLACEMENT_3D ( 'NONE', #98, #302, #179 ) ;
#254 = DIRECTION ( 'NONE',  ( 0.0000000000000000000, -1.000000000000000000, -1.224646799147353200E-016 ) ) ;
#255 = DIRECTION ( 'NONE',  ( 0.0000000000000000000, -1.000000000000000000, 0.0000000000000000000 ) ) ;
#256 = DIRECTION ( 'NONE',  ( -1.000000000000000000, -0.0000000000000000000, -0.0000000000000000000 ) ) ;
#257 = CARTESIAN_POINT ( 'NONE',  ( 12.28592517938952600, 0.0000000000000000000, 0.0000000000000000000 ) ) ;
#258 = DIRECTION ( 'NONE',  ( 0.0000000000000000000, 0.0000000000000000000, -1.000000000000000000 ) ) ;
#259 = ORIENTED_EDGE ( 'NONE', *, *, #269, .F. ) ;
#260 = AXIS2_PLACEMENT_3D ( 'NONE', #245, #65, #267 ) ;
#261 = SURFACE_STYLE_FILL_AREA ( #232 ) ;
#262 = AXIS2_PLACEMENT_3D ( 'NONE', #85, #161, #230 ) ;
#263 = PRESENTATION_STYLE_ASSIGNMENT (( #278 ) ) ;
#264 = ORIENTED_EDGE ( 'NONE', *, *, #130, .T. ) ;
#265 = DIRECTION ( 'NONE',  ( 0.0000000000000000000, 1.000000000000000000, 0.0000000000000000000 ) ) ;
#266 = ORIENTED_EDGE ( 'NONE', *, *, #311, .T. ) ;
#267 = DIRECTION ( 'NONE',  ( 0.0000000000000000000, -1.224646799147353200E-016, 1.000000000000000000 ) ) ;
#268 = ORIENTED_EDGE ( 'NONE', *, *, #240, .T. ) ;
#269 = EDGE_CURVE ( 'NONE', #108, #78, #41, .T. ) ;
#270 = SHAPE_DEFINITION_REPRESENTATION ( #6, #150 ) ;
#271 = ADVANCED_FACE ( 'NONE', ( #39 ), #219, .T. ) ;
#272 = EDGE_CURVE ( 'NONE', #93, #105, #225, .T. ) ;
#273 = ORIENTED_EDGE ( 'NONE', *, *, #327, .T. ) ;
#274 = SURFACE_STYLE_USAGE ( .BOTH. , #322 ) ;
#275 = DIRECTION ( 'NONE',  ( 0.0000000000000000000, 0.0000000000000000000, 1.000000000000000000 ) ) ;
#276 = VERTEX_POINT ( 'NONE', #250 ) ;
#277 = DIRECTION ( 'NONE',  ( 0.0000000000000000000, 0.0000000000000000000, 1.000000000000000000 ) ) ;
#278 = SURFACE_STYLE_USAGE ( .BOTH. , #328 ) ;
#279 = ORIENTED_EDGE ( 'NONE', *, *, #308, .F. ) ;
#280 = PRODUCT_DEFINITION_FORMATION_WITH_SPECIFIED_SOURCE ( 'ÈÎºÎ', '', #341, .NOT_KNOWN. ) ;
#281 = ORIENTED_EDGE ( 'NONE', *, *, #84, .F. ) ;
#282 = AXIS2_PLACEMENT_3D ( 'NONE', #34, #166, #68 ) ;
#283 = DIRECTION ( 'NONE',  ( 0.0000000000000000000, 0.0000000000000000000, 1.000000000000000000 ) ) ;
#284 = EDGE_LOOP ( 'NONE', ( #288, #268, #259 ) ) ;
#285 = DIRECTION ( 'NONE',  ( 0.0000000000000000000, 0.0000000000000000000, 1.000000000000000000 ) ) ;
#286 = STYLED_ITEM ( 'NONE', ( #198 ), #91 ) ;
#287 = CARTESIAN_POINT ( 'NONE',  ( 12.28592517938952600, 0.0000000000000000000, 0.0000000000000000000 ) ) ;
#288 = ORIENTED_EDGE ( 'NONE', *, *, #139, .T. ) ;
#289 = DIRECTION ( 'NONE',  ( 0.0000000000000000000, 0.0000000000000000000, 1.000000000000000000 ) ) ;
#290 = DIRECTION ( 'NONE',  ( -1.000000000000000000, -0.0000000000000000000, -0.0000000000000000000 ) ) ;
#291 = DIRECTION ( 'NONE',  ( 0.0000000000000000000, 1.000000000000000000, -0.0000000000000000000 ) ) ;
#292 = PRODUCT_CONTEXT ( 'NONE', #293, 'mechanical' ) ;
#293 = APPLICATION_CONTEXT ( 'automotive_design' ) ;
#294 = AXIS2_PLACEMENT_3D ( 'NONE', #207, #256, #275 ) ;
#295 = DIRECTION ( 'NONE',  ( 0.0000000000000000000, 0.0000000000000000000, 1.000000000000000000 ) ) ;
#296 = DIRECTION ( 'NONE',  ( -0.0000000000000000000, 1.000000000000000000, 1.224646799147353200E-016 ) ) ;
#297 = AXIS2_PLACEMENT_3D ( 'NONE', #287, #4, #217 ) ;
#298 =( NAMED_UNIT ( * ) PLANE_ANGLE_UNIT ( ) SI_UNIT ( $, .RADIAN. ) );
#299 = DIRECTION ( 'NONE',  ( 0.0000000000000000000, 0.0000000000000000000, 1.000000000000000000 ) ) ;
#300 = ADVANCED_FACE ( 'NONE', ( #193 ), #27, .T. ) ;
#301 = EDGE_LOOP ( 'NONE', ( #147, #209, #266 ) ) ;
#302 = DIRECTION ( 'NONE',  ( -0.0000000000000000000, -1.000000000000000000, -0.0000000000000000000 ) ) ;
#303 = AXIS2_PLACEMENT_3D ( 'NONE', #88, #184, #173 ) ;
#304 = DIRECTION ( 'NONE',  ( 0.0000000000000000000, 0.0000000000000000000, 1.000000000000000000 ) ) ;
#305 = ADVANCED_FACE ( 'NONE', ( #141 ), #19, .T. ) ;
#306 = CARTESIAN_POINT ( 'NONE',  ( 12.28592517938952600, 0.0000000000000000000, 0.0000000000000000000 ) ) ;
#307 = DIRECTION ( 'NONE',  ( 0.0000000000000000000, 0.0000000000000000000, 1.000000000000000000 ) ) ;
#308 = EDGE_CURVE ( 'NONE', #138, #239, #211, .T. ) ;
#309 = DIRECTION ( 'NONE',  ( -1.000000000000000000, -0.0000000000000000000, -0.0000000000000000000 ) ) ;
#310 =( LENGTH_UNIT ( ) NAMED_UNIT ( * ) SI_UNIT ( .MILLI., .METRE. ) );
#311 = EDGE_CURVE ( 'NONE', #223, #132, #28, .T. ) ;
#312 = AXIS2_PLACEMENT_3D ( 'NONE', #257, #74, #113 ) ;
#313 = EDGE_LOOP ( 'NONE', ( #177, #1, #9 ) ) ;
#314 = CARTESIAN_POINT ( 'NONE',  ( -0.8160621761658039000, 7.776507174585692200E-016, -6.349999999999999600 ) ) ;
#315 = ORIENTED_EDGE ( 'NONE', *, *, #139, .F. ) ;
#316 = AXIS2_PLACEMENT_3D ( 'NONE', #233, #265, #277 ) ;
#317 = ADVANCED_FACE ( 'NONE', ( #64 ), #7, .T. ) ;
#318 = UNCERTAINTY_MEASURE_WITH_UNIT (LENGTH_MEASURE( 1.000000000000000100E-005 ), #310, 'distance_accuracy_value', 'NONE');
#319 =( NAMED_UNIT ( * ) SI_UNIT ( $, .STERADIAN. ) SOLID_ANGLE_UNIT ( ) );
#320 = EDGE_CURVE ( 'NONE', #205, #223, #18, .T. ) ;
#321 =( NAMED_UNIT ( * ) SI_UNIT ( $, .STERADIAN. ) SOLID_ANGLE_UNIT ( ) );
#322 = SURFACE_SIDE_STYLE ('',( #101 ) ) ;
#323 = LINE ( 'NONE', #42, #67 ) ;
#324 = ORIENTED_EDGE ( 'NONE', *, *, #84, .T. ) ;
#325 = CARTESIAN_POINT ( 'NONE',  ( -0.5519199926577972300, 7.776507174585675400E-016, -6.349999999999985400 ) ) ;
#326 = DIRECTION ( 'NONE',  ( -1.000000000000000000, -0.0000000000000000000, -0.0000000000000000000 ) ) ;
#327 = EDGE_CURVE ( 'NONE', #105, #69, #33, .T. ) ;
#328 = SURFACE_SIDE_STYLE ('',( #261 ) ) ;
#329 = DIRECTION ( 'NONE',  ( 0.0000000000000000000, 0.0000000000000000000, 1.000000000000000000 ) ) ;
#330 = PRODUCT_DEFINITION ( 'Î´Öª', '', #280, #199 ) ;
#331 = ORIENTED_EDGE ( 'NONE', *, *, #94, .T. ) ;
#332 = DIRECTION ( 'NONE',  ( 0.0000000000000000000, 0.0000000000000000000, -1.000000000000000000 ) ) ;
#333 = AXIS2_PLACEMENT_3D ( 'NONE', #31, #326, #96 ) ;
#334 =( NAMED_UNIT ( * ) PLANE_ANGLE_UNIT ( ) SI_UNIT ( $, .RADIAN. ) );
#335 = CARTESIAN_POINT ( 'NONE',  ( 23.38059182766590600, 0.0000000000000000000, 0.0000000000000000000 ) ) ;
#336 = ORIENTED_EDGE ( 'NONE', *, *, #94, .F. ) ;
#337 = DIRECTION ( 'NONE',  ( -1.000000000000000000, -0.0000000000000000000, -0.0000000000000000000 ) ) ;
#338 = ORIENTED_EDGE ( 'NONE', *, *, #170, .F. ) ;
#339 = DIRECTION ( 'NONE',  ( 0.0000000000000000000, 1.000000000000000000, 0.0000000000000000000 ) ) ;
#340 = ORIENTED_EDGE ( 'NONE', *, *, #311, .F. ) ;
#341 = PRODUCT ( '145153', '145153', '', ( #292 ) ) ;
#342 = DIRECTION ( 'NONE',  ( 0.0000000000000000000, 1.000000000000000000, -0.0000000000000000000 ) ) ;
#343 = SURFACE_SIDE_STYLE ('',( #180 ) ) ;
#344 = AXIS2_PLACEMENT_3D ( 'NONE', #154, #191, #14 ) ;
#345 = CARTESIAN_POINT ( 'NONE',  ( 17.29592517938952800, 0.0000000000000000000, 7.605055136364900400E-016 ) ) ;
#346 = AXIS2_PLACEMENT_3D ( 'NONE', #151, #210, #115 ) ;
#347 = FACE_OUTER_BOUND ( 'NONE', #238, .T. ) ;
ENDSEC;
END-ISO-10303-21;
