ISO-10303-21;
HEADER;
FILE_DESCRIPTION (( 'STEP AP214' ),
    '1' );
FILE_NAME ('145176.STEP',
    '2019-06-12T07:36:56',
    ( 'user' ),
    ( 'Î¢ÈíÖÐ¹ú' ),
    'SwSTEP 2.0',
    'SolidWorks 2016',
    '' );
FILE_SCHEMA (( 'AUTOMOTIVE_DESIGN' ));
ENDSEC;

DATA;
#1 = FACE_OUTER_BOUND ( 'NONE', #246, .T. ) ;
#2 = AXIS2_PLACEMENT_3D ( 'NONE', #51, #186, #72 ) ;
#3 = ORIENTED_EDGE ( 'NONE', *, *, #58, .F. ) ;
#4 = VECTOR ( 'NONE', #209, 1000.000000000000000 ) ;
#5 = AXIS2_PLACEMENT_3D ( 'NONE', #302, #30, #310 ) ;
#6 = UNCERTAINTY_MEASURE_WITH_UNIT (LENGTH_MEASURE( 1.000000000000000100E-005 ), #151, 'distance_accuracy_value', 'NONE');
#7 = EDGE_CURVE ( 'NONE', #268, #296, #345, .T. ) ;
#8 = ADVANCED_FACE ( 'NONE', ( #293 ), #306, .T. ) ;
#9 = ORIENTED_EDGE ( 'NONE', *, *, #240, .T. ) ;
#10 = SURFACE_STYLE_FILL_AREA ( #109 ) ;
#11 =( GEOMETRIC_REPRESENTATION_CONTEXT ( 3 ) GLOBAL_UNCERTAINTY_ASSIGNED_CONTEXT ( ( #206 ) ) GLOBAL_UNIT_ASSIGNED_CONTEXT ( ( #309, #324, #273 ) ) REPRESENTATION_CONTEXT ( 'NONE', 'WORKASPACE' ) );
#12 = FILL_AREA_STYLE_COLOUR ( '', #50 ) ;
#13 = DIRECTION ( 'NONE',  ( 1.000000000000000000, 0.0000000000000000000, 0.0000000000000000000 ) ) ;
#14 = CARTESIAN_POINT ( 'NONE',  ( 61.95204865057546300, 0.0000000000000000000, 3.469447040418550000E-015 ) ) ;
#15 = EDGE_LOOP ( 'NONE', ( #98, #252, #229, #346 ) ) ;
#16 =( NAMED_UNIT ( * ) SI_UNIT ( $, .STERADIAN. ) SOLID_ANGLE_UNIT ( ) );
#17 = EDGE_CURVE ( 'NONE', #208, #148, #24, .T. ) ;
#18 = CARTESIAN_POINT ( 'NONE',  ( -0.8160621761658039000, 3.110602869834277300E-015, -25.40000000000000200 ) ) ;
#19 = CARTESIAN_POINT ( 'NONE',  ( -0.5519199926577972300, 0.0000000000000000000, 0.0000000000000000000 ) ) ;
#20 = AXIS2_PLACEMENT_3D ( 'NONE', #235, #55, #187 ) ;
#21 = DIRECTION ( 'NONE',  ( 0.0000000000000000000, 0.0000000000000000000, 1.000000000000000000 ) ) ;
#22 = CARTESIAN_POINT ( 'NONE',  ( 61.95204865057546300, 0.0000000000000000000, 3.469447040418550000E-015 ) ) ;
#23 = FILL_AREA_STYLE_COLOUR ( '', #57 ) ;
#24 = CIRCLE ( 'NONE', #248, 49.89000000000007200 ) ;
#25 = DIRECTION ( 'NONE',  ( -1.000000000000000000, -0.0000000000000000000, -0.0000000000000000000 ) ) ;
#26 = DIRECTION ( 'NONE',  ( -1.000000000000000000, -0.0000000000000000000, -0.0000000000000000000 ) ) ;
#27 = ORIENTED_EDGE ( 'NONE', *, *, #66, .T. ) ;
#28 = EDGE_CURVE ( 'NONE', #256, #112, #84, .T. ) ;
#29 = AXIS2_PLACEMENT_3D ( 'NONE', #46, #277, #290 ) ;
#30 = DIRECTION ( 'NONE',  ( -0.0000000000000000000, -1.000000000000000000, -0.0000000000000000000 ) ) ;
#31 = MECHANICAL_DESIGN_GEOMETRIC_PRESENTATION_REPRESENTATION (  '', ( #96 ), #194 ) ;
#32 = CIRCLE ( 'NONE', #294, 25.39999999999999900 ) ;
#33 = VECTOR ( 'NONE', #197, 1000.000000000000000 ) ;
#34 = CIRCLE ( 'NONE', #205, 25.39999999999999900 ) ;
#35 = EDGE_CURVE ( 'NONE', #149, #256, #228, .T. ) ;
#36 = PRODUCT_DEFINITION_FORMATION_WITH_SPECIFIED_SOURCE ( 'ÈÎºÎ', '', #191, .NOT_KNOWN. ) ;
#37 = SPHERICAL_SURFACE ( 'NONE', #69, 39.09000000000001100 ) ;
#38 = ORIENTED_EDGE ( 'NONE', *, *, #282, .T. ) ;
#39 = CIRCLE ( 'NONE', #224, 25.40000000000000200 ) ;
#40 = AXIS2_PLACEMENT_3D ( 'NONE', #329, #91, #67 ) ;
#41 = PRODUCT_DEFINITION_SHAPE ( 'NONE', 'NONE',  #325 ) ;
#42 = EDGE_LOOP ( 'NONE', ( #337, #93, #210 ) ) ;
#43 = EDGE_LOOP ( 'NONE', ( #321, #247, #131, #234 ) ) ;
#44 = CARTESIAN_POINT ( 'NONE',  ( 88.99194967537508200, 0.0000000000000000000, -25.40000000000000600 ) ) ;
#45 = EDGE_CURVE ( 'NONE', #170, #112, #222, .T. ) ;
#46 = CARTESIAN_POINT ( 'NONE',  ( 61.95204865057546300, 0.0000000000000000000, 3.469447040418550000E-015 ) ) ;
#47 = CIRCLE ( 'NONE', #118, 230.6999999999999900 ) ;
#48 = AXIS2_PLACEMENT_3D ( 'NONE', #152, #314, #289 ) ;
#49 = ADVANCED_FACE ( 'NONE', ( #265 ), #80, .T. ) ;
#50 = COLOUR_RGB ( '',1.000000000000000000, 1.000000000000000000, 1.000000000000000000 ) ;
#51 = CARTESIAN_POINT ( 'NONE',  ( -127.1579513494245100, 0.0000000000000000000, 0.0000000000000000000 ) ) ;
#52 = CARTESIAN_POINT ( 'NONE',  ( 91.66514508968798200, 0.0000000000000000000, 0.0000000000000000000 ) ) ;
#53 = AXIS2_PLACEMENT_3D ( 'NONE', #106, #335, #255 ) ;
#54 = ORIENTED_EDGE ( 'NONE', *, *, #58, .T. ) ;
#55 = DIRECTION ( 'NONE',  ( 0.0000000000000000000, -1.000000000000000000, -1.224646799147353200E-016 ) ) ;
#56 = SPHERICAL_SURFACE ( 'NONE', #169, 39.09000000000001100 ) ;
#57 = COLOUR_RGB ( '',1.000000000000000000, 1.000000000000000000, 1.000000000000000000 ) ;
#58 = EDGE_CURVE ( 'NONE', #68, #170, #292, .T. ) ;
#59 = ORIENTED_EDGE ( 'NONE', *, *, #79, .F. ) ;
#60 = DIRECTION ( 'NONE',  ( 0.0000000000000000000, 0.0000000000000000000, 1.000000000000000000 ) ) ;
#61 = STYLED_ITEM ( 'NONE', ( #249 ), #334 ) ;
#62 = CIRCLE ( 'NONE', #53, 39.09000000000001100 ) ;
#63 = ORIENTED_EDGE ( 'NONE', *, *, #231, .F. ) ;
#64 = ORIENTED_EDGE ( 'NONE', *, *, #7, .T. ) ;
#65 = SPHERICAL_SURFACE ( 'NONE', #291, 39.09000000000001100 ) ;
#66 = EDGE_CURVE ( 'NONE', #268, #336, #285, .T. ) ;
#67 = DIRECTION ( 'NONE',  ( 0.0000000000000000000, 0.0000000000000000000, 1.000000000000000000 ) ) ;
#68 = VERTEX_POINT ( 'NONE', #322 ) ;
#69 = AXIS2_PLACEMENT_3D ( 'NONE', #175, #128, #172 ) ;
#70 = CARTESIAN_POINT ( 'NONE',  ( 91.66514508968798200, 0.0000000000000000000, 0.0000000000000000000 ) ) ;
#71 = ADVANCED_FACE ( 'NONE', ( #185 ), #37, .T. ) ;
#72 = DIRECTION ( 'NONE',  ( 0.0000000000000000000, 0.0000000000000000000, -1.000000000000000000 ) ) ;
#73 = EDGE_CURVE ( 'NONE', #149, #170, #92, .T. ) ;
#74 = CARTESIAN_POINT ( 'NONE',  ( 102.1395191992058400, 0.0000000000000000000, 0.0000000000000000000 ) ) ;
#75 = MECHANICAL_DESIGN_GEOMETRIC_PRESENTATION_REPRESENTATION (  '', ( #61 ), #127 ) ;
#76 = EDGE_LOOP ( 'NONE', ( #160, #136, #218 ) ) ;
#77 = CIRCLE ( 'NONE', #173, 39.09000000000001100 ) ;
#78 = DIRECTION ( 'NONE',  ( 0.0000000000000000000, 1.000000000000000000, 0.0000000000000000000 ) ) ;
#79 = EDGE_CURVE ( 'NONE', #336, #268, #39, .T. ) ;
#80 = CYLINDRICAL_SURFACE ( 'NONE', #263, 25.39999999999999900 ) ;
#81 = CARTESIAN_POINT ( 'NONE',  ( 82.04204865057541000, 0.0000000000000000000, 4.145655114805369300E-016 ) ) ;
#82 = DIRECTION ( 'NONE',  ( -1.000000000000000000, -0.0000000000000000000, -0.0000000000000000000 ) ) ;
#83 = SHAPE_DEFINITION_REPRESENTATION ( #41, #334 ) ;
#84 = CIRCLE ( 'NONE', #276, 25.39999999999999900 ) ;
#85 = DIRECTION ( 'NONE',  ( 0.0000000000000000000, 0.0000000000000000000, 1.000000000000000000 ) ) ;
#86 = AXIS2_PLACEMENT_3D ( 'NONE', #155, #332, #60 ) ;
#87 = ORIENTED_EDGE ( 'NONE', *, *, #123, .T. ) ;
#88 = SPHERICAL_SURFACE ( 'NONE', #2, 230.6999999999999900 ) ;
#89 = ORIENTED_EDGE ( 'NONE', *, *, #154, .T. ) ;
#90 = MECHANICAL_DESIGN_GEOMETRIC_PRESENTATION_REPRESENTATION (  '', ( #111 ), #192 ) ;
#91 = DIRECTION ( 'NONE',  ( -1.000000000000000000, -0.0000000000000000000, -0.0000000000000000000 ) ) ;
#92 = CIRCLE ( 'NONE', #242, 25.39999999999999900 ) ;
#93 = ORIENTED_EDGE ( 'NONE', *, *, #223, .T. ) ;
#94 = EDGE_CURVE ( 'NONE', #296, #148, #323, .T. ) ;
#95 = CARTESIAN_POINT ( 'NONE',  ( 131.9320486505754700, 0.0000000000000000000, 3.469446951953614200E-015 ) ) ;
#96 = STYLED_ITEM ( 'NONE', ( #195 ), #347 ) ;
#97 = APPLICATION_PROTOCOL_DEFINITION ( 'draft international standard', 'automotive_design', 1998, #190 ) ;
#98 = ORIENTED_EDGE ( 'NONE', *, *, #73, .T. ) ;
#99 = CLOSED_SHELL ( 'NONE', ( #199, #272, #251, #258, #270, #49 ) ) ;
#100 = SURFACE_SIDE_STYLE ('',( #10 ) ) ;
#101 = DIRECTION ( 'NONE',  ( -1.000000000000000000, -0.0000000000000000000, -0.0000000000000000000 ) ) ;
#102 = FACE_OUTER_BOUND ( 'NONE', #15, .T. ) ;
#103 = EDGE_CURVE ( 'NONE', #174, #268, #62, .T. ) ;
#104 = CARTESIAN_POINT ( 'NONE',  ( 102.1395191992058400, 0.0000000000000000000, 0.0000000000000000000 ) ) ;
#105 = ORIENTED_EDGE ( 'NONE', *, *, #114, .F. ) ;
#106 = CARTESIAN_POINT ( 'NONE',  ( 61.95204865057546300, 0.0000000000000000000, 3.469447040418550000E-015 ) ) ;
#107 =( NAMED_UNIT ( * ) SI_UNIT ( $, .STERADIAN. ) SOLID_ANGLE_UNIT ( ) );
#108 = CARTESIAN_POINT ( 'NONE',  ( 61.95204865057546300, 0.0000000000000000000, 3.469447040418550000E-015 ) ) ;
#109 = FILL_AREA_STYLE ('',( #12 ) ) ;
#110 = EDGE_LOOP ( 'NONE', ( #3, #164, #168 ) ) ;
#111 = STYLED_ITEM ( 'NONE', ( #122 ), #135 ) ;
#112 = VERTEX_POINT ( 'NONE', #115 ) ;
#113 = AXIS2_PLACEMENT_3D ( 'NONE', #19, #181, #178 ) ;
#114 = EDGE_CURVE ( 'NONE', #336, #208, #300, .T. ) ;
#115 = CARTESIAN_POINT ( 'NONE',  ( 91.66514508968798200, 0.0000000000000000000, -25.39999999999999900 ) ) ;
#116 = EDGE_LOOP ( 'NONE', ( #9, #167, #196 ) ) ;
#117 =( NAMED_UNIT ( * ) PLANE_ANGLE_UNIT ( ) SI_UNIT ( $, .RADIAN. ) );
#118 = AXIS2_PLACEMENT_3D ( 'NONE', #207, #212, #317 ) ;
#119 = CARTESIAN_POINT ( 'NONE',  ( -127.1579513494245100, 0.0000000000000000000, 0.0000000000000000000 ) ) ;
#120 = CARTESIAN_POINT ( 'NONE',  ( 88.99194967537508200, -3.110602869834277700E-015, 25.40000000000001300 ) ) ;
#121 = CARTESIAN_POINT ( 'NONE',  ( 101.0420486505754800, 0.0000000000000000000, 1.075874871485047200E-015 ) ) ;
#122 = PRESENTATION_STYLE_ASSIGNMENT (( #312 ) ) ;
#123 = EDGE_CURVE ( 'NONE', #112, #256, #34, .T. ) ;
#124 = DIRECTION ( 'NONE',  ( 0.0000000000000000000, 0.0000000000000000000, 1.000000000000000000 ) ) ;
#125 = APPLICATION_CONTEXT ( 'automotive_design' ) ;
#126 = DIRECTION ( 'NONE',  ( 0.0000000000000000000, -1.000000000000000000, -1.224646799147353200E-016 ) ) ;
#127 =( GEOMETRIC_REPRESENTATION_CONTEXT ( 3 ) GLOBAL_UNCERTAINTY_ASSIGNED_CONTEXT ( ( #297 ) ) GLOBAL_UNIT_ASSIGNED_CONTEXT ( ( #219, #117, #220 ) ) REPRESENTATION_CONTEXT ( 'NONE', 'WORKASPACE' ) );
#128 = DIRECTION ( 'NONE',  ( 0.0000000000000000000, 1.000000000000000000, 0.0000000000000000000 ) ) ;
#129 = ORIENTED_EDGE ( 'NONE', *, *, #240, .F. ) ;
#130 = CARTESIAN_POINT ( 'NONE',  ( 91.66514508968798200, 0.0000000000000000000, 0.0000000000000000000 ) ) ;
#131 = ORIENTED_EDGE ( 'NONE', *, *, #35, .T. ) ;
#132 = DIRECTION ( 'NONE',  ( 0.0000000000000000000, 0.0000000000000000000, 1.000000000000000000 ) ) ;
#133 = FILL_AREA_STYLE_COLOUR ( '', #147 ) ;
#134 = CIRCLE ( 'NONE', #245, 25.40000000000000200 ) ;
#135 = MANIFOLD_SOLID_BREP ( 'Ðý×ª2', #99 ) ;
#136 = ORIENTED_EDGE ( 'NONE', *, *, #171, .T. ) ;
#137 = CARTESIAN_POINT ( 'NONE',  ( -0.5519199926577972300, 0.0000000000000000000, 0.0000000000000000000 ) ) ;
#138 = AXIS2_PLACEMENT_3D ( 'NONE', #327, #227, #237 ) ;
#139 = DIRECTION ( 'NONE',  ( -0.0000000000000000000, -1.000000000000000000, -0.0000000000000000000 ) ) ;
#140 = FACE_OUTER_BOUND ( 'NONE', #76, .T. ) ;
#141 = CARTESIAN_POINT ( 'NONE',  ( 0.0000000000000000000, 0.0000000000000000000, 0.0000000000000000000 ) ) ;
#142 = ORIENTED_EDGE ( 'NONE', *, *, #114, .T. ) ;
#143 = EDGE_LOOP ( 'NONE', ( #105, #250, #64, #129 ) ) ;
#144 = PRODUCT_RELATED_PRODUCT_CATEGORY ( 'part', '', ( #191 ) ) ;
#145 = CYLINDRICAL_SURFACE ( 'NONE', #182, 25.40000000000000200 ) ;
#146 = CARTESIAN_POINT ( 'NONE',  ( -0.8160621761658039000, 0.0000000000000000000, 25.40000000000000200 ) ) ;
#147 = COLOUR_RGB ( '',1.000000000000000000, 1.000000000000000000, 1.000000000000000000 ) ;
#148 = VERTEX_POINT ( 'NONE', #81 ) ;
#149 = VERTEX_POINT ( 'NONE', #150 ) ;
#150 = CARTESIAN_POINT ( 'NONE',  ( 102.1395191992058400, -3.110602869834275700E-015, 25.39999999999998400 ) ) ;
#151 =( LENGTH_UNIT ( ) NAMED_UNIT ( * ) SI_UNIT ( .MILLI., .METRE. ) );
#152 = CARTESIAN_POINT ( 'NONE',  ( 91.66514508968798200, 0.0000000000000000000, 0.0000000000000000000 ) ) ;
#153 = EDGE_LOOP ( 'NONE', ( #271, #38, #244 ) ) ;
#154 = EDGE_CURVE ( 'NONE', #225, #112, #166, .T. ) ;
#155 = CARTESIAN_POINT ( 'NONE',  ( -127.1579513494245100, 0.0000000000000000000, 0.0000000000000000000 ) ) ;
#156 = DIRECTION ( 'NONE',  ( -1.000000000000000000, -0.0000000000000000000, -0.0000000000000000000 ) ) ;
#157 = DIRECTION ( 'NONE',  ( 0.0000000000000000000, 0.0000000000000000000, -1.000000000000000000 ) ) ;
#158 = SURFACE_SIDE_STYLE ('',( #193 ) ) ;
#159 = EDGE_LOOP ( 'NONE', ( #27, #142, #313, #274 ) ) ;
#160 = ORIENTED_EDGE ( 'NONE', *, *, #94, .F. ) ;
#161 = CARTESIAN_POINT ( 'NONE',  ( 101.0420486505754800, 0.0000000000000000000, 5.863019209352053000E-015 ) ) ;
#162 = AXIS2_PLACEMENT_3D ( 'NONE', #95, #279, #328 ) ;
#163 = DIRECTION ( 'NONE',  ( -0.0000000000000000000, -1.000000000000000000, -0.0000000000000000000 ) ) ;
#164 = ORIENTED_EDGE ( 'NONE', *, *, #231, .T. ) ;
#165 =( NAMED_UNIT ( * ) PLANE_ANGLE_UNIT ( ) SI_UNIT ( $, .RADIAN. ) );
#166 = CIRCLE ( 'NONE', #29, 39.09000000000001100 ) ;
#167 = ORIENTED_EDGE ( 'NONE', *, *, #94, .T. ) ;
#168 = ORIENTED_EDGE ( 'NONE', *, *, #267, .F. ) ;
#169 = AXIS2_PLACEMENT_3D ( 'NONE', #22, #78, #303 ) ;
#170 = VERTEX_POINT ( 'NONE', #189 ) ;
#171 = EDGE_CURVE ( 'NONE', #296, #208, #134, .T. ) ;
#172 = DIRECTION ( 'NONE',  ( 0.0000000000000000000, 0.0000000000000000000, 1.000000000000000000 ) ) ;
#173 = AXIS2_PLACEMENT_3D ( 'NONE', #14, #126, #343 ) ;
#174 = VERTEX_POINT ( 'NONE', #161 ) ;
#175 = CARTESIAN_POINT ( 'NONE',  ( 61.95204865057546300, 0.0000000000000000000, 3.469447040418550000E-015 ) ) ;
#176 = ADVANCED_FACE ( 'NONE', ( #281 ), #145, .T. ) ;
#177 = FACE_OUTER_BOUND ( 'NONE', #116, .T. ) ;
#178 = DIRECTION ( 'NONE',  ( 0.0000000000000000000, 0.0000000000000000000, 1.000000000000000000 ) ) ;
#179 = DIRECTION ( 'NONE',  ( 0.0000000000000000000, 0.0000000000000000000, 1.000000000000000000 ) ) ;
#180 = CARTESIAN_POINT ( 'NONE',  ( -0.5519199926577972300, 3.110602869834276900E-015, -25.39999999999999900 ) ) ;
#181 = DIRECTION ( 'NONE',  ( -1.000000000000000000, -0.0000000000000000000, -0.0000000000000000000 ) ) ;
#182 = AXIS2_PLACEMENT_3D ( 'NONE', #298, #26, #259 ) ;
#183 = DIRECTION ( 'NONE',  ( 0.0000000000000000000, 0.0000000000000000000, 1.000000000000000000 ) ) ;
#184 = FILL_AREA_STYLE ('',( #133 ) ) ;
#185 = FACE_OUTER_BOUND ( 'NONE', #233, .T. ) ;
#186 = DIRECTION ( 'NONE',  ( -0.0000000000000000000, -1.000000000000000000, -0.0000000000000000000 ) ) ;
#187 = DIRECTION ( 'NONE',  ( 0.0000000000000000000, 1.224646799147353500E-016, -1.000000000000000000 ) ) ;
#188 = FACE_OUTER_BOUND ( 'NONE', #42, .T. ) ;
#189 = CARTESIAN_POINT ( 'NONE',  ( 102.1395191992058400, 0.0000000000000000000, -25.39999999999998400 ) ) ;
#190 = APPLICATION_CONTEXT ( 'automotive_design' ) ;
#191 = PRODUCT ( '145176', '145176', '', ( #216 ) ) ;
#192 =( GEOMETRIC_REPRESENTATION_CONTEXT ( 3 ) GLOBAL_UNCERTAINTY_ASSIGNED_CONTEXT ( ( #6 ) ) GLOBAL_UNIT_ASSIGNED_CONTEXT ( ( #151, #165, #16 ) ) REPRESENTATION_CONTEXT ( 'NONE', 'WORKASPACE' ) );
#193 = SURFACE_STYLE_FILL_AREA ( #319 ) ;
#194 =( GEOMETRIC_REPRESENTATION_CONTEXT ( 3 ) GLOBAL_UNCERTAINTY_ASSIGNED_CONTEXT ( ( #226 ) ) GLOBAL_UNIT_ASSIGNED_CONTEXT ( ( #288, #269, #107 ) ) REPRESENTATION_CONTEXT ( 'NONE', 'WORKASPACE' ) );
#195 = PRESENTATION_STYLE_ASSIGNMENT (( #238 ) ) ;
#196 = ORIENTED_EDGE ( 'NONE', *, *, #17, .F. ) ;
#197 = DIRECTION ( 'NONE',  ( -1.000000000000000000, -0.0000000000000000000, -0.0000000000000000000 ) ) ;
#198 = CYLINDRICAL_SURFACE ( 'NONE', #113, 25.39999999999999900 ) ;
#199 = ADVANCED_FACE ( 'NONE', ( #102 ), #198, .T. ) ;
#200 = ORIENTED_EDGE ( 'NONE', *, *, #73, .F. ) ;
#201 = DIRECTION ( 'NONE',  ( -0.0000000000000000000, -1.000000000000000000, -0.0000000000000000000 ) ) ;
#202 = DIRECTION ( 'NONE',  ( -1.000000000000000000, -0.0000000000000000000, -0.0000000000000000000 ) ) ;
#203 = DIRECTION ( 'NONE',  ( 0.0000000000000000000, 0.0000000000000000000, 1.000000000000000000 ) ) ;
#204 = DIRECTION ( 'NONE',  ( -1.000000000000000000, -0.0000000000000000000, -0.0000000000000000000 ) ) ;
#205 = AXIS2_PLACEMENT_3D ( 'NONE', #52, #25, #183 ) ;
#206 = UNCERTAINTY_MEASURE_WITH_UNIT (LENGTH_MEASURE( 1.000000000000000100E-005 ), #309, 'distance_accuracy_value', 'NONE');
#207 = CARTESIAN_POINT ( 'NONE',  ( -127.1579513494245100, 0.0000000000000000000, 0.0000000000000000000 ) ) ;
#208 = VERTEX_POINT ( 'NONE', #44 ) ;
#209 = DIRECTION ( 'NONE',  ( -1.000000000000000000, -0.0000000000000000000, -0.0000000000000000000 ) ) ;
#210 = ORIENTED_EDGE ( 'NONE', *, *, #28, .T. ) ;
#211 = PRESENTATION_LAYER_ASSIGNMENT (  '', '', ( #61 ) ) ;
#212 = DIRECTION ( 'NONE',  ( 0.0000000000000000000, -1.000000000000000000, -1.224646799147353200E-016 ) ) ;
#213 = SPHERICAL_SURFACE ( 'NONE', #331, 49.89000000000007200 ) ;
#214 = DIRECTION ( 'NONE',  ( 0.0000000000000000000, 0.0000000000000000000, -1.000000000000000000 ) ) ;
#215 = DIRECTION ( 'NONE',  ( 0.0000000000000000000, 0.0000000000000000000, 1.000000000000000000 ) ) ;
#216 = PRODUCT_CONTEXT ( 'NONE', #125, 'mechanical' ) ;
#217 = ORIENTED_EDGE ( 'NONE', *, *, #223, .F. ) ;
#218 = ORIENTED_EDGE ( 'NONE', *, *, #17, .T. ) ;
#219 =( LENGTH_UNIT ( ) NAMED_UNIT ( * ) SI_UNIT ( .MILLI., .METRE. ) );
#220 =( NAMED_UNIT ( * ) SI_UNIT ( $, .STERADIAN. ) SOLID_ANGLE_UNIT ( ) );
#221 = SURFACE_STYLE_USAGE ( .BOTH. , #158 ) ;
#222 = LINE ( 'NONE', #180, #33 ) ;
#223 = EDGE_CURVE ( 'NONE', #225, #256, #77, .T. ) ;
#224 = AXIS2_PLACEMENT_3D ( 'NONE', #130, #202, #340 ) ;
#225 = VERTEX_POINT ( 'NONE', #121 ) ;
#226 = UNCERTAINTY_MEASURE_WITH_UNIT (LENGTH_MEASURE( 1.000000000000000100E-005 ), #288, 'distance_accuracy_value', 'NONE');
#227 = DIRECTION ( 'NONE',  ( -0.0000000000000000000, 1.000000000000000000, 1.224646799147353200E-016 ) ) ;
#228 = LINE ( 'NONE', #301, #326 ) ;
#229 = ORIENTED_EDGE ( 'NONE', *, *, #28, .F. ) ;
#230 = CIRCLE ( 'NONE', #138, 39.09000000000001100 ) ;
#231 = EDGE_CURVE ( 'NONE', #68, #149, #47, .T. ) ;
#232 = DIRECTION ( 'NONE',  ( -1.000000000000000000, -0.0000000000000000000, -0.0000000000000000000 ) ) ;
#233 = EDGE_LOOP ( 'NONE', ( #318, #283, #59 ) ) ;
#234 = ORIENTED_EDGE ( 'NONE', *, *, #123, .F. ) ;
#235 = CARTESIAN_POINT ( 'NONE',  ( 131.9320486505754700, 0.0000000000000000000, 3.469446951953614200E-015 ) ) ;
#236 = FACE_OUTER_BOUND ( 'NONE', #110, .T. ) ;
#237 = DIRECTION ( 'NONE',  ( 0.0000000000000000000, -1.224646799147353200E-016, 1.000000000000000000 ) ) ;
#238 = SURFACE_STYLE_USAGE ( .BOTH. , #284 ) ;
#239 = ADVANCED_FACE ( 'NONE', ( #241 ), #56, .T. ) ;
#240 = EDGE_CURVE ( 'NONE', #208, #296, #266, .T. ) ;
#241 = FACE_OUTER_BOUND ( 'NONE', #153, .T. ) ;
#242 = AXIS2_PLACEMENT_3D ( 'NONE', #104, #330, #124 ) ;
#243 = CARTESIAN_POINT ( 'NONE',  ( 131.9320486505754700, 0.0000000000000000000, 3.469446951953614200E-015 ) ) ;
#244 = ORIENTED_EDGE ( 'NONE', *, *, #66, .F. ) ;
#245 = AXIS2_PLACEMENT_3D ( 'NONE', #287, #82, #203 ) ;
#246 = EDGE_LOOP ( 'NONE', ( #63, #54, #200 ) ) ;
#247 = ORIENTED_EDGE ( 'NONE', *, *, #267, .T. ) ;
#248 = AXIS2_PLACEMENT_3D ( 'NONE', #243, #278, #85 ) ;
#249 = PRESENTATION_STYLE_ASSIGNMENT (( #221 ) ) ;
#250 = ORIENTED_EDGE ( 'NONE', *, *, #79, .T. ) ;
#251 = ADVANCED_FACE ( 'NONE', ( #188 ), #260, .F. ) ;
#252 = ORIENTED_EDGE ( 'NONE', *, *, #45, .T. ) ;
#253 = DIRECTION ( 'NONE',  ( -1.000000000000000000, -0.0000000000000000000, -0.0000000000000000000 ) ) ;
#254 = DIRECTION ( 'NONE',  ( 0.0000000000000000000, 0.0000000000000000000, 1.000000000000000000 ) ) ;
#255 = DIRECTION ( 'NONE',  ( 0.0000000000000000000, 0.0000000000000000000, -1.000000000000000000 ) ) ;
#256 = VERTEX_POINT ( 'NONE', #342 ) ;
#257 = DIRECTION ( 'NONE',  ( -1.000000000000000000, -0.0000000000000000000, -0.0000000000000000000 ) ) ;
#258 = ADVANCED_FACE ( 'NONE', ( #304 ), #65, .F. ) ;
#259 = DIRECTION ( 'NONE',  ( 0.0000000000000000000, 0.0000000000000000000, 1.000000000000000000 ) ) ;
#260 = SPHERICAL_SURFACE ( 'NONE', #5, 39.09000000000001100 ) ;
#261 = CARTESIAN_POINT ( 'NONE',  ( 91.66514508968798200, 3.110602869834277300E-015, -25.40000000000000200 ) ) ;
#262 = CARTESIAN_POINT ( 'NONE',  ( 131.9320486505754700, 0.0000000000000000000, 3.469446951953614200E-015 ) ) ;
#263 = AXIS2_PLACEMENT_3D ( 'NONE', #137, #204, #132 ) ;
#264 = EDGE_LOOP ( 'NONE', ( #217, #89, #87 ) ) ;
#265 = FACE_OUTER_BOUND ( 'NONE', #43, .T. ) ;
#266 = CIRCLE ( 'NONE', #315, 25.40000000000000200 ) ;
#267 = EDGE_CURVE ( 'NONE', #170, #149, #32, .T. ) ;
#268 = VERTEX_POINT ( 'NONE', #333 ) ;
#269 =( NAMED_UNIT ( * ) PLANE_ANGLE_UNIT ( ) SI_UNIT ( $, .RADIAN. ) );
#270 = ADVANCED_FACE ( 'NONE', ( #1 ), #316, .T. ) ;
#271 = ORIENTED_EDGE ( 'NONE', *, *, #103, .F. ) ;
#272 = ADVANCED_FACE ( 'NONE', ( #236 ), #88, .T. ) ;
#273 =( NAMED_UNIT ( * ) SI_UNIT ( $, .STERADIAN. ) SOLID_ANGLE_UNIT ( ) );
#274 = ORIENTED_EDGE ( 'NONE', *, *, #7, .F. ) ;
#275 = APPLICATION_PROTOCOL_DEFINITION ( 'draft international standard', 'automotive_design', 1998, #125 ) ;
#276 = AXIS2_PLACEMENT_3D ( 'NONE', #70, #232, #254 ) ;
#277 = DIRECTION ( 'NONE',  ( 0.0000000000000000000, 1.000000000000000000, -0.0000000000000000000 ) ) ;
#278 = DIRECTION ( 'NONE',  ( 0.0000000000000000000, 1.000000000000000000, -0.0000000000000000000 ) ) ;
#279 = DIRECTION ( 'NONE',  ( -0.0000000000000000000, -1.000000000000000000, -0.0000000000000000000 ) ) ;
#280 = CARTESIAN_POINT ( 'NONE',  ( 88.99194967537508200, 0.0000000000000000000, 0.0000000000000000000 ) ) ;
#281 = FACE_OUTER_BOUND ( 'NONE', #143, .T. ) ;
#282 = EDGE_CURVE ( 'NONE', #174, #336, #230, .T. ) ;
#283 = ORIENTED_EDGE ( 'NONE', *, *, #103, .T. ) ;
#284 = SURFACE_SIDE_STYLE ('',( #299 ) ) ;
#285 = CIRCLE ( 'NONE', #48, 25.40000000000000200 ) ;
#286 = PRESENTATION_LAYER_ASSIGNMENT (  '', '', ( #111 ) ) ;
#287 = CARTESIAN_POINT ( 'NONE',  ( 88.99194967537508200, 0.0000000000000000000, 0.0000000000000000000 ) ) ;
#288 =( LENGTH_UNIT ( ) NAMED_UNIT ( * ) SI_UNIT ( .MILLI., .METRE. ) );
#289 = DIRECTION ( 'NONE',  ( 0.0000000000000000000, 0.0000000000000000000, 1.000000000000000000 ) ) ;
#290 = DIRECTION ( 'NONE',  ( 0.0000000000000000000, 0.0000000000000000000, 1.000000000000000000 ) ) ;
#291 = AXIS2_PLACEMENT_3D ( 'NONE', #108, #163, #214 ) ;
#292 = CIRCLE ( 'NONE', #86, 230.6999999999999900 ) ;
#293 = FACE_OUTER_BOUND ( 'NONE', #159, .T. ) ;
#294 = AXIS2_PLACEMENT_3D ( 'NONE', #74, #156, #215 ) ;
#295 = VECTOR ( 'NONE', #253, 1000.000000000000000 ) ;
#296 = VERTEX_POINT ( 'NONE', #120 ) ;
#297 = UNCERTAINTY_MEASURE_WITH_UNIT (LENGTH_MEASURE( 1.000000000000000100E-005 ), #219, 'distance_accuracy_value', 'NONE');
#298 = CARTESIAN_POINT ( 'NONE',  ( -0.8160621761658039000, 0.0000000000000000000, 0.0000000000000000000 ) ) ;
#299 = SURFACE_STYLE_FILL_AREA ( #184 ) ;
#300 = LINE ( 'NONE', #18, #4 ) ;
#301 = CARTESIAN_POINT ( 'NONE',  ( -0.5519199926577972300, 0.0000000000000000000, 25.39999999999999900 ) ) ;
#302 = CARTESIAN_POINT ( 'NONE',  ( 61.95204865057546300, 0.0000000000000000000, 3.469447040418550000E-015 ) ) ;
#303 = DIRECTION ( 'NONE',  ( 0.0000000000000000000, 0.0000000000000000000, 1.000000000000000000 ) ) ;
#304 = FACE_OUTER_BOUND ( 'NONE', #264, .T. ) ;
#305 = PRODUCT_DEFINITION_CONTEXT ( 'detailed design', #190, 'design' ) ;
#306 = CYLINDRICAL_SURFACE ( 'NONE', #40, 25.40000000000000200 ) ;
#307 = AXIS2_PLACEMENT_3D ( 'NONE', #141, #21, #13 ) ;
#308 = CLOSED_SHELL ( 'NONE', ( #239, #8, #311, #341, #176, #71 ) ) ;
#309 =( LENGTH_UNIT ( ) NAMED_UNIT ( * ) SI_UNIT ( .MILLI., .METRE. ) );
#310 = DIRECTION ( 'NONE',  ( 0.0000000000000000000, 0.0000000000000000000, -1.000000000000000000 ) ) ;
#311 = ADVANCED_FACE ( 'NONE', ( #177 ), #213, .T. ) ;
#312 = SURFACE_STYLE_USAGE ( .BOTH. , #100 ) ;
#313 = ORIENTED_EDGE ( 'NONE', *, *, #171, .F. ) ;
#314 = DIRECTION ( 'NONE',  ( -1.000000000000000000, -0.0000000000000000000, -0.0000000000000000000 ) ) ;
#315 = AXIS2_PLACEMENT_3D ( 'NONE', #280, #257, #179 ) ;
#316 = SPHERICAL_SURFACE ( 'NONE', #320, 230.6999999999999900 ) ;
#317 = DIRECTION ( 'NONE',  ( 0.0000000000000000000, 1.224646799147353200E-016, -1.000000000000000000 ) ) ;
#318 = ORIENTED_EDGE ( 'NONE', *, *, #282, .F. ) ;
#319 = FILL_AREA_STYLE ('',( #23 ) ) ;
#320 = AXIS2_PLACEMENT_3D ( 'NONE', #119, #201, #338 ) ;
#321 = ORIENTED_EDGE ( 'NONE', *, *, #45, .F. ) ;
#322 = CARTESIAN_POINT ( 'NONE',  ( 103.5420486505754800, 0.0000000000000000000, -1.412630082816471900E-014 ) ) ;
#323 = CIRCLE ( 'NONE', #20, 49.89000000000007200 ) ;
#324 =( NAMED_UNIT ( * ) PLANE_ANGLE_UNIT ( ) SI_UNIT ( $, .RADIAN. ) );
#325 = PRODUCT_DEFINITION ( 'Î´Öª', '', #36, #305 ) ;
#326 = VECTOR ( 'NONE', #101, 1000.000000000000000 ) ;
#327 = CARTESIAN_POINT ( 'NONE',  ( 61.95204865057546300, 0.0000000000000000000, 3.469447040418550000E-015 ) ) ;
#328 = DIRECTION ( 'NONE',  ( 0.0000000000000000000, 0.0000000000000000000, -1.000000000000000000 ) ) ;
#329 = CARTESIAN_POINT ( 'NONE',  ( -0.8160621761658039000, 0.0000000000000000000, 0.0000000000000000000 ) ) ;
#330 = DIRECTION ( 'NONE',  ( -1.000000000000000000, -0.0000000000000000000, -0.0000000000000000000 ) ) ;
#331 = AXIS2_PLACEMENT_3D ( 'NONE', #262, #139, #157 ) ;
#332 = DIRECTION ( 'NONE',  ( 0.0000000000000000000, 1.000000000000000000, -0.0000000000000000000 ) ) ;
#333 = CARTESIAN_POINT ( 'NONE',  ( 91.66514508968798200, 0.0000000000000000000, 25.40000000000000200 ) ) ;
#334 = ADVANCED_BREP_SHAPE_REPRESENTATION ( '145176', ( #347, #135, #307 ), #11 ) ;
#335 = DIRECTION ( 'NONE',  ( 0.0000000000000000000, -1.000000000000000000, 0.0000000000000000000 ) ) ;
#336 = VERTEX_POINT ( 'NONE', #261 ) ;
#337 = ORIENTED_EDGE ( 'NONE', *, *, #154, .F. ) ;
#338 = DIRECTION ( 'NONE',  ( 0.0000000000000000000, 0.0000000000000000000, -1.000000000000000000 ) ) ;
#339 = SPHERICAL_SURFACE ( 'NONE', #162, 49.89000000000007200 ) ;
#340 = DIRECTION ( 'NONE',  ( 0.0000000000000000000, 0.0000000000000000000, 1.000000000000000000 ) ) ;
#341 = ADVANCED_FACE ( 'NONE', ( #140 ), #339, .T. ) ;
#342 = CARTESIAN_POINT ( 'NONE',  ( 91.66514508968798200, -3.110602869834276900E-015, 25.40000000000000200 ) ) ;
#343 = DIRECTION ( 'NONE',  ( 0.0000000000000000000, 1.224646799147353200E-016, -1.000000000000000000 ) ) ;
#344 = PRESENTATION_LAYER_ASSIGNMENT (  '', '', ( #96 ) ) ;
#345 = LINE ( 'NONE', #146, #295 ) ;
#346 = ORIENTED_EDGE ( 'NONE', *, *, #35, .F. ) ;
#347 = MANIFOLD_SOLID_BREP ( 'Ðý×ª1', #308 ) ;
ENDSEC;
END-ISO-10303-21;
