ISO-10303-21;
HEADER;
FILE_DESCRIPTION (( 'STEP AP214' ),
    '1' );
FILE_NAME ('145177.STEP',
    '2019-06-12T07:52:34',
    ( 'user' ),
    ( 'Î¢ÈíÖÐ¹ú' ),
    'SwSTEP 2.0',
    'SolidWorks 2016',
    '' );
FILE_SCHEMA (( 'AUTOMOTIVE_DESIGN' ));
ENDSEC;

DATA;
#1 = EDGE_CURVE ( 'NONE', #211, #72, #111, .T. ) ;
#2 = ADVANCED_FACE ( 'NONE', ( #272 ), #95, .F. ) ;
#3 = AXIS2_PLACEMENT_3D ( 'NONE', #309, #310, #316 ) ;
#4 = UNCERTAINTY_MEASURE_WITH_UNIT (LENGTH_MEASURE( 1.000000000000000100E-005 ), #263, 'distance_accuracy_value', 'NONE');
#5 = ORIENTED_EDGE ( 'NONE', *, *, #191, .F. ) ;
#6 = ORIENTED_EDGE ( 'NONE', *, *, #125, .F. ) ;
#7 = EDGE_CURVE ( 'NONE', #334, #143, #152, .T. ) ;
#8 = CARTESIAN_POINT ( 'NONE',  ( 134.9503446329779600, 0.0000000000000000000, 0.0000000000000000000 ) ) ;
#9 = LINE ( 'NONE', #73, #216 ) ;
#10 = DIRECTION ( 'NONE',  ( 0.0000000000000000000, 0.0000000000000000000, 1.000000000000000000 ) ) ;
#11 = VERTEX_POINT ( 'NONE', #128 ) ;
#12 = DIRECTION ( 'NONE',  ( -1.000000000000000000, -0.0000000000000000000, -0.0000000000000000000 ) ) ;
#13 = AXIS2_PLACEMENT_3D ( 'NONE', #282, #12, #344 ) ;
#14 = DIRECTION ( 'NONE',  ( -1.000000000000000000, -0.0000000000000000000, -0.0000000000000000000 ) ) ;
#15 = CARTESIAN_POINT ( 'NONE',  ( -0.8160621761658039000, 0.0000000000000000000, 0.0000000000000000000 ) ) ;
#16 = ORIENTED_EDGE ( 'NONE', *, *, #173, .T. ) ;
#17 = AXIS2_PLACEMENT_3D ( 'NONE', #131, #256, #180 ) ;
#18 = CARTESIAN_POINT ( 'NONE',  ( 62.59034463297795300, 0.0000000000000000000, -1.005007927519728000E-022 ) ) ;
#19 = ORIENTED_EDGE ( 'NONE', *, *, #136, .T. ) ;
#20 = FACE_OUTER_BOUND ( 'NONE', #347, .T. ) ;
#21 = EDGE_LOOP ( 'NONE', ( #123, #148, #331 ) ) ;
#22 = EDGE_CURVE ( 'NONE', #211, #160, #46, .T. ) ;
#23 = AXIS2_PLACEMENT_3D ( 'NONE', #102, #64, #217 ) ;
#24 = CYLINDRICAL_SURFACE ( 'NONE', #308, 25.39999999999999900 ) ;
#25 = PRODUCT_DEFINITION ( 'Î´Öª', '', #87, #100 ) ;
#26 = DIRECTION ( 'NONE',  ( -0.0000000000000000000, -1.000000000000000000, -0.0000000000000000000 ) ) ;
#27 = ORIENTED_EDGE ( 'NONE', *, *, #173, .F. ) ;
#28 = ORIENTED_EDGE ( 'NONE', *, *, #7, .T. ) ;
#29 = FACE_OUTER_BOUND ( 'NONE', #21, .T. ) ;
#30 = EDGE_CURVE ( 'NONE', #334, #11, #104, .T. ) ;
#31 = EDGE_LOOP ( 'NONE', ( #258, #340, #134, #6 ) ) ;
#32 = AXIS2_PLACEMENT_3D ( 'NONE', #121, #124, #137 ) ;
#33 = CARTESIAN_POINT ( 'NONE',  ( -0.5519199926577972300, 3.110602869834275700E-015, -25.39999999999998400 ) ) ;
#34 = ADVANCED_FACE ( 'NONE', ( #192 ), #233, .T. ) ;
#35 = AXIS2_PLACEMENT_3D ( 'NONE', #74, #304, #153 ) ;
#36 = DIRECTION ( 'NONE',  ( 0.0000000000000000000, 0.0000000000000000000, 1.000000000000000000 ) ) ;
#37 = FACE_OUTER_BOUND ( 'NONE', #227, .T. ) ;
#38 = AXIS2_PLACEMENT_3D ( 'NONE', #52, #189, #237 ) ;
#39 = DIRECTION ( 'NONE',  ( -0.0000000000000000000, -1.000000000000000000, -0.0000000000000000000 ) ) ;
#40 = ORIENTED_EDGE ( 'NONE', *, *, #125, .T. ) ;
#41 = DIRECTION ( 'NONE',  ( 0.0000000000000000000, 1.000000000000000000, 0.0000000000000000000 ) ) ;
#42 = CARTESIAN_POINT ( 'NONE',  ( 107.7366660844526600, 0.0000000000000000000, 0.0000000000000000000 ) ) ;
#43 = DIRECTION ( 'NONE',  ( -1.000000000000000000, -0.0000000000000000000, -0.0000000000000000000 ) ) ;
#44 = ORIENTED_EDGE ( 'NONE', *, *, #30, .T. ) ;
#45 = AXIS2_PLACEMENT_3D ( 'NONE', #42, #14, #314 ) ;
#46 = CIRCLE ( 'NONE', #23, 43.15000000000000600 ) ;
#47 = DIRECTION ( 'NONE',  ( 0.0000000000000000000, -1.000000000000000000, 0.0000000000000000000 ) ) ;
#48 = VECTOR ( 'NONE', #297, 1000.000000000000000 ) ;
#49 = LINE ( 'NONE', #241, #90 ) ;
#50 = ORIENTED_EDGE ( 'NONE', *, *, #53, .F. ) ;
#51 = ORIENTED_EDGE ( 'NONE', *, *, #85, .T. ) ;
#52 = CARTESIAN_POINT ( 'NONE',  ( 62.59034463297795300, 0.0000000000000000000, -1.005007927519728000E-022 ) ) ;
#53 = EDGE_CURVE ( 'NONE', #313, #184, #221, .T. ) ;
#54 = PRODUCT_RELATED_PRODUCT_CATEGORY ( 'part', '', ( #79 ) ) ;
#55 = DIRECTION ( 'NONE',  ( -1.000000000000000000, -0.0000000000000000000, -0.0000000000000000000 ) ) ;
#56 = ADVANCED_FACE ( 'NONE', ( #218 ), #170, .T. ) ;
#57 = SHAPE_DEFINITION_REPRESENTATION ( #228, #280 ) ;
#58 = DIRECTION ( 'NONE',  ( -1.000000000000000000, -0.0000000000000000000, -0.0000000000000000000 ) ) ;
#59 = CIRCLE ( 'NONE', #45, 25.39999999999998100 ) ;
#60 = FILL_AREA_STYLE_COLOUR ( '', #70 ) ;
#61 = DIRECTION ( 'NONE',  ( -1.000000000000000000, -0.0000000000000000000, -0.0000000000000000000 ) ) ;
#62 = CARTESIAN_POINT ( 'NONE',  ( 97.47246756149250800, 3.110602869834276900E-015, -25.39999999999999900 ) ) ;
#63 = CARTESIAN_POINT ( 'NONE',  ( 134.9503446329779600, 0.0000000000000000000, 0.0000000000000000000 ) ) ;
#64 = DIRECTION ( 'NONE',  ( -0.0000000000000000000, 1.000000000000000000, 1.224646799147353200E-016 ) ) ;
#65 = DIRECTION ( 'NONE',  ( 0.0000000000000000000, 1.224646799147353200E-016, -1.000000000000000000 ) ) ;
#66 = CARTESIAN_POINT ( 'NONE',  ( 107.7366660844527100, -3.110602869834315900E-015, 25.40000000000031800 ) ) ;
#67 = EDGE_LOOP ( 'NONE', ( #50, #16, #40, #319 ) ) ;
#68 = AXIS2_PLACEMENT_3D ( 'NONE', #265, #144, #101 ) ;
#69 = CARTESIAN_POINT ( 'NONE',  ( 62.59034463297795300, 0.0000000000000000000, -1.005007927519728000E-022 ) ) ;
#70 = COLOUR_RGB ( '',1.000000000000000000, 1.000000000000000000, 1.000000000000000000 ) ;
#71 = DIRECTION ( 'NONE',  ( 0.0000000000000000000, 0.0000000000000000000, -1.000000000000000000 ) ) ;
#72 = VERTEX_POINT ( 'NONE', #168 ) ;
#73 = CARTESIAN_POINT ( 'NONE',  ( -0.8160621761658039000, 3.110602869834276900E-015, -25.39999999999999900 ) ) ;
#74 = CARTESIAN_POINT ( 'NONE',  ( 95.15556985035098600, 0.0000000000000000000, 0.0000000000000000000 ) ) ;
#75 = DIRECTION ( 'NONE',  ( 0.0000000000000000000, 1.000000000000000000, 0.0000000000000000000 ) ) ;
#76 = STYLED_ITEM ( 'NONE', ( #78 ), #220 ) ;
#77 = COLOUR_RGB ( '',1.000000000000000000, 1.000000000000000000, 1.000000000000000000 ) ;
#78 = PRESENTATION_STYLE_ASSIGNMENT (( #226 ) ) ;
#79 = PRODUCT ( '145177', '145177', '', ( #300 ) ) ;
#80 =( GEOMETRIC_REPRESENTATION_CONTEXT ( 3 ) GLOBAL_UNCERTAINTY_ASSIGNED_CONTEXT ( ( #190 ) ) GLOBAL_UNIT_ASSIGNED_CONTEXT ( ( #213, #210, #281 ) ) REPRESENTATION_CONTEXT ( 'NONE', 'WORKASPACE' ) );
#81 = DIRECTION ( 'NONE',  ( -1.000000000000000000, -0.0000000000000000000, -0.0000000000000000000 ) ) ;
#82 = ADVANCED_FACE ( 'NONE', ( #205 ), #301, .T. ) ;
#83 = SPHERICAL_SURFACE ( 'NONE', #32, 43.15000000000000600 ) ;
#84 = ORIENTED_EDGE ( 'NONE', *, *, #30, .F. ) ;
#85 = EDGE_CURVE ( 'NONE', #187, #313, #214, .T. ) ;
#86 = APPLICATION_PROTOCOL_DEFINITION ( 'draft international standard', 'automotive_design', 1998, #204 ) ;
#87 = PRODUCT_DEFINITION_FORMATION_WITH_SPECIFIED_SOURCE ( 'ÈÎºÎ', '', #79, .NOT_KNOWN. ) ;
#88 = DIRECTION ( 'NONE',  ( -1.000000000000000000, -0.0000000000000000000, -0.0000000000000000000 ) ) ;
#89 = STYLED_ITEM ( 'NONE', ( #106 ), #196 ) ;
#90 = VECTOR ( 'NONE', #219, 1000.000000000000000 ) ;
#91 = FACE_OUTER_BOUND ( 'NONE', #343, .T. ) ;
#92 =( LENGTH_UNIT ( ) NAMED_UNIT ( * ) SI_UNIT ( .MILLI., .METRE. ) );
#93 = CARTESIAN_POINT ( 'NONE',  ( -532.4596553670221500, 0.0000000000000000000, 0.0000000000000000000 ) ) ;
#94 = DIRECTION ( 'NONE',  ( 0.0000000000000000000, 0.0000000000000000000, 1.000000000000000000 ) ) ;
#95 = SPHERICAL_SURFACE ( 'NONE', #154, 43.15000000000000600 ) ;
#96 = CARTESIAN_POINT ( 'NONE',  ( 107.7366660844526600, 0.0000000000000000000, 0.0000000000000000000 ) ) ;
#97 = UNCERTAINTY_MEASURE_WITH_UNIT (LENGTH_MEASURE( 1.000000000000000100E-005 ), #262, 'distance_accuracy_value', 'NONE');
#98 = FILL_AREA_STYLE_COLOUR ( '', #127 ) ;
#99 = CARTESIAN_POINT ( 'NONE',  ( 105.7403446329779700, 0.0000000000000000000, 2.642175368659622700E-015 ) ) ;
#100 = PRODUCT_DEFINITION_CONTEXT ( 'detailed design', #204, 'design' ) ;
#101 = DIRECTION ( 'NONE',  ( 0.0000000000000000000, 0.0000000000000000000, -1.000000000000000000 ) ) ;
#102 = CARTESIAN_POINT ( 'NONE',  ( 62.59034463297795300, 0.0000000000000000000, -1.005007927519728000E-022 ) ) ;
#103 = EDGE_CURVE ( 'NONE', #72, #11, #49, .T. ) ;
#104 = CIRCLE ( 'NONE', #35, 25.39999999999999900 ) ;
#105 = ORIENTED_EDGE ( 'NONE', *, *, #268, .F. ) ;
#106 = PRESENTATION_STYLE_ASSIGNMENT (( #209 ) ) ;
#107 = ORIENTED_EDGE ( 'NONE', *, *, #260, .T. ) ;
#108 = EDGE_CURVE ( 'NONE', #193, #238, #129, .T. ) ;
#109 = ORIENTED_EDGE ( 'NONE', *, *, #103, .F. ) ;
#110 = DIRECTION ( 'NONE',  ( 0.0000000000000000000, 0.0000000000000000000, -1.000000000000000000 ) ) ;
#111 = CIRCLE ( 'NONE', #132, 43.15000000000000600 ) ;
#112 =( NAMED_UNIT ( * ) SI_UNIT ( $, .STERADIAN. ) SOLID_ANGLE_UNIT ( ) );
#113 = CARTESIAN_POINT ( 'NONE',  ( -532.4596553670221500, 0.0000000000000000000, 0.0000000000000000000 ) ) ;
#114 = SPHERICAL_SURFACE ( 'NONE', #68, 47.21000000000003600 ) ;
#115 = PRESENTATION_LAYER_ASSIGNMENT (  '', '', ( #76 ) ) ;
#116 = APPLICATION_PROTOCOL_DEFINITION ( 'draft international standard', 'automotive_design', 1998, #118 ) ;
#117 = ORIENTED_EDGE ( 'NONE', *, *, #253, .T. ) ;
#118 = APPLICATION_CONTEXT ( 'automotive_design' ) ;
#119 = EDGE_CURVE ( 'NONE', #238, #184, #130, .T. ) ;
#120 = FILL_AREA_STYLE ('',( #60 ) ) ;
#121 = CARTESIAN_POINT ( 'NONE',  ( 62.59034463297795300, 0.0000000000000000000, -1.005007927519728000E-022 ) ) ;
#122 = CARTESIAN_POINT ( 'NONE',  ( 97.47246756149250800, 0.0000000000000000000, 25.39999999999998800 ) ) ;
#123 = ORIENTED_EDGE ( 'NONE', *, *, #276, .F. ) ;
#124 = DIRECTION ( 'NONE',  ( 0.0000000000000000000, 1.000000000000000000, 0.0000000000000000000 ) ) ;
#125 = EDGE_CURVE ( 'NONE', #293, #238, #215, .T. ) ;
#126 = MECHANICAL_DESIGN_GEOMETRIC_PRESENTATION_REPRESENTATION (  '', ( #76 ), #80 ) ;
#127 = COLOUR_RGB ( '',1.000000000000000000, 1.000000000000000000, 1.000000000000000000 ) ;
#128 = CARTESIAN_POINT ( 'NONE',  ( 95.15556985035098600, -3.110602869834277300E-015, 25.40000000000000200 ) ) ;
#129 = CIRCLE ( 'NONE', #38, 43.15000000000000600 ) ;
#130 = CIRCLE ( 'NONE', #345, 25.39999999999998800 ) ;
#131 = CARTESIAN_POINT ( 'NONE',  ( -0.5519199926577972300, 0.0000000000000000000, 0.0000000000000000000 ) ) ;
#132 = AXIS2_PLACEMENT_3D ( 'NONE', #18, #47, #110 ) ;
#133 = SPHERICAL_SURFACE ( 'NONE', #321, 640.7000000000000500 ) ;
#134 = ORIENTED_EDGE ( 'NONE', *, *, #119, .F. ) ;
#135 = ADVANCED_FACE ( 'NONE', ( #91 ), #24, .T. ) ;
#136 = EDGE_CURVE ( 'NONE', #11, #143, #179, .T. ) ;
#137 = DIRECTION ( 'NONE',  ( 0.0000000000000000000, 0.0000000000000000000, 1.000000000000000000 ) ) ;
#138 = DIRECTION ( 'NONE',  ( 0.0000000000000000000, 1.000000000000000000, -0.0000000000000000000 ) ) ;
#139 = ORIENTED_EDGE ( 'NONE', *, *, #253, .F. ) ;
#140 = CARTESIAN_POINT ( 'NONE',  ( 62.59034463297795300, 0.0000000000000000000, -1.005007927519728000E-022 ) ) ;
#141 = SURFACE_STYLE_FILL_AREA ( #120 ) ;
#142 = ORIENTED_EDGE ( 'NONE', *, *, #161, .F. ) ;
#143 = VERTEX_POINT ( 'NONE', #312 ) ;
#144 = DIRECTION ( 'NONE',  ( -0.0000000000000000000, -1.000000000000000000, -0.0000000000000000000 ) ) ;
#145 = CIRCLE ( 'NONE', #291, 25.39999999999999900 ) ;
#146 = AXIS2_PLACEMENT_3D ( 'NONE', #113, #26, #232 ) ;
#147 = CARTESIAN_POINT ( 'NONE',  ( -0.8160621761658039000, 0.0000000000000000000, 0.0000000000000000000 ) ) ;
#148 = ORIENTED_EDGE ( 'NONE', *, *, #108, .T. ) ;
#149 = DIRECTION ( 'NONE',  ( -1.000000000000000000, -0.0000000000000000000, -0.0000000000000000000 ) ) ;
#150 = DIRECTION ( 'NONE',  ( 0.0000000000000000000, 0.0000000000000000000, 1.000000000000000000 ) ) ;
#151 = EDGE_LOOP ( 'NONE', ( #323, #327, #182 ) ) ;
#152 = CIRCLE ( 'NONE', #202, 47.21000000000003600 ) ;
#153 = DIRECTION ( 'NONE',  ( 0.0000000000000000000, 0.0000000000000000000, 1.000000000000000000 ) ) ;
#154 = AXIS2_PLACEMENT_3D ( 'NONE', #336, #41, #36 ) ;
#155 = SURFACE_STYLE_FILL_AREA ( #234 ) ;
#156 = STYLED_ITEM ( 'NONE', ( #275 ), #280 ) ;
#157 = ORIENTED_EDGE ( 'NONE', *, *, #22, .T. ) ;
#158 = ADVANCED_FACE ( 'NONE', ( #20 ), #133, .T. ) ;
#159 = CIRCLE ( 'NONE', #298, 43.15000000000000600 ) ;
#160 = VERTEX_POINT ( 'NONE', #62 ) ;
#161 = EDGE_CURVE ( 'NONE', #293, #313, #59, .T. ) ;
#162 =( NAMED_UNIT ( * ) PLANE_ANGLE_UNIT ( ) SI_UNIT ( $, .RADIAN. ) );
#163 = CARTESIAN_POINT ( 'NONE',  ( 62.59034463297795300, 0.0000000000000000000, -1.005007927519728000E-022 ) ) ;
#164 = DIRECTION ( 'NONE',  ( 0.0000000000000000000, 1.000000000000000000, 0.0000000000000000000 ) ) ;
#165 = MECHANICAL_DESIGN_GEOMETRIC_PRESENTATION_REPRESENTATION (  '', ( #89 ), #206 ) ;
#166 = CIRCLE ( 'NONE', #13, 25.39999999999999900 ) ;
#167 = DIRECTION ( 'NONE',  ( 0.0000000000000000000, 0.0000000000000000000, 1.000000000000000000 ) ) ;
#168 = CARTESIAN_POINT ( 'NONE',  ( 97.47246756149250800, 0.0000000000000000000, 25.39999999999999900 ) ) ;
#169 = ORIENTED_EDGE ( 'NONE', *, *, #85, .F. ) ;
#170 = SPHERICAL_SURFACE ( 'NONE', #146, 640.7000000000000500 ) ;
#171 = DIRECTION ( 'NONE',  ( 0.0000000000000000000, 0.0000000000000000000, 1.000000000000000000 ) ) ;
#172 = CARTESIAN_POINT ( 'NONE',  ( 107.7366660844527100, 0.0000000000000000000, -25.40000000000031800 ) ) ;
#173 = EDGE_CURVE ( 'NONE', #313, #293, #252, .T. ) ;
#174 = FACE_OUTER_BOUND ( 'NONE', #277, .T. ) ;
#175 = DIRECTION ( 'NONE',  ( -0.0000000000000000000, 1.000000000000000000, 1.224646799147353200E-016 ) ) ;
#176 = DIRECTION ( 'NONE',  ( 0.0000000000000000000, -1.224646799147353500E-016, 1.000000000000000000 ) ) ;
#177 = ORIENTED_EDGE ( 'NONE', *, *, #244, .T. ) ;
#178 = DIRECTION ( 'NONE',  ( 0.0000000000000000000, 0.0000000000000000000, -1.000000000000000000 ) ) ;
#179 = CIRCLE ( 'NONE', #295, 47.21000000000003600 ) ;
#180 = DIRECTION ( 'NONE',  ( 0.0000000000000000000, 0.0000000000000000000, 1.000000000000000000 ) ) ;
#181 = CARTESIAN_POINT ( 'NONE',  ( 108.2403446329779400, 0.0000000000000000000, -3.923156021068546500E-014 ) ) ;
#182 = ORIENTED_EDGE ( 'NONE', *, *, #185, .T. ) ;
#183 = DIRECTION ( 'NONE',  ( 0.0000000000000000000, 0.0000000000000000000, 1.000000000000000000 ) ) ;
#184 = VERTEX_POINT ( 'NONE', #278 ) ;
#185 = EDGE_CURVE ( 'NONE', #184, #238, #274, .T. ) ;
#186 = FACE_OUTER_BOUND ( 'NONE', #346, .T. ) ;
#187 = VERTEX_POINT ( 'NONE', #181 ) ;
#188 = ADVANCED_FACE ( 'NONE', ( #174 ), #114, .T. ) ;
#189 = DIRECTION ( 'NONE',  ( 0.0000000000000000000, -1.000000000000000000, 0.0000000000000000000 ) ) ;
#190 = UNCERTAINTY_MEASURE_WITH_UNIT (LENGTH_MEASURE( 1.000000000000000100E-005 ), #213, 'distance_accuracy_value', 'NONE');
#191 = EDGE_CURVE ( 'NONE', #160, #72, #145, .T. ) ;
#192 = FACE_OUTER_BOUND ( 'NONE', #31, .T. ) ;
#193 = VERTEX_POINT ( 'NONE', #229 ) ;
#194 = DIRECTION ( 'NONE',  ( 0.0000000000000000000, 0.0000000000000000000, 1.000000000000000000 ) ) ;
#195 = DIRECTION ( 'NONE',  ( -1.000000000000000000, -0.0000000000000000000, -0.0000000000000000000 ) ) ;
#196 = MANIFOLD_SOLID_BREP ( 'Ðý×ª1', #254 ) ;
#197 = DIRECTION ( 'NONE',  ( -1.000000000000000000, -0.0000000000000000000, -0.0000000000000000000 ) ) ;
#198 = SURFACE_SIDE_STYLE ('',( #155 ) ) ;
#199 = UNCERTAINTY_MEASURE_WITH_UNIT (LENGTH_MEASURE( 1.000000000000000100E-005 ), #92, 'distance_accuracy_value', 'NONE');
#200 = DIRECTION ( 'NONE',  ( 0.0000000000000000000, 1.000000000000000000, -0.0000000000000000000 ) ) ;
#201 = FILL_AREA_STYLE_COLOUR ( '', #77 ) ;
#202 = AXIS2_PLACEMENT_3D ( 'NONE', #63, #138, #150 ) ;
#203 = MECHANICAL_DESIGN_GEOMETRIC_PRESENTATION_REPRESENTATION (  '', ( #156 ), #212 ) ;
#204 = APPLICATION_CONTEXT ( 'automotive_design' ) ;
#205 = FACE_OUTER_BOUND ( 'NONE', #67, .T. ) ;
#206 =( GEOMETRIC_REPRESENTATION_CONTEXT ( 3 ) GLOBAL_UNCERTAINTY_ASSIGNED_CONTEXT ( ( #97 ) ) GLOBAL_UNIT_ASSIGNED_CONTEXT ( ( #262, #261, #240 ) ) REPRESENTATION_CONTEXT ( 'NONE', 'WORKASPACE' ) );
#207 = CARTESIAN_POINT ( 'NONE',  ( 97.47246756149250800, 0.0000000000000000000, 0.0000000000000000000 ) ) ;
#208 = AXIS2_PLACEMENT_3D ( 'NONE', #225, #197, #10 ) ;
#209 = SURFACE_STYLE_USAGE ( .BOTH. , #264 ) ;
#210 =( NAMED_UNIT ( * ) PLANE_ANGLE_UNIT ( ) SI_UNIT ( $, .RADIAN. ) );
#211 = VERTEX_POINT ( 'NONE', #99 ) ;
#212 =( GEOMETRIC_REPRESENTATION_CONTEXT ( 3 ) GLOBAL_UNCERTAINTY_ASSIGNED_CONTEXT ( ( #4 ) ) GLOBAL_UNIT_ASSIGNED_CONTEXT ( ( #263, #162, #223 ) ) REPRESENTATION_CONTEXT ( 'NONE', 'WORKASPACE' ) );
#213 =( LENGTH_UNIT ( ) NAMED_UNIT ( * ) SI_UNIT ( .MILLI., .METRE. ) );
#214 = CIRCLE ( 'NONE', #270, 640.7000000000000500 ) ;
#215 = LINE ( 'NONE', #326, #48 ) ;
#216 = VECTOR ( 'NONE', #88, 1000.000000000000000 ) ;
#217 = DIRECTION ( 'NONE',  ( 0.0000000000000000000, -1.224646799147353500E-016, 1.000000000000000000 ) ) ;
#218 = FACE_OUTER_BOUND ( 'NONE', #306, .T. ) ;
#219 = DIRECTION ( 'NONE',  ( -1.000000000000000000, -0.0000000000000000000, -0.0000000000000000000 ) ) ;
#220 = MANIFOLD_SOLID_BREP ( 'Ðý×ª2', #330 ) ;
#221 = LINE ( 'NONE', #33, #249 ) ;
#222 = PRESENTATION_LAYER_ASSIGNMENT (  '', '', ( #156 ) ) ;
#223 =( NAMED_UNIT ( * ) SI_UNIT ( $, .STERADIAN. ) SOLID_ANGLE_UNIT ( ) );
#224 = CIRCLE ( 'NONE', #342, 25.39999999999999900 ) ;
#225 = CARTESIAN_POINT ( 'NONE',  ( -0.5519199926577972300, 0.0000000000000000000, 0.0000000000000000000 ) ) ;
#226 = SURFACE_STYLE_USAGE ( .BOTH. , #198 ) ;
#227 = EDGE_LOOP ( 'NONE', ( #283, #107, #289, #109 ) ) ;
#228 = PRODUCT_DEFINITION_SHAPE ( 'NONE', 'NONE',  #25 ) ;
#229 = CARTESIAN_POINT ( 'NONE',  ( 105.7403446329779700, 0.0000000000000000000, 2.642175368659622700E-015 ) ) ;
#230 = SURFACE_STYLE_FILL_AREA ( #288 ) ;
#231 = CARTESIAN_POINT ( 'NONE',  ( 97.47246756149250800, 0.0000000000000000000, 0.0000000000000000000 ) ) ;
#232 = DIRECTION ( 'NONE',  ( 0.0000000000000000000, 0.0000000000000000000, -1.000000000000000000 ) ) ;
#233 = CYLINDRICAL_SURFACE ( 'NONE', #17, 25.39999999999998400 ) ;
#234 = FILL_AREA_STYLE ('',( #98 ) ) ;
#235 = ORIENTED_EDGE ( 'NONE', *, *, #7, .F. ) ;
#236 =( NAMED_UNIT ( * ) PLANE_ANGLE_UNIT ( ) SI_UNIT ( $, .RADIAN. ) );
#237 = DIRECTION ( 'NONE',  ( 0.0000000000000000000, 0.0000000000000000000, -1.000000000000000000 ) ) ;
#238 = VERTEX_POINT ( 'NONE', #122 ) ;
#239 = AXIS2_PLACEMENT_3D ( 'NONE', #290, #39, #178 ) ;
#240 =( NAMED_UNIT ( * ) SI_UNIT ( $, .STERADIAN. ) SOLID_ANGLE_UNIT ( ) );
#241 = CARTESIAN_POINT ( 'NONE',  ( -0.8160621761658039000, 0.0000000000000000000, 25.39999999999999900 ) ) ;
#242 = DIRECTION ( 'NONE',  ( 0.0000000000000000000, 0.0000000000000000000, 1.000000000000000000 ) ) ;
#243 = EDGE_LOOP ( 'NONE', ( #322, #177, #28 ) ) ;
#244 = EDGE_CURVE ( 'NONE', #11, #334, #224, .T. ) ;
#245 = AXIS2_PLACEMENT_3D ( 'NONE', #147, #149, #167 ) ;
#246 = ADVANCED_FACE ( 'NONE', ( #311 ), #83, .T. ) ;
#247 = ADVANCED_FACE ( 'NONE', ( #186 ), #266, .T. ) ;
#248 = PRESENTATION_LAYER_ASSIGNMENT (  '', '', ( #89 ) ) ;
#249 = VECTOR ( 'NONE', #55, 1000.000000000000000 ) ;
#250 = ADVANCED_FACE ( 'NONE', ( #37 ), #325, .T. ) ;
#251 = DIRECTION ( 'NONE',  ( 0.0000000000000000000, 0.0000000000000000000, 1.000000000000000000 ) ) ;
#252 = CIRCLE ( 'NONE', #317, 25.39999999999998100 ) ;
#253 = EDGE_CURVE ( 'NONE', #187, #293, #255, .T. ) ;
#254 = CLOSED_SHELL ( 'NONE', ( #246, #250, #188, #299, #135, #247 ) ) ;
#255 = CIRCLE ( 'NONE', #335, 640.7000000000000500 ) ;
#256 = DIRECTION ( 'NONE',  ( -1.000000000000000000, -0.0000000000000000000, -0.0000000000000000000 ) ) ;
#257 = CARTESIAN_POINT ( 'NONE',  ( 95.15556985035098600, 0.0000000000000000000, -25.40000000000000200 ) ) ;
#258 = ORIENTED_EDGE ( 'NONE', *, *, #161, .T. ) ;
#259 = SURFACE_SIDE_STYLE ('',( #141 ) ) ;
#260 = EDGE_CURVE ( 'NONE', #160, #334, #9, .T. ) ;
#261 =( NAMED_UNIT ( * ) PLANE_ANGLE_UNIT ( ) SI_UNIT ( $, .RADIAN. ) );
#262 =( LENGTH_UNIT ( ) NAMED_UNIT ( * ) SI_UNIT ( .MILLI., .METRE. ) );
#263 =( LENGTH_UNIT ( ) NAMED_UNIT ( * ) SI_UNIT ( .MILLI., .METRE. ) );
#264 = SURFACE_SIDE_STYLE ('',( #230 ) ) ;
#265 = CARTESIAN_POINT ( 'NONE',  ( 134.9503446329779600, 0.0000000000000000000, 0.0000000000000000000 ) ) ;
#266 = SPHERICAL_SURFACE ( 'NONE', #294, 43.15000000000000600 ) ;
#267 = DIRECTION ( 'NONE',  ( 0.0000000000000000000, 0.0000000000000000000, 1.000000000000000000 ) ) ;
#268 = EDGE_CURVE ( 'NONE', #72, #160, #166, .T. ) ;
#269 = ORIENTED_EDGE ( 'NONE', *, *, #22, .F. ) ;
#270 = AXIS2_PLACEMENT_3D ( 'NONE', #292, #200, #273 ) ;
#271 = ADVANCED_FACE ( 'NONE', ( #29 ), #305, .F. ) ;
#272 = FACE_OUTER_BOUND ( 'NONE', #151, .T. ) ;
#273 = DIRECTION ( 'NONE',  ( 0.0000000000000000000, 0.0000000000000000000, 1.000000000000000000 ) ) ;
#274 = CIRCLE ( 'NONE', #285, 25.39999999999998800 ) ;
#275 = PRESENTATION_STYLE_ASSIGNMENT (( #341 ) ) ;
#276 = EDGE_CURVE ( 'NONE', #193, #184, #159, .T. ) ;
#277 = EDGE_LOOP ( 'NONE', ( #44, #19, #235 ) ) ;
#278 = CARTESIAN_POINT ( 'NONE',  ( 97.47246756149250800, 3.110602869834276100E-015, -25.39999999999998800 ) ) ;
#279 = DIRECTION ( 'NONE',  ( 0.0000000000000000000, 1.224646799147353200E-016, -1.000000000000000000 ) ) ;
#280 = ADVANCED_BREP_SHAPE_REPRESENTATION ( '145177', ( #196, #220, #3 ), #324 ) ;
#281 =( NAMED_UNIT ( * ) SI_UNIT ( $, .STERADIAN. ) SOLID_ANGLE_UNIT ( ) );
#282 = CARTESIAN_POINT ( 'NONE',  ( 97.47246756149250800, 0.0000000000000000000, 0.0000000000000000000 ) ) ;
#283 = ORIENTED_EDGE ( 'NONE', *, *, #268, .T. ) ;
#284 = DIRECTION ( 'NONE',  ( -1.000000000000000000, -0.0000000000000000000, -0.0000000000000000000 ) ) ;
#285 = AXIS2_PLACEMENT_3D ( 'NONE', #231, #43, #94 ) ;
#286 = DIRECTION ( 'NONE',  ( 0.0000000000000000000, 0.0000000000000000000, 1.000000000000000000 ) ) ;
#287 = AXIS2_PLACEMENT_3D ( 'NONE', #140, #164, #183 ) ;
#288 = FILL_AREA_STYLE ('',( #201 ) ) ;
#289 = ORIENTED_EDGE ( 'NONE', *, *, #244, .F. ) ;
#290 = CARTESIAN_POINT ( 'NONE',  ( 134.9503446329779600, 0.0000000000000000000, 0.0000000000000000000 ) ) ;
#291 = AXIS2_PLACEMENT_3D ( 'NONE', #207, #195, #194 ) ;
#292 = CARTESIAN_POINT ( 'NONE',  ( -532.4596553670221500, 0.0000000000000000000, 0.0000000000000000000 ) ) ;
#293 = VERTEX_POINT ( 'NONE', #66 ) ;
#294 = AXIS2_PLACEMENT_3D ( 'NONE', #163, #75, #171 ) ;
#295 = AXIS2_PLACEMENT_3D ( 'NONE', #8, #303, #279 ) ;
#296 = ORIENTED_EDGE ( 'NONE', *, *, #260, .F. ) ;
#297 = DIRECTION ( 'NONE',  ( -1.000000000000000000, -0.0000000000000000000, -0.0000000000000000000 ) ) ;
#298 = AXIS2_PLACEMENT_3D ( 'NONE', #69, #175, #176 ) ;
#299 = ADVANCED_FACE ( 'NONE', ( #338 ), #329, .T. ) ;
#300 = PRODUCT_CONTEXT ( 'NONE', #118, 'mechanical' ) ;
#301 = CYLINDRICAL_SURFACE ( 'NONE', #208, 25.39999999999998400 ) ;
#302 = CARTESIAN_POINT ( 'NONE',  ( 95.15556985035098600, 0.0000000000000000000, 0.0000000000000000000 ) ) ;
#303 = DIRECTION ( 'NONE',  ( 0.0000000000000000000, -1.000000000000000000, -1.224646799147353200E-016 ) ) ;
#304 = DIRECTION ( 'NONE',  ( -1.000000000000000000, -0.0000000000000000000, -0.0000000000000000000 ) ) ;
#305 = SPHERICAL_SURFACE ( 'NONE', #287, 43.15000000000000600 ) ;
#306 = EDGE_LOOP ( 'NONE', ( #139, #51, #142 ) ) ;
#307 = ORIENTED_EDGE ( 'NONE', *, *, #1, .T. ) ;
#308 = AXIS2_PLACEMENT_3D ( 'NONE', #15, #81, #242 ) ;
#309 = CARTESIAN_POINT ( 'NONE',  ( 0.0000000000000000000, 0.0000000000000000000, 0.0000000000000000000 ) ) ;
#310 = DIRECTION ( 'NONE',  ( 0.0000000000000000000, 0.0000000000000000000, 1.000000000000000000 ) ) ;
#311 = FACE_OUTER_BOUND ( 'NONE', #339, .T. ) ;
#312 = CARTESIAN_POINT ( 'NONE',  ( 87.74034463297792300, 0.0000000000000000000, -2.890778769387329400E-015 ) ) ;
#313 = VERTEX_POINT ( 'NONE', #172 ) ;
#314 = DIRECTION ( 'NONE',  ( 0.0000000000000000000, 0.0000000000000000000, 1.000000000000000000 ) ) ;
#315 = CARTESIAN_POINT ( 'NONE',  ( -532.4596553670221500, 0.0000000000000000000, 0.0000000000000000000 ) ) ;
#316 = DIRECTION ( 'NONE',  ( 1.000000000000000000, 0.0000000000000000000, 0.0000000000000000000 ) ) ;
#317 = AXIS2_PLACEMENT_3D ( 'NONE', #96, #58, #267 ) ;
#318 = CARTESIAN_POINT ( 'NONE',  ( 97.47246756149250800, 0.0000000000000000000, 0.0000000000000000000 ) ) ;
#319 = ORIENTED_EDGE ( 'NONE', *, *, #185, .F. ) ;
#320 = ORIENTED_EDGE ( 'NONE', *, *, #1, .F. ) ;
#321 = AXIS2_PLACEMENT_3D ( 'NONE', #315, #337, #71 ) ;
#322 = ORIENTED_EDGE ( 'NONE', *, *, #136, .F. ) ;
#323 = ORIENTED_EDGE ( 'NONE', *, *, #108, .F. ) ;
#324 =( GEOMETRIC_REPRESENTATION_CONTEXT ( 3 ) GLOBAL_UNCERTAINTY_ASSIGNED_CONTEXT ( ( #199 ) ) GLOBAL_UNIT_ASSIGNED_CONTEXT ( ( #92, #236, #112 ) ) REPRESENTATION_CONTEXT ( 'NONE', 'WORKASPACE' ) );
#325 = CYLINDRICAL_SURFACE ( 'NONE', #245, 25.39999999999999900 ) ;
#326 = CARTESIAN_POINT ( 'NONE',  ( -0.5519199926577972300, 0.0000000000000000000, 25.39999999999998400 ) ) ;
#327 = ORIENTED_EDGE ( 'NONE', *, *, #276, .T. ) ;
#328 = ORIENTED_EDGE ( 'NONE', *, *, #103, .T. ) ;
#329 = SPHERICAL_SURFACE ( 'NONE', #239, 47.21000000000003600 ) ;
#330 = CLOSED_SHELL ( 'NONE', ( #34, #158, #2, #271, #56, #82 ) ) ;
#331 = ORIENTED_EDGE ( 'NONE', *, *, #119, .T. ) ;
#332 = DIRECTION ( 'NONE',  ( 0.0000000000000000000, -1.000000000000000000, -1.224646799147353200E-016 ) ) ;
#333 = ORIENTED_EDGE ( 'NONE', *, *, #191, .T. ) ;
#334 = VERTEX_POINT ( 'NONE', #257 ) ;
#335 = AXIS2_PLACEMENT_3D ( 'NONE', #93, #332, #65 ) ;
#336 = CARTESIAN_POINT ( 'NONE',  ( 62.59034463297795300, 0.0000000000000000000, -1.005007927519728000E-022 ) ) ;
#337 = DIRECTION ( 'NONE',  ( -0.0000000000000000000, -1.000000000000000000, -0.0000000000000000000 ) ) ;
#338 = FACE_OUTER_BOUND ( 'NONE', #243, .T. ) ;
#339 = EDGE_LOOP ( 'NONE', ( #320, #157, #105 ) ) ;
#340 = ORIENTED_EDGE ( 'NONE', *, *, #53, .T. ) ;
#341 = SURFACE_STYLE_USAGE ( .BOTH. , #259 ) ;
#342 = AXIS2_PLACEMENT_3D ( 'NONE', #302, #284, #286 ) ;
#343 = EDGE_LOOP ( 'NONE', ( #296, #333, #328, #84 ) ) ;
#344 = DIRECTION ( 'NONE',  ( 0.0000000000000000000, 0.0000000000000000000, 1.000000000000000000 ) ) ;
#345 = AXIS2_PLACEMENT_3D ( 'NONE', #318, #61, #251 ) ;
#346 = EDGE_LOOP ( 'NONE', ( #269, #307, #5 ) ) ;
#347 = EDGE_LOOP ( 'NONE', ( #169, #117, #27 ) ) ;
ENDSEC;
END-ISO-10303-21;
