ISO-10303-21;
HEADER;
FILE_DESCRIPTION (( 'STEP AP214' ),
    '1' );
FILE_NAME ('145188.STEP',
    '2019-06-13T03:25:57',
    ( 'user' ),
    ( 'Î¢ÈíÖÐ¹ú' ),
    'SwSTEP 2.0',
    'SolidWorks 2016',
    '' );
FILE_SCHEMA (( 'AUTOMOTIVE_DESIGN' ));
ENDSEC;

DATA;
#1 =( NAMED_UNIT ( * ) PLANE_ANGLE_UNIT ( ) SI_UNIT ( $, .RADIAN. ) );
#2 = CIRCLE ( 'NONE', #275, 17.97000000000002700 ) ;
#3 = DIRECTION ( 'NONE',  ( 0.0000000000000000000, 0.0000000000000000000, -1.000000000000000000 ) ) ;
#4 = DIRECTION ( 'NONE',  ( -1.000000000000000000, -0.0000000000000000000, 1.836970198721030200E-016 ) ) ;
#5 =( GEOMETRIC_REPRESENTATION_CONTEXT ( 3 ) GLOBAL_UNCERTAINTY_ASSIGNED_CONTEXT ( ( #188 ) ) GLOBAL_UNIT_ASSIGNED_CONTEXT ( ( #126, #94, #283 ) ) REPRESENTATION_CONTEXT ( 'NONE', 'WORKASPACE' ) );
#6 = AXIS2_PLACEMENT_3D ( 'NONE', #189, #342, #47 ) ;
#7 = ADVANCED_FACE ( 'NONE', ( #14 ), #296, .F. ) ;
#8 = CARTESIAN_POINT ( 'NONE',  ( 245.7254795421305000, 0.0000000000000000000, -3.894254421675295700E-027 ) ) ;
#9 = DIRECTION ( 'NONE',  ( 0.0000000000000000000, 0.0000000000000000000, -1.000000000000000000 ) ) ;
#10 = EDGE_CURVE ( 'NONE', #303, #337, #158, .T. ) ;
#11 = CARTESIAN_POINT ( 'NONE',  ( 245.7254795421305000, 0.0000000000000000000, -3.894254421675295700E-027 ) ) ;
#12 =( GEOMETRIC_REPRESENTATION_CONTEXT ( 3 ) GLOBAL_UNCERTAINTY_ASSIGNED_CONTEXT ( ( #226 ) ) GLOBAL_UNIT_ASSIGNED_CONTEXT ( ( #267, #77, #240 ) ) REPRESENTATION_CONTEXT ( 'NONE', 'WORKASPACE' ) );
#13 = PRESENTATION_STYLE_ASSIGNMENT (( #305 ) ) ;
#14 = FACE_OUTER_BOUND ( 'NONE', #18, .T. ) ;
#15 = DIRECTION ( 'NONE',  ( -0.0000000000000000000, 1.000000000000000000, 0.0000000000000000000 ) ) ;
#16 = DIRECTION ( 'NONE',  ( 0.0000000000000000000, 0.0000000000000000000, 1.000000000000000000 ) ) ;
#17 = DIRECTION ( 'NONE',  ( 0.0000000000000000000, 0.0000000000000000000, 1.000000000000000000 ) ) ;
#18 = EDGE_LOOP ( 'NONE', ( #326, #314, #45 ) ) ;
#19 = DIRECTION ( 'NONE',  ( 0.0000000000000000000, 0.0000000000000000000, 1.000000000000000000 ) ) ;
#20 = AXIS2_PLACEMENT_3D ( 'NONE', #161, #311, #135 ) ;
#21 = EDGE_CURVE ( 'NONE', #180, #279, #230, .T. ) ;
#22 = VERTEX_POINT ( 'NONE', #277 ) ;
#23 = SURFACE_SIDE_STYLE ('',( #57 ) ) ;
#24 = CIRCLE ( 'NONE', #159, 6.250000000000041700 ) ;
#25 = AXIS2_PLACEMENT_3D ( 'NONE', #281, #89, #253 ) ;
#26 = ORIENTED_EDGE ( 'NONE', *, *, #100, .F. ) ;
#27 = CARTESIAN_POINT ( 'NONE',  ( -0.8160621761658039000, 0.0000000000000000000, 0.0000000000000000000 ) ) ;
#28 = CYLINDRICAL_SURFACE ( 'NONE', #175, 6.250000000000041700 ) ;
#29 = ADVANCED_FACE ( 'NONE', ( #290 ), #74, .T. ) ;
#30 = EDGE_CURVE ( 'NONE', #36, #180, #150, .T. ) ;
#31 = DIRECTION ( 'NONE',  ( -0.0000000000000000000, -1.000000000000000000, -0.0000000000000000000 ) ) ;
#32 = CARTESIAN_POINT ( 'NONE',  ( 200.3054795421304800, 0.0000000000000000000, 0.0000000000000000000 ) ) ;
#33 = CYLINDRICAL_SURFACE ( 'NONE', #84, 6.250000000000005300 ) ;
#34 = DIRECTION ( 'NONE',  ( 0.0000000000000000000, 0.0000000000000000000, 1.000000000000000000 ) ) ;
#35 = EDGE_CURVE ( 'NONE', #180, #132, #83, .T. ) ;
#36 = VERTEX_POINT ( 'NONE', #172 ) ;
#37 = APPLICATION_CONTEXT ( 'automotive_design' ) ;
#38 = FACE_OUTER_BOUND ( 'NONE', #235, .T. ) ;
#39 = ORIENTED_EDGE ( 'NONE', *, *, #157, .T. ) ;
#40 = AXIS2_PLACEMENT_3D ( 'NONE', #187, #241, #16 ) ;
#41 = ORIENTED_EDGE ( 'NONE', *, *, #21, .T. ) ;
#42 = EDGE_CURVE ( 'NONE', #191, #337, #78, .T. ) ;
#43 = VERTEX_POINT ( 'NONE', #170 ) ;
#44 = AXIS2_PLACEMENT_3D ( 'NONE', #162, #15, #292 ) ;
#45 = ORIENTED_EDGE ( 'NONE', *, *, #100, .T. ) ;
#46 = FACE_OUTER_BOUND ( 'NONE', #345, .T. ) ;
#47 = DIRECTION ( 'NONE',  ( 0.0000000000000000000, 0.0000000000000000000, 1.000000000000000000 ) ) ;
#48 = DIRECTION ( 'NONE',  ( 0.0000000000000000000, 0.0000000000000000000, 1.000000000000000000 ) ) ;
#49 = ORIENTED_EDGE ( 'NONE', *, *, #10, .T. ) ;
#50 = CARTESIAN_POINT ( 'NONE',  ( 228.8773817266499600, 0.0000000000000000000, 0.0000000000000000000 ) ) ;
#51 = ORIENTED_EDGE ( 'NONE', *, *, #123, .T. ) ;
#52 = DIRECTION ( 'NONE',  ( 0.0000000000000000000, 1.000000000000000000, -0.0000000000000000000 ) ) ;
#53 = DIRECTION ( 'NONE',  ( -1.000000000000000000, -0.0000000000000000000, -0.0000000000000000000 ) ) ;
#54 = EDGE_CURVE ( 'NONE', #22, #321, #156, .T. ) ;
#55 = SPHERICAL_SURFACE ( 'NONE', #270, 17.97000000000002700 ) ;
#56 = EDGE_LOOP ( 'NONE', ( #203, #199, #110 ) ) ;
#57 = SURFACE_STYLE_FILL_AREA ( #70 ) ;
#58 = DIRECTION ( 'NONE',  ( -1.000000000000000000, -0.0000000000000000000, 1.836970198721030200E-016 ) ) ;
#59 = ORIENTED_EDGE ( 'NONE', *, *, #35, .F. ) ;
#60 = ADVANCED_FACE ( 'NONE', ( #224 ), #286, .F. ) ;
#61 = ORIENTED_EDGE ( 'NONE', *, *, #338, .T. ) ;
#62 = CARTESIAN_POINT ( 'NONE',  ( 227.7554795421305000, 0.0000000000000000000, 1.100345149030004300E-015 ) ) ;
#63 = AXIS2_PLACEMENT_3D ( 'NONE', #96, #285, #128 ) ;
#64 = PRESENTATION_LAYER_ASSIGNMENT (  '', '', ( #316 ) ) ;
#65 = FILL_AREA_STYLE_COLOUR ( '', #212 ) ;
#66 = DIRECTION ( 'NONE',  ( 1.908195823574475000E-016, 0.0000000000000000000, 1.000000000000000000 ) ) ;
#67 = EDGE_CURVE ( 'NONE', #180, #36, #217, .T. ) ;
#68 = CARTESIAN_POINT ( 'NONE',  ( -0.8160621761658051200, 7.654042494671008900E-016, -6.250000000000041700 ) ) ;
#69 = AXIS2_PLACEMENT_3D ( 'NONE', #32, #207, #9 ) ;
#70 = FILL_AREA_STYLE ('',( #65 ) ) ;
#71 = VERTEX_POINT ( 'NONE', #282 ) ;
#72 = LINE ( 'NONE', #68, #278 ) ;
#73 = PRODUCT ( '145188', '145188', '', ( #307 ) ) ;
#74 = CYLINDRICAL_SURFACE ( 'NONE', #210, 6.250000000000041700 ) ;
#75 = EDGE_CURVE ( 'NONE', #132, #321, #2, .T. ) ;
#76 = DIRECTION ( 'NONE',  ( 0.0000000000000000000, 0.0000000000000000000, 1.000000000000000000 ) ) ;
#77 =( NAMED_UNIT ( * ) PLANE_ANGLE_UNIT ( ) SI_UNIT ( $, .RADIAN. ) );
#78 = CIRCLE ( 'NONE', #167, 17.97000000000002700 ) ;
#79 = DIRECTION ( 'NONE',  ( -1.000000000000000000, -0.0000000000000000000, 1.836970198721030200E-016 ) ) ;
#80 = PRODUCT_DEFINITION ( 'Î´Öª', '', #98, #236 ) ;
#81 = CARTESIAN_POINT ( 'NONE',  ( 245.7254795421305000, 0.0000000000000000000, -3.894254421675295700E-027 ) ) ;
#82 = EDGE_CURVE ( 'NONE', #191, #71, #72, .T. ) ;
#83 = LINE ( 'NONE', #208, #347 ) ;
#84 = AXIS2_PLACEMENT_3D ( 'NONE', #214, #340, #76 ) ;
#85 = DIRECTION ( 'NONE',  ( -2.249639673992787000E-032, -1.000000000000000000, -1.224646799147353200E-016 ) ) ;
#86 = SURFACE_STYLE_FILL_AREA ( #299 ) ;
#87 = CARTESIAN_POINT ( 'NONE',  ( 296.6954795421305000, 0.0000000000000000000, 0.0000000000000000000 ) ) ;
#88 = CARTESIAN_POINT ( 'NONE',  ( 228.8773817266499600, 0.0000000000000000000, 6.249999999999999100 ) ) ;
#89 = DIRECTION ( 'NONE',  ( 2.249639673992787000E-032, 1.000000000000000000, 1.224646799147353200E-016 ) ) ;
#90 = ORIENTED_EDGE ( 'NONE', *, *, #54, .T. ) ;
#91 = DIRECTION ( 'NONE',  ( 0.0000000000000000000, 0.0000000000000000000, 1.000000000000000000 ) ) ;
#92 = EDGE_CURVE ( 'NONE', #22, #132, #146, .T. ) ;
#93 = DIRECTION ( 'NONE',  ( -1.000000000000000000, -0.0000000000000000000, 1.836970198721030200E-016 ) ) ;
#94 =( NAMED_UNIT ( * ) PLANE_ANGLE_UNIT ( ) SI_UNIT ( $, .RADIAN. ) );
#95 = DIRECTION ( 'NONE',  ( 0.0000000000000000000, 0.0000000000000000000, -1.000000000000000000 ) ) ;
#96 = CARTESIAN_POINT ( 'NONE',  ( 0.0000000000000000000, 0.0000000000000000000, 0.0000000000000000000 ) ) ;
#97 = MANIFOLD_SOLID_BREP ( 'Ðý×ª3', #117 ) ;
#98 = PRODUCT_DEFINITION_FORMATION_WITH_SPECIFIED_SOURCE ( 'ÈÎºÎ', '', #73, .NOT_KNOWN. ) ;
#99 = ORIENTED_EDGE ( 'NONE', *, *, #92, .T. ) ;
#100 = EDGE_CURVE ( 'NONE', #36, #279, #211, .T. ) ;
#101 = FACE_OUTER_BOUND ( 'NONE', #193, .T. ) ;
#102 = AXIS2_PLACEMENT_3D ( 'NONE', #116, #258, #171 ) ;
#103 = CARTESIAN_POINT ( 'NONE',  ( -0.8160621761658027900, 0.0000000000000000000, 6.250000000000041700 ) ) ;
#104 = CLOSED_SHELL ( 'NONE', ( #60, #29, #255, #169, #328, #300 ) ) ;
#105 = SURFACE_STYLE_USAGE ( .BOTH. , #294 ) ;
#106 = CARTESIAN_POINT ( 'NONE',  ( 223.9431613235573500, 0.0000000000000000000, -4.128759954566708800E-014 ) ) ;
#107 = SURFACE_STYLE_FILL_AREA ( #137 ) ;
#108 = CARTESIAN_POINT ( 'NONE',  ( 296.6954795421305000, 0.0000000000000000000, 0.0000000000000000000 ) ) ;
#109 = DIRECTION ( 'NONE',  ( -0.0000000000000000000, -1.000000000000000000, -0.0000000000000000000 ) ) ;
#110 = ORIENTED_EDGE ( 'NONE', *, *, #42, .T. ) ;
#111 = CIRCLE ( 'NONE', #69, 24.44999999999998900 ) ;
#112 = AXIS2_PLACEMENT_3D ( 'NONE', #147, #85, #114 ) ;
#113 = ORIENTED_EDGE ( 'NONE', *, *, #35, .T. ) ;
#114 = DIRECTION ( 'NONE',  ( 0.0000000000000000000, 1.224646799147353200E-016, -1.000000000000000000 ) ) ;
#115 = COLOUR_RGB ( '',1.000000000000000000, 1.000000000000000000, 1.000000000000000000 ) ;
#116 = CARTESIAN_POINT ( 'NONE',  ( 245.7254795421305000, 0.0000000000000000000, -3.894254421675295700E-027 ) ) ;
#117 = CLOSED_SHELL ( 'NONE', ( #148, #280, #201, #120, #228, #7 ) ) ;
#118 =( LENGTH_UNIT ( ) NAMED_UNIT ( * ) SI_UNIT ( .MILLI., .METRE. ) );
#120 = ADVANCED_FACE ( 'NONE', ( #136 ), #55, .T. ) ;
#119 = PRODUCT_RELATED_PRODUCT_CATEGORY ( 'part', '', ( #73 ) ) ;
#121 = ORIENTED_EDGE ( 'NONE', *, *, #302, .T. ) ;
#122 = FACE_OUTER_BOUND ( 'NONE', #56, .T. ) ;
#123 = EDGE_CURVE ( 'NONE', #36, #22, #268, .T. ) ;
#124 = ORIENTED_EDGE ( 'NONE', *, *, #75, .F. ) ;
#125 = AXIS2_PLACEMENT_3D ( 'NONE', #202, #4, #325 ) ;
#126 =( LENGTH_UNIT ( ) NAMED_UNIT ( * ) SI_UNIT ( .MILLI., .METRE. ) );
#127 = DIRECTION ( 'NONE',  ( 0.0000000000000000000, -1.224646799147353200E-016, 1.000000000000000000 ) ) ;
#128 = DIRECTION ( 'NONE',  ( 1.000000000000000000, 0.0000000000000000000, 0.0000000000000000000 ) ) ;
#129 = VECTOR ( 'NONE', #141, 1000.000000000000000 ) ;
#130 = UNCERTAINTY_MEASURE_WITH_UNIT (LENGTH_MEASURE( 1.000000000000000100E-005 ), #118, 'distance_accuracy_value', 'NONE');
#131 = PRODUCT_DEFINITION_SHAPE ( 'NONE', 'NONE',  #80 ) ;
#132 = VERTEX_POINT ( 'NONE', #315 ) ;
#133 = ORIENTED_EDGE ( 'NONE', *, *, #289, .T. ) ;
#134 = AXIS2_PLACEMENT_3D ( 'NONE', #87, #198, #3 ) ;
#135 = DIRECTION ( 'NONE',  ( 0.0000000000000000000, 0.0000000000000000000, 1.000000000000000000 ) ) ;
#136 = FACE_OUTER_BOUND ( 'NONE', #271, .T. ) ;
#137 = FILL_AREA_STYLE ('',( #312 ) ) ;
#138 = SPHERICAL_SURFACE ( 'NONE', #336, 24.44999999999998900 ) ;
#139 = DIRECTION ( 'NONE',  ( -0.0000000000000000000, 1.000000000000000000, 0.0000000000000000000 ) ) ;
#140 = ORIENTED_EDGE ( 'NONE', *, *, #254, .F. ) ;
#141 = DIRECTION ( 'NONE',  ( -1.000000000000000000, -0.0000000000000000000, -0.0000000000000000000 ) ) ;
#142 = ORIENTED_EDGE ( 'NONE', *, *, #67, .T. ) ;
#143 = EDGE_CURVE ( 'NONE', #132, #22, #197, .T. ) ;
#144 =( GEOMETRIC_REPRESENTATION_CONTEXT ( 3 ) GLOBAL_UNCERTAINTY_ASSIGNED_CONTEXT ( ( #130 ) ) GLOBAL_UNIT_ASSIGNED_CONTEXT ( ( #118, #1, #250 ) ) REPRESENTATION_CONTEXT ( 'NONE', 'WORKASPACE' ) );
#145 = DIRECTION ( 'NONE',  ( 0.0000000000000000000, 0.0000000000000000000, 1.000000000000000000 ) ) ;
#146 = CIRCLE ( 'NONE', #293, 6.250000000000012400 ) ;
#147 = CARTESIAN_POINT ( 'NONE',  ( 245.7254795421305000, 0.0000000000000000000, -3.894254421675295700E-027 ) ) ;
#148 = ADVANCED_FACE ( 'NONE', ( #46 ), #323, .F. ) ;
#149 = DIRECTION ( 'NONE',  ( -0.0000000000000000000, 1.000000000000000000, 1.224646799147353200E-016 ) ) ;
#150 = CIRCLE ( 'NONE', #186, 6.249999999999998200 ) ;
#151 = DIRECTION ( 'NONE',  ( 0.0000000000000000000, 0.0000000000000000000, -1.000000000000000000 ) ) ;
#152 = AXIS2_PLACEMENT_3D ( 'NONE', #304, #330, #329 ) ;
#153 = CARTESIAN_POINT ( 'NONE',  ( -0.8160621761658039000, 0.0000000000000000000, 0.0000000000000000000 ) ) ;
#154 = SURFACE_SIDE_STYLE ('',( #86 ) ) ;
#155 = APPLICATION_CONTEXT ( 'automotive_design' ) ;
#156 = CIRCLE ( 'NONE', #223, 17.97000000000002700 ) ;
#157 = EDGE_CURVE ( 'NONE', #43, #71, #263, .T. ) ;
#158 = CIRCLE ( 'NONE', #112, 17.97000000000002700 ) ;
#159 = AXIS2_PLACEMENT_3D ( 'NONE', #276, #168, #145 ) ;
#160 = ORIENTED_EDGE ( 'NONE', *, *, #289, .F. ) ;
#161 = CARTESIAN_POINT ( 'NONE',  ( 228.8773817266499600, 0.0000000000000000000, -4.219400112910733000E-014 ) ) ;
#162 = CARTESIAN_POINT ( 'NONE',  ( 200.3054795421304800, 0.0000000000000000000, 0.0000000000000000000 ) ) ;
#163 = COLOUR_RGB ( '',1.000000000000000000, 1.000000000000000000, 1.000000000000000000 ) ;
#164 = STYLED_ITEM ( 'NONE', ( #333 ), #97 ) ;
#165 =( NAMED_UNIT ( * ) PLANE_ANGLE_UNIT ( ) SI_UNIT ( $, .RADIAN. ) );
#166 = ORIENTED_EDGE ( 'NONE', *, *, #272, .T. ) ;
#167 = AXIS2_PLACEMENT_3D ( 'NONE', #229, #206, #34 ) ;
#168 = DIRECTION ( 'NONE',  ( -1.000000000000000000, -0.0000000000000000000, 1.836970198721030200E-016 ) ) ;
#169 = ADVANCED_FACE ( 'NONE', ( #343 ), #138, .F. ) ;
#170 = CARTESIAN_POINT ( 'NONE',  ( 223.9431613235573500, 0.0000000000000000000, 6.249999999999998200 ) ) ;
#171 = DIRECTION ( 'NONE',  ( 0.0000000000000000000, 0.0000000000000000000, -1.000000000000000000 ) ) ;
#172 = CARTESIAN_POINT ( 'NONE',  ( 230.3893900781905900, 7.654042494670960600E-016, -6.249999999999998200 ) ) ;
#173 = SHAPE_DEFINITION_REPRESENTATION ( #131, #287 ) ;
#174 = DIRECTION ( 'NONE',  ( 0.0000000000000000000, 0.0000000000000000000, 1.000000000000000000 ) ) ;
#175 = AXIS2_PLACEMENT_3D ( 'NONE', #27, #227, #66 ) ;
#176 = EDGE_LOOP ( 'NONE', ( #160, #121, #306 ) ) ;
#177 = DIRECTION ( 'NONE',  ( -1.000000000000000000, -0.0000000000000000000, -0.0000000000000000000 ) ) ;
#178 = FACE_OUTER_BOUND ( 'NONE', #257, .T. ) ;
#179 = PRESENTATION_LAYER_ASSIGNMENT (  '', '', ( #164 ) ) ;
#180 = VERTEX_POINT ( 'NONE', #344 ) ;
#181 = ORIENTED_EDGE ( 'NONE', *, *, #157, .F. ) ;
#182 = FACE_OUTER_BOUND ( 'NONE', #196, .T. ) ;
#183 = ORIENTED_EDGE ( 'NONE', *, *, #317, .F. ) ;
#184 = CARTESIAN_POINT ( 'NONE',  ( 230.0954795421305100, 0.0000000000000000000, -4.078073841160687100E-015 ) ) ;
#185 = ORIENTED_EDGE ( 'NONE', *, *, #75, .T. ) ;
#186 = AXIS2_PLACEMENT_3D ( 'NONE', #256, #231, #91 ) ;
#187 = CARTESIAN_POINT ( 'NONE',  ( 223.9431613235573500, 0.0000000000000000000, 0.0000000000000000000 ) ) ;
#188 = UNCERTAINTY_MEASURE_WITH_UNIT (LENGTH_MEASURE( 1.000000000000000100E-005 ), #126, 'distance_accuracy_value', 'NONE');
#189 = CARTESIAN_POINT ( 'NONE',  ( 245.7254795421305000, 0.0000000000000000000, -3.894254421675295700E-027 ) ) ;
#190 = DIRECTION ( 'NONE',  ( 0.0000000000000000000, 0.0000000000000000000, -1.000000000000000000 ) ) ;
#191 = VERTEX_POINT ( 'NONE', #269 ) ;
#192 = CARTESIAN_POINT ( 'NONE',  ( 223.9431613235573500, 7.654042494670964500E-016, -6.250000000000005300 ) ) ;
#193 = EDGE_LOOP ( 'NONE', ( #334, #61, #166, #183 ) ) ;
#194 = SPHERICAL_SURFACE ( 'NONE', #102, 17.97000000000002700 ) ;
#195 = SURFACE_STYLE_USAGE ( .BOTH. , #23 ) ;
#196 = EDGE_LOOP ( 'NONE', ( #142, #51, #324, #59 ) ) ;
#197 = CIRCLE ( 'NONE', #252, 6.250000000000012400 ) ;
#198 = DIRECTION ( 'NONE',  ( -0.0000000000000000000, -1.000000000000000000, -0.0000000000000000000 ) ) ;
#199 = ORIENTED_EDGE ( 'NONE', *, *, #338, .F. ) ;
#200 = MECHANICAL_DESIGN_GEOMETRIC_PRESENTATION_REPRESENTATION (  '', ( #164 ), #219 ) ;
#201 = ADVANCED_FACE ( 'NONE', ( #38 ), #313, .T. ) ;
#202 = CARTESIAN_POINT ( 'NONE',  ( 223.9431613235573500, 0.0000000000000000000, -4.128759954566708800E-014 ) ) ;
#203 = ORIENTED_EDGE ( 'NONE', *, *, #10, .F. ) ;
#204 = EDGE_LOOP ( 'NONE', ( #140, #49, #238 ) ) ;
#205 = ORIENTED_EDGE ( 'NONE', *, *, #302, .F. ) ;
#206 = DIRECTION ( 'NONE',  ( -0.0000000000000000000, 1.000000000000000000, 0.0000000000000000000 ) ) ;
#207 = DIRECTION ( 'NONE',  ( 0.0000000000000000000, -1.000000000000000000, 0.0000000000000000000 ) ) ;
#208 = CARTESIAN_POINT ( 'NONE',  ( 223.9431613235573500, 0.0000000000000000000, 6.250000000000005300 ) ) ;
#209 = DIRECTION ( 'NONE',  ( -1.000000000000000000, -0.0000000000000000000, -0.0000000000000000000 ) ) ;
#210 = AXIS2_PLACEMENT_3D ( 'NONE', #153, #58, #225 ) ;
#211 = CIRCLE ( 'NONE', #237, 66.60000000000000900 ) ;
#212 = COLOUR_RGB ( '',1.000000000000000000, 1.000000000000000000, 1.000000000000000000 ) ;
#213 = EDGE_LOOP ( 'NONE', ( #205, #133, #39 ) ) ;
#214 = CARTESIAN_POINT ( 'NONE',  ( 223.9431613235573500, 0.0000000000000000000, 0.0000000000000000000 ) ) ;
#215 = STYLED_ITEM ( 'NONE', ( #13 ), #287 ) ;
#216 = DIRECTION ( 'NONE',  ( -1.000000000000000000, -0.0000000000000000000, 1.836970198721030200E-016 ) ) ;
#217 = CIRCLE ( 'NONE', #239, 6.249999999999998200 ) ;
#218 = DIRECTION ( 'NONE',  ( -1.000000000000000000, -0.0000000000000000000, -0.0000000000000000000 ) ) ;
#219 =( GEOMETRIC_REPRESENTATION_CONTEXT ( 3 ) GLOBAL_UNCERTAINTY_ASSIGNED_CONTEXT ( ( #341 ) ) GLOBAL_UNIT_ASSIGNED_CONTEXT ( ( #346, #165, #319 ) ) REPRESENTATION_CONTEXT ( 'NONE', 'WORKASPACE' ) );
#220 = DIRECTION ( 'NONE',  ( 0.0000000000000000000, 0.0000000000000000000, 1.000000000000000000 ) ) ;
#221 = DIRECTION ( 'NONE',  ( 0.0000000000000000000, 0.0000000000000000000, 1.000000000000000000 ) ) ;
#222 = ORIENTED_EDGE ( 'NONE', *, *, #67, .F. ) ;
#223 = AXIS2_PLACEMENT_3D ( 'NONE', #11, #149, #127 ) ;
#224 = FACE_OUTER_BOUND ( 'NONE', #204, .T. ) ;
#225 = DIRECTION ( 'NONE',  ( 1.908195823574475000E-016, 0.0000000000000000000, 1.000000000000000000 ) ) ;
#226 = UNCERTAINTY_MEASURE_WITH_UNIT (LENGTH_MEASURE( 1.000000000000000100E-005 ), #267, 'distance_accuracy_value', 'NONE');
#227 = DIRECTION ( 'NONE',  ( -1.000000000000000000, -0.0000000000000000000, 1.836970198721030200E-016 ) ) ;
#228 = ADVANCED_FACE ( 'NONE', ( #178 ), #308, .T. ) ;
#229 = CARTESIAN_POINT ( 'NONE',  ( 245.7254795421305000, 0.0000000000000000000, -3.894254421675295700E-027 ) ) ;
#230 = CIRCLE ( 'NONE', #152, 66.60000000000000900 ) ;
#231 = DIRECTION ( 'NONE',  ( -1.000000000000000000, -0.0000000000000000000, -0.0000000000000000000 ) ) ;
#232 = CARTESIAN_POINT ( 'NONE',  ( 230.3893900781905900, 0.0000000000000000000, 0.0000000000000000000 ) ) ;
#233 = PRESENTATION_LAYER_ASSIGNMENT (  '', '', ( #215 ) ) ;
#234 = APPLICATION_PROTOCOL_DEFINITION ( 'draft international standard', 'automotive_design', 1998, #37 ) ;
#235 = EDGE_LOOP ( 'NONE', ( #335, #90, #124 ) ) ;
#236 = PRODUCT_DEFINITION_CONTEXT ( 'detailed design', #155, 'design' ) ;
#237 = AXIS2_PLACEMENT_3D ( 'NONE', #244, #52, #220 ) ;
#238 = ORIENTED_EDGE ( 'NONE', *, *, #42, .F. ) ;
#239 = AXIS2_PLACEMENT_3D ( 'NONE', #232, #209, #174 ) ;
#240 =( NAMED_UNIT ( * ) SI_UNIT ( $, .STERADIAN. ) SOLID_ANGLE_UNIT ( ) );
#241 = DIRECTION ( 'NONE',  ( -1.000000000000000000, -0.0000000000000000000, -0.0000000000000000000 ) ) ;
#242 = DIRECTION ( 'NONE',  ( 0.0000000000000000000, 0.0000000000000000000, 1.000000000000000000 ) ) ;
#243 = PRESENTATION_STYLE_ASSIGNMENT (( #105 ) ) ;
#244 = CARTESIAN_POINT ( 'NONE',  ( 296.6954795421305000, 0.0000000000000000000, 0.0000000000000000000 ) ) ;
#245 = CARTESIAN_POINT ( 'NONE',  ( 228.8773817266499600, 0.0000000000000000000, 0.0000000000000000000 ) ) ;
#246 = CIRCLE ( 'NONE', #125, 6.250000000000040900 ) ;
#247 = EDGE_LOOP ( 'NONE', ( #260, #297, #181, #310 ) ) ;
#248 = MECHANICAL_DESIGN_GEOMETRIC_PRESENTATION_REPRESENTATION (  '', ( #215 ), #5 ) ;
#249 = MANIFOLD_SOLID_BREP ( 'Ðý×ª1', #104 ) ;
#250 =( NAMED_UNIT ( * ) SI_UNIT ( $, .STERADIAN. ) SOLID_ANGLE_UNIT ( ) );
#251 = FACE_OUTER_BOUND ( 'NONE', #176, .T. ) ;
#252 = AXIS2_PLACEMENT_3D ( 'NONE', #50, #218, #17 ) ;
#253 = DIRECTION ( 'NONE',  ( 0.0000000000000000000, -1.224646799147353200E-016, 1.000000000000000000 ) ) ;
#254 = EDGE_CURVE ( 'NONE', #303, #191, #327, .T. ) ;
#255 = ADVANCED_FACE ( 'NONE', ( #251 ), #265, .F. ) ;
#257 = EDGE_LOOP ( 'NONE', ( #291, #318, #113, #273 ) ) ;
#256 = CARTESIAN_POINT ( 'NONE',  ( 230.3893900781905900, 0.0000000000000000000, 0.0000000000000000000 ) ) ;
#258 = DIRECTION ( 'NONE',  ( -0.0000000000000000000, -1.000000000000000000, -0.0000000000000000000 ) ) ;
#259 = VECTOR ( 'NONE', #216, 1000.000000000000000 ) ;
#260 = ORIENTED_EDGE ( 'NONE', *, *, #254, .T. ) ;
#261 = AXIS2_PLACEMENT_3D ( 'NONE', #8, #31, #95 ) ;
#262 = DIRECTION ( 'NONE',  ( 0.0000000000000000000, -1.000000000000000000, 0.0000000000000000000 ) ) ;
#263 = CIRCLE ( 'NONE', #288, 6.250000000000040900 ) ;
#264 = VERTEX_POINT ( 'NONE', #266 ) ;
#265 = SPHERICAL_SURFACE ( 'NONE', #44, 24.44999999999998900 ) ;
#266 = CARTESIAN_POINT ( 'NONE',  ( 224.7554795421305000, 0.0000000000000000000, -2.994261423915278000E-015 ) ) ;
#267 =( LENGTH_UNIT ( ) NAMED_UNIT ( * ) SI_UNIT ( .MILLI., .METRE. ) );
#268 = LINE ( 'NONE', #192, #129 ) ;
#269 = CARTESIAN_POINT ( 'NONE',  ( 228.8773817266499600, 7.654042494671010900E-016, -6.250000000000085300 ) ) ;
#270 = AXIS2_PLACEMENT_3D ( 'NONE', #81, #274, #19 ) ;
#271 = EDGE_LOOP ( 'NONE', ( #322, #99, #185 ) ) ;
#272 = EDGE_CURVE ( 'NONE', #303, #43, #320, .T. ) ;
#273 = ORIENTED_EDGE ( 'NONE', *, *, #92, .F. ) ;
#274 = DIRECTION ( 'NONE',  ( 0.0000000000000000000, 1.000000000000000000, 0.0000000000000000000 ) ) ;
#275 = AXIS2_PLACEMENT_3D ( 'NONE', #284, #262, #151 ) ;
#276 = CARTESIAN_POINT ( 'NONE',  ( 228.8773817266499600, 0.0000000000000000000, -4.219400112910733000E-014 ) ) ;
#277 = CARTESIAN_POINT ( 'NONE',  ( 228.8773817266499600, 7.654042494670988200E-016, -6.250000000000024900 ) ) ;
#278 = VECTOR ( 'NONE', #93, 1000.000000000000000 ) ;
#279 = VERTEX_POINT ( 'NONE', #184 ) ;
#280 = ADVANCED_FACE ( 'NONE', ( #182 ), #33, .T. ) ;
#281 = CARTESIAN_POINT ( 'NONE',  ( 200.3054795421304800, 0.0000000000000000000, 0.0000000000000000000 ) ) ;
#282 = CARTESIAN_POINT ( 'NONE',  ( 223.9431613235573500, 7.654042494671007900E-016, -6.250000000000045300 ) ) ;
#283 =( NAMED_UNIT ( * ) SI_UNIT ( $, .STERADIAN. ) SOLID_ANGLE_UNIT ( ) );
#284 = CARTESIAN_POINT ( 'NONE',  ( 245.7254795421305000, 0.0000000000000000000, -3.894254421675295700E-027 ) ) ;
#285 = DIRECTION ( 'NONE',  ( 0.0000000000000000000, 0.0000000000000000000, 1.000000000000000000 ) ) ;
#286 = SPHERICAL_SURFACE ( 'NONE', #261, 17.97000000000002700 ) ;
#287 = ADVANCED_BREP_SHAPE_REPRESENTATION ( '145188', ( #249, #97, #63 ), #144 ) ;
#288 = AXIS2_PLACEMENT_3D ( 'NONE', #106, #79, #242 ) ;
#289 = EDGE_CURVE ( 'NONE', #264, #43, #111, .T. ) ;
#290 = FACE_OUTER_BOUND ( 'NONE', #247, .T. ) ;
#291 = ORIENTED_EDGE ( 'NONE', *, *, #123, .F. ) ;
#292 = DIRECTION ( 'NONE',  ( 0.0000000000000000000, 0.0000000000000000000, 1.000000000000000000 ) ) ;
#293 = AXIS2_PLACEMENT_3D ( 'NONE', #245, #53, #221 ) ;
#294 = SURFACE_SIDE_STYLE ('',( #107 ) ) ;
#295 = CARTESIAN_POINT ( 'NONE',  ( 200.3054795421304800, 0.0000000000000000000, 0.0000000000000000000 ) ) ;
#296 = SPHERICAL_SURFACE ( 'NONE', #134, 66.60000000000000900 ) ;
#297 = ORIENTED_EDGE ( 'NONE', *, *, #82, .T. ) ;
#298 = FILL_AREA_STYLE_COLOUR ( '', #163 ) ;
#299 = FILL_AREA_STYLE ('',( #298 ) ) ;
#300 = ADVANCED_FACE ( 'NONE', ( #122 ), #194, .F. ) ;
#301 = AXIS2_PLACEMENT_3D ( 'NONE', #108, #109, #190 ) ;
#302 = EDGE_CURVE ( 'NONE', #264, #71, #309, .T. ) ;
#303 = VERTEX_POINT ( 'NONE', #88 ) ;
#304 = CARTESIAN_POINT ( 'NONE',  ( 296.6954795421305000, 0.0000000000000000000, 0.0000000000000000000 ) ) ;
#305 = SURFACE_STYLE_USAGE ( .BOTH. , #154 ) ;
#306 = ORIENTED_EDGE ( 'NONE', *, *, #317, .T. ) ;
#307 = PRODUCT_CONTEXT ( 'NONE', #37, 'mechanical' ) ;
#308 = CYLINDRICAL_SURFACE ( 'NONE', #40, 6.250000000000005300 ) ;
#309 = CIRCLE ( 'NONE', #25, 24.44999999999998900 ) ;
#310 = ORIENTED_EDGE ( 'NONE', *, *, #272, .F. ) ;
#311 = DIRECTION ( 'NONE',  ( -1.000000000000000000, -0.0000000000000000000, 1.836970198721030200E-016 ) ) ;
#312 = FILL_AREA_STYLE_COLOUR ( '', #115 ) ;
#313 = SPHERICAL_SURFACE ( 'NONE', #6, 17.97000000000002700 ) ;
#314 = ORIENTED_EDGE ( 'NONE', *, *, #30, .F. ) ;
#315 = CARTESIAN_POINT ( 'NONE',  ( 228.8773817266499600, 0.0000000000000000000, 6.250000000000024900 ) ) ;
#316 = STYLED_ITEM ( 'NONE', ( #243 ), #249 ) ;
#317 = EDGE_CURVE ( 'NONE', #71, #43, #246, .T. ) ;
#318 = ORIENTED_EDGE ( 'NONE', *, *, #30, .T. ) ;
#319 =( NAMED_UNIT ( * ) SI_UNIT ( $, .STERADIAN. ) SOLID_ANGLE_UNIT ( ) );
#320 = LINE ( 'NONE', #103, #259 ) ;
#321 = VERTEX_POINT ( 'NONE', #62 ) ;
#322 = ORIENTED_EDGE ( 'NONE', *, *, #54, .F. ) ;
#323 = SPHERICAL_SURFACE ( 'NONE', #301, 66.60000000000000900 ) ;
#324 = ORIENTED_EDGE ( 'NONE', *, *, #143, .F. ) ;
#325 = DIRECTION ( 'NONE',  ( 0.0000000000000000000, 0.0000000000000000000, 1.000000000000000000 ) ) ;
#326 = ORIENTED_EDGE ( 'NONE', *, *, #21, .F. ) ;
#327 = CIRCLE ( 'NONE', #20, 6.250000000000041700 ) ;
#328 = ADVANCED_FACE ( 'NONE', ( #101 ), #28, .T. ) ;
#329 = DIRECTION ( 'NONE',  ( 0.0000000000000000000, 1.224646799147353200E-016, -1.000000000000000000 ) ) ;
#330 = DIRECTION ( 'NONE',  ( 0.0000000000000000000, -1.000000000000000000, -1.224646799147353200E-016 ) ) ;
#331 = CARTESIAN_POINT ( 'NONE',  ( 227.7554795421305000, 0.0000000000000000000, 2.200690298063903200E-015 ) ) ;
#332 = APPLICATION_PROTOCOL_DEFINITION ( 'draft international standard', 'automotive_design', 1998, #155 ) ;
#333 = PRESENTATION_STYLE_ASSIGNMENT (( #195 ) ) ;
#334 = ORIENTED_EDGE ( 'NONE', *, *, #82, .F. ) ;
#335 = ORIENTED_EDGE ( 'NONE', *, *, #143, .T. ) ;
#336 = AXIS2_PLACEMENT_3D ( 'NONE', #295, #139, #48 ) ;
#337 = VERTEX_POINT ( 'NONE', #331 ) ;
#338 = EDGE_CURVE ( 'NONE', #191, #303, #24, .T. ) ;
#339 = MECHANICAL_DESIGN_GEOMETRIC_PRESENTATION_REPRESENTATION (  '', ( #316 ), #12 ) ;
#340 = DIRECTION ( 'NONE',  ( -1.000000000000000000, -0.0000000000000000000, -0.0000000000000000000 ) ) ;
#341 = UNCERTAINTY_MEASURE_WITH_UNIT (LENGTH_MEASURE( 1.000000000000000100E-005 ), #346, 'distance_accuracy_value', 'NONE');
#342 = DIRECTION ( 'NONE',  ( 0.0000000000000000000, 1.000000000000000000, 0.0000000000000000000 ) ) ;
#343 = FACE_OUTER_BOUND ( 'NONE', #213, .T. ) ;
#344 = CARTESIAN_POINT ( 'NONE',  ( 230.3893900781905900, 0.0000000000000000000, 6.249999999999998200 ) ) ;
#345 = EDGE_LOOP ( 'NONE', ( #222, #41, #26 ) ) ;
#346 =( LENGTH_UNIT ( ) NAMED_UNIT ( * ) SI_UNIT ( .MILLI., .METRE. ) );
#347 = VECTOR ( 'NONE', #177, 1000.000000000000000 ) ;
ENDSEC;
END-ISO-10303-21;
