ISO-10303-21;
HEADER;
FILE_DESCRIPTION (( 'STEP AP214' ),
    '1' );
FILE_NAME ('145190.STEP',
    '2019-06-13T05:23:10',
    ( 'user' ),
    ( 'Î¢ÈíÖÐ¹ú' ),
    'SwSTEP 2.0',
    'SolidWorks 2016',
    '' );
FILE_SCHEMA (( 'AUTOMOTIVE_DESIGN' ));
ENDSEC;

DATA;
#1 = DIRECTION ( 'NONE',  ( -1.000000000000000000, -0.0000000000000000000, -0.0000000000000000000 ) ) ;
#2 = ORIENTED_EDGE ( 'NONE', *, *, #22, .T. ) ;
#3 = LINE ( 'NONE', #87, #228 ) ;
#4 = AXIS2_PLACEMENT_3D ( 'NONE', #284, #24, #251 ) ;
#5 = EDGE_LOOP ( 'NONE', ( #205, #41, #88, #183 ) ) ;
#6 = UNCERTAINTY_MEASURE_WITH_UNIT (LENGTH_MEASURE( 1.000000000000000100E-005 ), #275, 'distance_accuracy_value', 'NONE');
#7 = EDGE_CURVE ( 'NONE', #82, #220, #38, .T. ) ;
#8 =( NAMED_UNIT ( * ) SI_UNIT ( $, .STERADIAN. ) SOLID_ANGLE_UNIT ( ) );
#9 = ORIENTED_EDGE ( 'NONE', *, *, #246, .T. ) ;
#10 = DIRECTION ( 'NONE',  ( -1.000000000000000000, -0.0000000000000000000, -0.0000000000000000000 ) ) ;
#11 = DIRECTION ( 'NONE',  ( 2.249639673992786400E-032, 1.000000000000000000, 1.224646799147353200E-016 ) ) ;
#12 = CARTESIAN_POINT ( 'NONE',  ( 247.3115191178989100, 0.0000000000000000000, -9.169892124430020100E-022 ) ) ;
#13 = CARTESIAN_POINT ( 'NONE',  ( 247.3115191178989100, 0.0000000000000000000, -9.169892124430020100E-022 ) ) ;
#14 =( NAMED_UNIT ( * ) PLANE_ANGLE_UNIT ( ) SI_UNIT ( $, .RADIAN. ) );
#15 = DIRECTION ( 'NONE',  ( 0.0000000000000000000, -1.224646799147353000E-016, 1.000000000000000000 ) ) ;
#16 = ADVANCED_FACE ( 'NONE', ( #319 ), #97, .F. ) ;
#17 = ORIENTED_EDGE ( 'NONE', *, *, #291, .F. ) ;
#18 = CARTESIAN_POINT ( 'NONE',  ( 232.0823530212274200, 0.0000000000000000000, 6.349999999999999600 ) ) ;
#19 = EDGE_CURVE ( 'NONE', #77, #26, #243, .T. ) ;
#20 = DIRECTION ( 'NONE',  ( -0.0000000000000000000, -1.000000000000000000, -0.0000000000000000000 ) ) ;
#21 = EDGE_LOOP ( 'NONE', ( #347, #240, #2, #52 ) ) ;
#22 = EDGE_CURVE ( 'NONE', #67, #82, #169, .T. ) ;
#23 = CARTESIAN_POINT ( 'NONE',  ( 247.3115191178989100, 0.0000000000000000000, -9.169892124430020100E-022 ) ) ;
#24 = DIRECTION ( 'NONE',  ( -1.000000000000000000, -0.0000000000000000000, -0.0000000000000000000 ) ) ;
#25 = ORIENTED_EDGE ( 'NONE', *, *, #296, .T. ) ;
#26 = VERTEX_POINT ( 'NONE', #61 ) ;
#27 = ORIENTED_EDGE ( 'NONE', *, *, #263, .F. ) ;
#28 = DIRECTION ( 'NONE',  ( 0.0000000000000000000, 0.0000000000000000000, 1.000000000000000000 ) ) ;
#29 = FACE_OUTER_BOUND ( 'NONE', #94, .T. ) ;
#30 = AXIS2_PLACEMENT_3D ( 'NONE', #190, #35, #192 ) ;
#31 = AXIS2_PLACEMENT_3D ( 'NONE', #115, #218, #277 ) ;
#32 = CARTESIAN_POINT ( 'NONE',  ( 247.3115191178989100, 0.0000000000000000000, -9.169892124430020100E-022 ) ) ;
#33 = ORIENTED_EDGE ( 'NONE', *, *, #22, .F. ) ;
#34 = ORIENTED_EDGE ( 'NONE', *, *, #268, .T. ) ;
#35 = DIRECTION ( 'NONE',  ( -0.0000000000000000000, -1.000000000000000000, -0.0000000000000000000 ) ) ;
#36 =( NAMED_UNIT ( * ) SI_UNIT ( $, .STERADIAN. ) SOLID_ANGLE_UNIT ( ) );
#37 = EDGE_CURVE ( 'NONE', #301, #77, #276, .T. ) ;
#38 = CIRCLE ( 'NONE', #241, 6.349999999999993400 ) ;
#39 = CARTESIAN_POINT ( 'NONE',  ( 232.0823530212274200, 0.0000000000000000000, -4.278274480469683300E-014 ) ) ;
#40 = PRESENTATION_STYLE_ASSIGNMENT (( #147 ) ) ;
#41 = ORIENTED_EDGE ( 'NONE', *, *, #302, .T. ) ;
#42 = FACE_OUTER_BOUND ( 'NONE', #201, .T. ) ;
#43 = UNCERTAINTY_MEASURE_WITH_UNIT (LENGTH_MEASURE( 1.000000000000000100E-005 ), #171, 'distance_accuracy_value', 'NONE');
#44 = CIRCLE ( 'NONE', #182, 16.50000000000025200 ) ;
#45 = CIRCLE ( 'NONE', #89, 16.89999999999999900 ) ;
#46 = EDGE_CURVE ( 'NONE', #176, #116, #180, .T. ) ;
#47 = SPHERICAL_SURFACE ( 'NONE', #110, 16.89999999999999900 ) ;
#48 = EDGE_LOOP ( 'NONE', ( #100, #323, #78 ) ) ;
#49 = DIRECTION ( 'NONE',  ( 0.0000000000000000000, 1.000000000000000000, 0.0000000000000000000 ) ) ;
#50 = AXIS2_PLACEMENT_3D ( 'NONE', #140, #300, #131 ) ;
#51 = CYLINDRICAL_SURFACE ( 'NONE', #346, 6.350000000000041400 ) ;
#52 = ORIENTED_EDGE ( 'NONE', *, *, #80, .F. ) ;
#53 = DIRECTION ( 'NONE',  ( -1.000000000000000000, -0.0000000000000000000, 1.836970198721029700E-016 ) ) ;
#54 =( GEOMETRIC_REPRESENTATION_CONTEXT ( 3 ) GLOBAL_UNCERTAINTY_ASSIGNED_CONTEXT ( ( #206 ) ) GLOBAL_UNIT_ASSIGNED_CONTEXT ( ( #314, #286, #36 ) ) REPRESENTATION_CONTEXT ( 'NONE', 'WORKASPACE' ) );
#55 = DIRECTION ( 'NONE',  ( -1.000000000000000000, -0.0000000000000000000, -0.0000000000000000000 ) ) ;
#56 = DIRECTION ( 'NONE',  ( -1.000000000000000000, -0.0000000000000000000, -0.0000000000000000000 ) ) ;
#57 = ADVANCED_FACE ( 'NONE', ( #29 ), #162, .T. ) ;
#58 = CARTESIAN_POINT ( 'NONE',  ( 233.3115191178986500, 0.0000000000000000000, -5.982399613834820500E-015 ) ) ;
#59 = DIRECTION ( 'NONE',  ( 0.0000000000000000000, 1.000000000000000000, 0.0000000000000000000 ) ) ;
#60 = DIRECTION ( 'NONE',  ( 0.0000000000000000000, 0.0000000000000000000, -1.000000000000000000 ) ) ;
#61 = CARTESIAN_POINT ( 'NONE',  ( 228.0731761183570800, 0.0000000000000000000, 6.349999999999997900 ) ) ;
#62 = ORIENTED_EDGE ( 'NONE', *, *, #7, .T. ) ;
#63 = FACE_OUTER_BOUND ( 'NONE', #72, .T. ) ;
#64 = MECHANICAL_DESIGN_GEOMETRIC_PRESENTATION_REPRESENTATION (  '', ( #175 ), #54 ) ;
#65 = DIRECTION ( 'NONE',  ( -1.000000000000000000, -0.0000000000000000000, 1.836970198721029700E-016 ) ) ;
#66 = DIRECTION ( 'NONE',  ( 0.0000000000000000000, -1.224646799147353200E-016, 1.000000000000000000 ) ) ;
#67 = VERTEX_POINT ( 'NONE', #272 ) ;
#68 = DIRECTION ( 'NONE',  ( 0.0000000000000000000, 0.0000000000000000000, 1.000000000000000000 ) ) ;
#69 = AXIS2_PLACEMENT_3D ( 'NONE', #194, #1, #207 ) ;
#70 = CARTESIAN_POINT ( 'NONE',  ( 247.3115191178989100, 0.0000000000000000000, -9.169892124430020100E-022 ) ) ;
#71 = ORIENTED_EDGE ( 'NONE', *, *, #37, .F. ) ;
#72 = EDGE_LOOP ( 'NONE', ( #71, #160, #34 ) ) ;
#73 = CIRCLE ( 'NONE', #96, 6.350000000000041400 ) ;
#74 = EDGE_CURVE ( 'NONE', #265, #26, #260, .T. ) ;
#75 = ORIENTED_EDGE ( 'NONE', *, *, #291, .T. ) ;
#76 = DIRECTION ( 'NONE',  ( -1.000000000000000000, -0.0000000000000000000, -0.0000000000000000000 ) ) ;
#77 = VERTEX_POINT ( 'NONE', #83 ) ;
#78 = ORIENTED_EDGE ( 'NONE', *, *, #19, .T. ) ;
#79 = CIRCLE ( 'NONE', #98, 6.350000000000042300 ) ;
#80 = EDGE_CURVE ( 'NONE', #220, #82, #310, .T. ) ;
#81 = PRODUCT_CONTEXT ( 'NONE', #167, 'mechanical' ) ;
#82 = VERTEX_POINT ( 'NONE', #341 ) ;
#83 = CARTESIAN_POINT ( 'NONE',  ( 228.0731761183570800, 7.776507174585740500E-016, -6.350000000000042300 ) ) ;
#84 = AXIS2_PLACEMENT_3D ( 'NONE', #103, #76, #28 ) ;
#85 = CLOSED_SHELL ( 'NONE', ( #170, #312, #133, #309, #168, #282 ) ) ;
#86 = DIRECTION ( 'NONE',  ( 1.000000000000000000, 0.0000000000000000000, 0.0000000000000000000 ) ) ;
#87 = CARTESIAN_POINT ( 'NONE',  ( -0.8160621761658051200, 7.776507174585743400E-016, -6.350000000000041400 ) ) ;
#88 = ORIENTED_EDGE ( 'NONE', *, *, #74, .T. ) ;
#89 = AXIS2_PLACEMENT_3D ( 'NONE', #114, #146, #193 ) ;
#90 = DIRECTION ( 'NONE',  ( 0.0000000000000000000, 1.224646799147353000E-016, -1.000000000000000000 ) ) ;
#91 = FACE_OUTER_BOUND ( 'NONE', #5, .T. ) ;
#92 = PRESENTATION_LAYER_ASSIGNMENT (  '', '', ( #175 ) ) ;
#93 = CARTESIAN_POINT ( 'NONE',  ( 228.0731761183570800, 0.0000000000000000000, -4.204627095549948300E-014 ) ) ;
#94 = EDGE_LOOP ( 'NONE', ( #62, #233, #288 ) ) ;
#95 = LINE ( 'NONE', #338, #324 ) ;
#96 = AXIS2_PLACEMENT_3D ( 'NONE', #93, #65, #68 ) ;
#97 = SPHERICAL_SURFACE ( 'NONE', #30, 97.69999999999998900 ) ;
#98 = AXIS2_PLACEMENT_3D ( 'NONE', #345, #155, #158 ) ;
#99 = DIRECTION ( 'NONE',  ( -1.000000000000000000, -0.0000000000000000000, -0.0000000000000000000 ) ) ;
#100 = ORIENTED_EDGE ( 'NONE', *, *, #203, .F. ) ;
#101 = CARTESIAN_POINT ( 'NONE',  ( 331.0115191178986700, 0.0000000000000000000, 0.0000000000000000000 ) ) ;
#102 = CARTESIAN_POINT ( 'NONE',  ( 232.0823530212274200, 0.0000000000000000000, 0.0000000000000000000 ) ) ;
#103 = CARTESIAN_POINT ( 'NONE',  ( 233.5180962628157900, 0.0000000000000000000, 0.0000000000000000000 ) ) ;
#104 = DIRECTION ( 'NONE',  ( -0.0000000000000000000, -1.000000000000000000, -0.0000000000000000000 ) ) ;
#105 = DIRECTION ( 'NONE',  ( -1.000000000000000000, -0.0000000000000000000, 1.836970198721029700E-016 ) ) ;
#106 = CARTESIAN_POINT ( 'NONE',  ( 233.5180962628157900, 7.776507174585692200E-016, -6.349999999999998800 ) ) ;
#107 = DIRECTION ( 'NONE',  ( 0.0000000000000000000, 0.0000000000000000000, 1.000000000000000000 ) ) ;
#108 = ADVANCED_FACE ( 'NONE', ( #252 ), #187, .T. ) ;
#109 = SPHERICAL_SURFACE ( 'NONE', #139, 16.50000000000025600 ) ;
#110 = AXIS2_PLACEMENT_3D ( 'NONE', #259, #269, #138 ) ;
#111 = ORIENTED_EDGE ( 'NONE', *, *, #198, .T. ) ;
#112 = DIRECTION ( 'NONE',  ( -1.000000000000000000, -0.0000000000000000000, 1.836970198721029700E-016 ) ) ;
#113 = AXIS2_PLACEMENT_3D ( 'NONE', #225, #59, #119 ) ;
#114 = CARTESIAN_POINT ( 'NONE',  ( 212.4115191178989300, 0.0000000000000000000, -1.048218187111863300E-025 ) ) ;
#115 = CARTESIAN_POINT ( 'NONE',  ( -0.8160621761658039000, 0.0000000000000000000, 0.0000000000000000000 ) ) ;
#116 = VERTEX_POINT ( 'NONE', #294 ) ;
#117 =( GEOMETRIC_REPRESENTATION_CONTEXT ( 3 ) GLOBAL_UNCERTAINTY_ASSIGNED_CONTEXT ( ( #43 ) ) GLOBAL_UNIT_ASSIGNED_CONTEXT ( ( #171, #125, #161 ) ) REPRESENTATION_CONTEXT ( 'NONE', 'WORKASPACE' ) );
#118 = SURFACE_STYLE_FILL_AREA ( #148 ) ;
#119 = DIRECTION ( 'NONE',  ( 0.0000000000000000000, 0.0000000000000000000, 1.000000000000000000 ) ) ;
#120 = AXIS2_PLACEMENT_3D ( 'NONE', #237, #234, #211 ) ;
#121 = FILL_AREA_STYLE ('',( #213 ) ) ;
#122 = ORIENTED_EDGE ( 'NONE', *, *, #189, .F. ) ;
#123 = CARTESIAN_POINT ( 'NONE',  ( 247.3115191178989100, 0.0000000000000000000, -9.169892124430020100E-022 ) ) ;
#124 = CIRCLE ( 'NONE', #84, 6.349999999999999600 ) ;
#125 =( NAMED_UNIT ( * ) PLANE_ANGLE_UNIT ( ) SI_UNIT ( $, .RADIAN. ) );
#126 = ADVANCED_BREP_SHAPE_REPRESENTATION ( '145190', ( #191, #236, #264 ), #157 ) ;
#127 = VERTEX_POINT ( 'NONE', #106 ) ;
#128 = SPHERICAL_SURFACE ( 'NONE', #120, 16.89999999999999900 ) ;
#129 = AXIS2_PLACEMENT_3D ( 'NONE', #123, #49, #219 ) ;
#130 = STYLED_ITEM ( 'NONE', ( #186 ), #126 ) ;
#131 = DIRECTION ( 'NONE',  ( 0.0000000000000000000, 0.0000000000000000000, -1.000000000000000000 ) ) ;
#132 = DIRECTION ( 'NONE',  ( -1.000000000000000000, -0.0000000000000000000, 1.836970198721029700E-016 ) ) ;
#133 = ADVANCED_FACE ( 'NONE', ( #340 ), #47, .F. ) ;
#134 = EDGE_LOOP ( 'NONE', ( #215, #27, #25 ) ) ;
#135 = DIRECTION ( 'NONE',  ( 0.0000000000000000000, 1.224646799147353500E-016, -1.000000000000000000 ) ) ;
#136 = CYLINDRICAL_SURFACE ( 'NONE', #31, 6.350000000000041400 ) ;
#137 = CARTESIAN_POINT ( 'NONE',  ( 212.4115191178989300, 0.0000000000000000000, -1.048218187111863300E-025 ) ) ;
#138 = DIRECTION ( 'NONE',  ( 0.0000000000000000000, 0.0000000000000000000, 1.000000000000000000 ) ) ;
#139 = AXIS2_PLACEMENT_3D ( 'NONE', #12, #20, #315 ) ;
#140 = CARTESIAN_POINT ( 'NONE',  ( 331.0115191178986700, 0.0000000000000000000, 0.0000000000000000000 ) ) ;
#141 = CARTESIAN_POINT ( 'NONE',  ( 232.0823530212274200, 7.776507174585745400E-016, -6.350000000000084900 ) ) ;
#142 = ADVANCED_FACE ( 'NONE', ( #159 ), #266, .F. ) ;
#143 = FACE_OUTER_BOUND ( 'NONE', #145, .T. ) ;
#144 = AXIS2_PLACEMENT_3D ( 'NONE', #227, #104, #60 ) ;
#145 = EDGE_LOOP ( 'NONE', ( #17, #111, #279 ) ) ;
#146 = DIRECTION ( 'NONE',  ( 0.0000000000000000000, -1.000000000000000000, 0.0000000000000000000 ) ) ;
#147 = SURFACE_STYLE_USAGE ( .BOTH. , #326 ) ;
#148 = FILL_AREA_STYLE ('',( #290 ) ) ;
#149 = ORIENTED_EDGE ( 'NONE', *, *, #46, .T. ) ;
#150 = SURFACE_STYLE_USAGE ( .BOTH. , #239 ) ;
#151 = UNCERTAINTY_MEASURE_WITH_UNIT (LENGTH_MEASURE( 1.000000000000000100E-005 ), #178, 'distance_accuracy_value', 'NONE');
#152 = SPHERICAL_SURFACE ( 'NONE', #144, 16.50000000000025600 ) ;
#153 = EDGE_LOOP ( 'NONE', ( #9, #330, #210, #33 ) ) ;
#154 = FACE_OUTER_BOUND ( 'NONE', #293, .T. ) ;
#155 = DIRECTION ( 'NONE',  ( -1.000000000000000000, -0.0000000000000000000, 1.836970198721029700E-016 ) ) ;
#156 = AXIS2_PLACEMENT_3D ( 'NONE', #337, #332, #135 ) ;
#157 =( GEOMETRIC_REPRESENTATION_CONTEXT ( 3 ) GLOBAL_UNCERTAINTY_ASSIGNED_CONTEXT ( ( #6 ) ) GLOBAL_UNIT_ASSIGNED_CONTEXT ( ( #275, #14, #8 ) ) REPRESENTATION_CONTEXT ( 'NONE', 'WORKASPACE' ) );
#158 = DIRECTION ( 'NONE',  ( 0.0000000000000000000, 0.0000000000000000000, 1.000000000000000000 ) ) ;
#159 = FACE_OUTER_BOUND ( 'NONE', #267, .T. ) ;
#160 = ORIENTED_EDGE ( 'NONE', *, *, #203, .T. ) ;
#161 =( NAMED_UNIT ( * ) SI_UNIT ( $, .STERADIAN. ) SOLID_ANGLE_UNIT ( ) );
#162 = SPHERICAL_SURFACE ( 'NONE', #129, 16.50000000000025200 ) ;
#163 = CIRCLE ( 'NONE', #156, 97.69999999999998900 ) ;
#164 = ORIENTED_EDGE ( 'NONE', *, *, #74, .F. ) ;
#165 = CARTESIAN_POINT ( 'NONE',  ( 228.0731761183570800, 0.0000000000000000000, 6.349999999999996100 ) ) ;
#166 = CARTESIAN_POINT ( 'NONE',  ( 232.0823530212274200, 0.0000000000000000000, 0.0000000000000000000 ) ) ;
#167 = APPLICATION_CONTEXT ( 'automotive_design' ) ;
#168 = ADVANCED_FACE ( 'NONE', ( #91 ), #51, .T. ) ;
#169 = LINE ( 'NONE', #165, #238 ) ;
#170 = ADVANCED_FACE ( 'NONE', ( #143 ), #109, .F. ) ;
#171 =( LENGTH_UNIT ( ) NAMED_UNIT ( * ) SI_UNIT ( .MILLI., .METRE. ) );
#172 =( NAMED_UNIT ( * ) PLANE_ANGLE_UNIT ( ) SI_UNIT ( $, .RADIAN. ) );
#173 = DIRECTION ( 'NONE',  ( 0.0000000000000000000, 0.0000000000000000000, 1.000000000000000000 ) ) ;
#174 = FILL_AREA_STYLE_COLOUR ( '', #287 ) ;
#175 = STYLED_ITEM ( 'NONE', ( #327 ), #191 ) ;
#176 = VERTEX_POINT ( 'NONE', #141 ) ;
#177 = CIRCLE ( 'NONE', #232, 97.69999999999998900 ) ;
#178 =( LENGTH_UNIT ( ) NAMED_UNIT ( * ) SI_UNIT ( .MILLI., .METRE. ) );
#179 = EDGE_CURVE ( 'NONE', #67, #217, #163, .T. ) ;
#180 = CIRCLE ( 'NONE', #343, 16.50000000000025600 ) ;
#181 = SURFACE_STYLE_FILL_AREA ( #121 ) ;
#182 = AXIS2_PLACEMENT_3D ( 'NONE', #23, #308, #250 ) ;
#183 = ORIENTED_EDGE ( 'NONE', *, *, #19, .F. ) ;
#184 = EDGE_CURVE ( 'NONE', #82, #247, #44, .T. ) ;
#185 = SURFACE_STYLE_FILL_AREA ( #197 ) ;
#186 = PRESENTATION_STYLE_ASSIGNMENT (( #150 ) ) ;
#187 = CYLINDRICAL_SURFACE ( 'NONE', #69, 6.349999999999996100 ) ;
#188 = ORIENTED_EDGE ( 'NONE', *, *, #302, .F. ) ;
#189 = EDGE_CURVE ( 'NONE', #220, #247, #316, .T. ) ;
#190 = CARTESIAN_POINT ( 'NONE',  ( 331.0115191178986700, 0.0000000000000000000, 0.0000000000000000000 ) ) ;
#191 = MANIFOLD_SOLID_BREP ( 'Ðý×ª1', #85 ) ;
#192 = DIRECTION ( 'NONE',  ( 0.0000000000000000000, 0.0000000000000000000, -1.000000000000000000 ) ) ;
#193 = DIRECTION ( 'NONE',  ( 0.0000000000000000000, 0.0000000000000000000, -1.000000000000000000 ) ) ;
#194 = CARTESIAN_POINT ( 'NONE',  ( 228.0731761183570800, 0.0000000000000000000, 0.0000000000000000000 ) ) ;
#195 = DIRECTION ( 'NONE',  ( 0.0000000000000000000, 0.0000000000000000000, 1.000000000000000000 ) ) ;
#196 = MECHANICAL_DESIGN_GEOMETRIC_PRESENTATION_REPRESENTATION (  '', ( #231 ), #117 ) ;
#197 = FILL_AREA_STYLE ('',( #174 ) ) ;
#198 = EDGE_CURVE ( 'NONE', #265, #116, #244, .T. ) ;
#199 = DIRECTION ( 'NONE',  ( -0.0000000000000000000, 1.000000000000000000, 1.224646799147353200E-016 ) ) ;
#200 = PRESENTATION_LAYER_ASSIGNMENT (  '', '', ( #130 ) ) ;
#201 = EDGE_LOOP ( 'NONE', ( #122, #270, #317 ) ) ;
#202 = CARTESIAN_POINT ( 'NONE',  ( 228.0731761183570800, 0.0000000000000000000, 0.0000000000000000000 ) ) ;
#203 = EDGE_CURVE ( 'NONE', #301, #26, #45, .T. ) ;
#204 = DIRECTION ( 'NONE',  ( 0.0000000000000000000, 0.0000000000000000000, 1.000000000000000000 ) ) ;
#205 = ORIENTED_EDGE ( 'NONE', *, *, #214, .F. ) ;
#206 = UNCERTAINTY_MEASURE_WITH_UNIT (LENGTH_MEASURE( 1.000000000000000100E-005 ), #314, 'distance_accuracy_value', 'NONE');
#207 = DIRECTION ( 'NONE',  ( 0.0000000000000000000, 0.0000000000000000000, 1.000000000000000000 ) ) ;
#208 = APPLICATION_PROTOCOL_DEFINITION ( 'draft international standard', 'automotive_design', 1998, #224 ) ;
#209 = PRODUCT_DEFINITION_SHAPE ( 'NONE', 'NONE',  #242 ) ;
#210 = ORIENTED_EDGE ( 'NONE', *, *, #7, .F. ) ;
#211 = DIRECTION ( 'NONE',  ( 0.0000000000000000000, 0.0000000000000000000, 1.000000000000000000 ) ) ;
#212 = SHAPE_DEFINITION_REPRESENTATION ( #209, #126 ) ;
#213 = FILL_AREA_STYLE_COLOUR ( '', #254 ) ;
#214 = EDGE_CURVE ( 'NONE', #176, #77, #3, .T. ) ;
#215 = ORIENTED_EDGE ( 'NONE', *, *, #179, .F. ) ;
#216 = FACE_OUTER_BOUND ( 'NONE', #305, .T. ) ;
#217 = VERTEX_POINT ( 'NONE', #58 ) ;
#218 = DIRECTION ( 'NONE',  ( -1.000000000000000000, -0.0000000000000000000, 1.836970198721029700E-016 ) ) ;
#219 = DIRECTION ( 'NONE',  ( 0.0000000000000000000, 0.0000000000000000000, 1.000000000000000000 ) ) ;
#220 = VERTEX_POINT ( 'NONE', #256 ) ;
#221 = AXIS2_PLACEMENT_3D ( 'NONE', #249, #105, #195 ) ;
#222 =( GEOMETRIC_REPRESENTATION_CONTEXT ( 3 ) GLOBAL_UNCERTAINTY_ASSIGNED_CONTEXT ( ( #151 ) ) GLOBAL_UNIT_ASSIGNED_CONTEXT ( ( #178, #172, #235 ) ) REPRESENTATION_CONTEXT ( 'NONE', 'WORKASPACE' ) );
#223 = DIRECTION ( 'NONE',  ( 0.0000000000000000000, 0.0000000000000000000, 1.000000000000000000 ) ) ;
#224 = APPLICATION_CONTEXT ( 'automotive_design' ) ;
#225 = CARTESIAN_POINT ( 'NONE',  ( 247.3115191178989100, 0.0000000000000000000, -9.169892124430020100E-022 ) ) ;
#226 = CARTESIAN_POINT ( 'NONE',  ( 230.8115191178986500, 0.0000000000000000000, 1.010332692307369300E-015 ) ) ;
#227 = CARTESIAN_POINT ( 'NONE',  ( 247.3115191178989100, 0.0000000000000000000, -9.169892124430020100E-022 ) ) ;
#228 = VECTOR ( 'NONE', #53, 1000.000000000000000 ) ;
#229 = ORIENTED_EDGE ( 'NONE', *, *, #198, .F. ) ;
#230 = CYLINDRICAL_SURFACE ( 'NONE', #333, 6.349999999999996100 ) ;
#231 = STYLED_ITEM ( 'NONE', ( #40 ), #236 ) ;
#232 = AXIS2_PLACEMENT_3D ( 'NONE', #101, #281, #339 ) ;
#233 = ORIENTED_EDGE ( 'NONE', *, *, #189, .T. ) ;
#234 = DIRECTION ( 'NONE',  ( -0.0000000000000000000, 1.000000000000000000, 0.0000000000000000000 ) ) ;
#235 =( NAMED_UNIT ( * ) SI_UNIT ( $, .STERADIAN. ) SOLID_ANGLE_UNIT ( ) );
#236 = MANIFOLD_SOLID_BREP ( 'Ðý×ª3', #344 ) ;
#237 = CARTESIAN_POINT ( 'NONE',  ( 212.4115191178989300, 0.0000000000000000000, -1.048218187111863300E-025 ) ) ;
#238 = VECTOR ( 'NONE', #10, 1000.000000000000000 ) ;
#239 = SURFACE_SIDE_STYLE ('',( #118 ) ) ;
#240 = ORIENTED_EDGE ( 'NONE', *, *, #263, .T. ) ;
#241 = AXIS2_PLACEMENT_3D ( 'NONE', #102, #56, #331 ) ;
#242 = PRODUCT_DEFINITION ( 'Î´Öª', '', #292, #289 ) ;
#243 = CIRCLE ( 'NONE', #221, 6.350000000000041400 ) ;
#244 = CIRCLE ( 'NONE', #328, 16.50000000000025600 ) ;
#245 = SURFACE_SIDE_STYLE ('',( #185 ) ) ;
#246 = EDGE_CURVE ( 'NONE', #67, #127, #262, .T. ) ;
#247 = VERTEX_POINT ( 'NONE', #226 ) ;
#248 = CARTESIAN_POINT ( 'NONE',  ( 229.3115191178989400, 0.0000000000000000000, -2.069653090663848400E-015 ) ) ;
#249 = CARTESIAN_POINT ( 'NONE',  ( 228.0731761183570800, 0.0000000000000000000, -4.204627095549948300E-014 ) ) ;
#250 = DIRECTION ( 'NONE',  ( 0.0000000000000000000, 0.0000000000000000000, -1.000000000000000000 ) ) ;
#251 = DIRECTION ( 'NONE',  ( 0.0000000000000000000, 0.0000000000000000000, 1.000000000000000000 ) ) ;
#252 = FACE_OUTER_BOUND ( 'NONE', #153, .T. ) ;
#253 = DIRECTION ( 'NONE',  ( -1.000000000000000000, -0.0000000000000000000, -0.0000000000000000000 ) ) ;
#254 = COLOUR_RGB ( '',1.000000000000000000, 1.000000000000000000, 1.000000000000000000 ) ;
#255 = DIRECTION ( 'NONE',  ( 1.878145495644168800E-016, 0.0000000000000000000, 1.000000000000000000 ) ) ;
#256 = CARTESIAN_POINT ( 'NONE',  ( 232.0823530212274200, 7.776507174585681300E-016, -6.349999999999989900 ) ) ;
#257 = ADVANCED_FACE ( 'NONE', ( #304 ), #230, .T. ) ;
#258 = AXIS2_PLACEMENT_3D ( 'NONE', #166, #55, #204 ) ;
#259 = CARTESIAN_POINT ( 'NONE',  ( 212.4115191178989300, 0.0000000000000000000, -1.048218187111863300E-025 ) ) ;
#260 = LINE ( 'NONE', #280, #329 ) ;
#261 = ORIENTED_EDGE ( 'NONE', *, *, #179, .T. ) ;
#262 = CIRCLE ( 'NONE', #4, 6.349999999999999600 ) ;
#263 = EDGE_CURVE ( 'NONE', #127, #67, #124, .T. ) ;
#264 = AXIS2_PLACEMENT_3D ( 'NONE', #318, #173, #86 ) ;
#265 = VERTEX_POINT ( 'NONE', #18 ) ;
#266 = SPHERICAL_SURFACE ( 'NONE', #50, 97.69999999999998900 ) ;
#267 = EDGE_LOOP ( 'NONE', ( #322, #261, #342 ) ) ;
#268 = EDGE_CURVE ( 'NONE', #26, #77, #73, .T. ) ;
#269 = DIRECTION ( 'NONE',  ( -0.0000000000000000000, 1.000000000000000000, 0.0000000000000000000 ) ) ;
#270 = ORIENTED_EDGE ( 'NONE', *, *, #80, .T. ) ;
#271 = ORIENTED_EDGE ( 'NONE', *, *, #214, .T. ) ;
#272 = CARTESIAN_POINT ( 'NONE',  ( 233.5180962628157900, 0.0000000000000000000, 6.349999999999999600 ) ) ;
#273 = DIRECTION ( 'NONE',  ( -0.0000000000000000000, 1.000000000000000000, 0.0000000000000000000 ) ) ;
#274 = DIRECTION ( 'NONE',  ( 0.0000000000000000000, 0.0000000000000000000, 1.000000000000000000 ) ) ;
#275 =( LENGTH_UNIT ( ) NAMED_UNIT ( * ) SI_UNIT ( .MILLI., .METRE. ) );
#276 = CIRCLE ( 'NONE', #313, 16.89999999999999900 ) ;
#277 = DIRECTION ( 'NONE',  ( 1.878145495644168800E-016, 0.0000000000000000000, 1.000000000000000000 ) ) ;
#278 = PRESENTATION_LAYER_ASSIGNMENT (  '', '', ( #231 ) ) ;
#279 = ORIENTED_EDGE ( 'NONE', *, *, #46, .F. ) ;
#280 = CARTESIAN_POINT ( 'NONE',  ( -0.8160621761658027900, 0.0000000000000000000, 6.350000000000041400 ) ) ;
#281 = DIRECTION ( 'NONE',  ( 0.0000000000000000000, 1.000000000000000000, -0.0000000000000000000 ) ) ;
#282 = ADVANCED_FACE ( 'NONE', ( #154 ), #152, .F. ) ;
#283 = SURFACE_STYLE_USAGE ( .BOTH. , #245 ) ;
#284 = CARTESIAN_POINT ( 'NONE',  ( 233.5180962628157900, 0.0000000000000000000, 0.0000000000000000000 ) ) ;
#285 = ADVANCED_FACE ( 'NONE', ( #42 ), #320, .T. ) ;
#286 =( NAMED_UNIT ( * ) PLANE_ANGLE_UNIT ( ) SI_UNIT ( $, .RADIAN. ) );
#287 = COLOUR_RGB ( '',1.000000000000000000, 1.000000000000000000, 1.000000000000000000 ) ;
#288 = ORIENTED_EDGE ( 'NONE', *, *, #184, .F. ) ;
#289 = PRODUCT_DEFINITION_CONTEXT ( 'detailed design', #224, 'design' ) ;
#290 = FILL_AREA_STYLE_COLOUR ( '', #335 ) ;
#291 = EDGE_CURVE ( 'NONE', #265, #176, #311, .T. ) ;
#292 = PRODUCT_DEFINITION_FORMATION_WITH_SPECIFIED_SOURCE ( 'ÈÎºÎ', '', #336, .NOT_KNOWN. ) ;
#293 = EDGE_LOOP ( 'NONE', ( #229, #188, #149 ) ) ;
#294 = CARTESIAN_POINT ( 'NONE',  ( 230.8115191178986500, 0.0000000000000000000, 2.020666301603950700E-015 ) ) ;
#295 = APPLICATION_PROTOCOL_DEFINITION ( 'draft international standard', 'automotive_design', 1998, #167 ) ;
#296 = EDGE_CURVE ( 'NONE', #127, #217, #177, .T. ) ;
#297 = AXIS2_PLACEMENT_3D ( 'NONE', #39, #112, #107 ) ;
#298 = DIRECTION ( 'NONE',  ( -2.249639673992786400E-032, -1.000000000000000000, -1.224646799147353200E-016 ) ) ;
#299 = DIRECTION ( 'NONE',  ( -1.000000000000000000, -0.0000000000000000000, 1.836970198721029700E-016 ) ) ;
#300 = DIRECTION ( 'NONE',  ( -0.0000000000000000000, -1.000000000000000000, -0.0000000000000000000 ) ) ;
#301 = VERTEX_POINT ( 'NONE', #248 ) ;
#302 = EDGE_CURVE ( 'NONE', #176, #265, #79, .T. ) ;
#303 = PRODUCT_RELATED_PRODUCT_CATEGORY ( 'part', '', ( #336 ) ) ;
#304 = FACE_OUTER_BOUND ( 'NONE', #21, .T. ) ;
#305 = EDGE_LOOP ( 'NONE', ( #75, #271, #307, #164 ) ) ;
#306 = EDGE_CURVE ( 'NONE', #127, #220, #95, .T. ) ;
#307 = ORIENTED_EDGE ( 'NONE', *, *, #268, .F. ) ;
#308 = DIRECTION ( 'NONE',  ( 0.0000000000000000000, -1.000000000000000000, 0.0000000000000000000 ) ) ;
#309 = ADVANCED_FACE ( 'NONE', ( #63 ), #128, .F. ) ;
#310 = CIRCLE ( 'NONE', #258, 6.349999999999993400 ) ;
#311 = CIRCLE ( 'NONE', #297, 6.350000000000042300 ) ;
#312 = ADVANCED_FACE ( 'NONE', ( #216 ), #136, .T. ) ;
#313 = AXIS2_PLACEMENT_3D ( 'NONE', #137, #11, #66 ) ;
#314 =( LENGTH_UNIT ( ) NAMED_UNIT ( * ) SI_UNIT ( .MILLI., .METRE. ) );
#315 = DIRECTION ( 'NONE',  ( 0.0000000000000000000, 0.0000000000000000000, -1.000000000000000000 ) ) ;
#316 = CIRCLE ( 'NONE', #325, 16.50000000000025200 ) ;
#317 = ORIENTED_EDGE ( 'NONE', *, *, #184, .T. ) ;
#318 = CARTESIAN_POINT ( 'NONE',  ( 0.0000000000000000000, 0.0000000000000000000, 0.0000000000000000000 ) ) ;
#319 = FACE_OUTER_BOUND ( 'NONE', #134, .T. ) ;
#320 = SPHERICAL_SURFACE ( 'NONE', #113, 16.50000000000025200 ) ;
#321 = CARTESIAN_POINT ( 'NONE',  ( -0.8160621761658039000, 0.0000000000000000000, 0.0000000000000000000 ) ) ;
#322 = ORIENTED_EDGE ( 'NONE', *, *, #246, .F. ) ;
#323 = ORIENTED_EDGE ( 'NONE', *, *, #37, .T. ) ;
#324 = VECTOR ( 'NONE', #99, 1000.000000000000000 ) ;
#325 = AXIS2_PLACEMENT_3D ( 'NONE', #32, #199, #15 ) ;
#326 = SURFACE_SIDE_STYLE ('',( #181 ) ) ;
#327 = PRESENTATION_STYLE_ASSIGNMENT (( #283 ) ) ;
#328 = AXIS2_PLACEMENT_3D ( 'NONE', #70, #298, #90 ) ;
#329 = VECTOR ( 'NONE', #299, 1000.000000000000000 ) ;
#330 = ORIENTED_EDGE ( 'NONE', *, *, #306, .T. ) ;
#331 = DIRECTION ( 'NONE',  ( 0.0000000000000000000, 0.0000000000000000000, 1.000000000000000000 ) ) ;
#332 = DIRECTION ( 'NONE',  ( 0.0000000000000000000, -1.000000000000000000, -1.224646799147353200E-016 ) ) ;
#333 = AXIS2_PLACEMENT_3D ( 'NONE', #202, #253, #274 ) ;
#334 = MECHANICAL_DESIGN_GEOMETRIC_PRESENTATION_REPRESENTATION (  '', ( #130 ), #222 ) ;
#335 = COLOUR_RGB ( '',1.000000000000000000, 1.000000000000000000, 1.000000000000000000 ) ;
#336 = PRODUCT ( '145190', '145190', '', ( #81 ) ) ;
#337 = CARTESIAN_POINT ( 'NONE',  ( 331.0115191178986700, 0.0000000000000000000, 0.0000000000000000000 ) ) ;
#338 = CARTESIAN_POINT ( 'NONE',  ( 228.0731761183570800, 7.776507174585689200E-016, -6.349999999999996100 ) ) ;
#339 = DIRECTION ( 'NONE',  ( 0.0000000000000000000, 0.0000000000000000000, 1.000000000000000000 ) ) ;
#340 = FACE_OUTER_BOUND ( 'NONE', #48, .T. ) ;
#341 = CARTESIAN_POINT ( 'NONE',  ( 232.0823530212274200, 0.0000000000000000000, 6.349999999999989900 ) ) ;
#342 = ORIENTED_EDGE ( 'NONE', *, *, #296, .F. ) ;
#343 = AXIS2_PLACEMENT_3D ( 'NONE', #13, #273, #223 ) ;
#344 = CLOSED_SHELL ( 'NONE', ( #142, #108, #57, #285, #257, #16 ) ) ;
#345 = CARTESIAN_POINT ( 'NONE',  ( 232.0823530212274200, 0.0000000000000000000, -4.278274480469683300E-014 ) ) ;
#346 = AXIS2_PLACEMENT_3D ( 'NONE', #321, #132, #255 ) ;
#347 = ORIENTED_EDGE ( 'NONE', *, *, #306, .F. ) ;
ENDSEC;
END-ISO-10303-21;
