ISO-10303-21;
HEADER;
FILE_DESCRIPTION (( 'STEP AP214' ),
    '1' );
FILE_NAME ('145191.STEP',
    '2019-06-13T05:38:08',
    ( 'user' ),
    ( 'Î¢ÈíÖÐ¹ú' ),
    'SwSTEP 2.0',
    'SolidWorks 2016',
    '' );
FILE_SCHEMA (( 'AUTOMOTIVE_DESIGN' ));
ENDSEC;

DATA;
#1 = ORIENTED_EDGE ( 'NONE', *, *, #84, .T. ) ;
#2 = MANIFOLD_SOLID_BREP ( 'Ðý×ª3', #25 ) ;
#3 = DIRECTION ( 'NONE',  ( -0.0000000000000000000, 1.000000000000000000, 0.0000000000000000000 ) ) ;
#4 = ORIENTED_EDGE ( 'NONE', *, *, #106, .F. ) ;
#5 = ORIENTED_EDGE ( 'NONE', *, *, #21, .T. ) ;
#6 = LINE ( 'NONE', #341, #74 ) ;
#7 = ORIENTED_EDGE ( 'NONE', *, *, #31, .T. ) ;
#8 = ORIENTED_EDGE ( 'NONE', *, *, #185, .T. ) ;
#9 = DIRECTION ( 'NONE',  ( 0.0000000000000000000, 0.0000000000000000000, -1.000000000000000000 ) ) ;
#10 = SURFACE_STYLE_FILL_AREA ( #80 ) ;
#11 = CARTESIAN_POINT ( 'NONE',  ( 232.0823530212274200, 7.776507174585681300E-016, -6.349999999999989900 ) ) ;
#12 = SURFACE_SIDE_STYLE ('',( #166 ) ) ;
#13 = FACE_OUTER_BOUND ( 'NONE', #261, .T. ) ;
#14 = SPHERICAL_SURFACE ( 'NONE', #331, 16.50000000000025600 ) ;
#15 = EDGE_CURVE ( 'NONE', #230, #32, #127, .T. ) ;
#16 = ORIENTED_EDGE ( 'NONE', *, *, #65, .T. ) ;
#17 = FILL_AREA_STYLE_COLOUR ( '', #66 ) ;
#18 = EDGE_LOOP ( 'NONE', ( #281, #233, #315 ) ) ;
#19 = DIRECTION ( 'NONE',  ( -2.249639673992786100E-032, -1.000000000000000000, -1.224646799147353200E-016 ) ) ;
#20 = FACE_OUTER_BOUND ( 'NONE', #224, .T. ) ;
#21 = EDGE_CURVE ( 'NONE', #243, #117, #203, .T. ) ;
#22 = SPHERICAL_SURFACE ( 'NONE', #218, 16.50000000000025200 ) ;
#23 = UNCERTAINTY_MEASURE_WITH_UNIT (LENGTH_MEASURE( 1.000000000000000100E-005 ), #75, 'distance_accuracy_value', 'NONE');
#24 = DIRECTION ( 'NONE',  ( 0.0000000000000000000, 1.224646799147353000E-016, -1.000000000000000000 ) ) ;
#25 = CLOSED_SHELL ( 'NONE', ( #98, #215, #193, #129, #337, #170 ) ) ;
#26 = ADVANCED_FACE ( 'NONE', ( #195 ), #131, .T. ) ;
#27 = PRESENTATION_LAYER_ASSIGNMENT (  '', '', ( #232 ) ) ;
#28 = CARTESIAN_POINT ( 'NONE',  ( 232.0823530212274200, 0.0000000000000000000, -4.278274480469682700E-014 ) ) ;
#29 = VERTEX_POINT ( 'NONE', #90 ) ;
#30 = CIRCLE ( 'NONE', #194, 16.20000000000001000 ) ;
#31 = EDGE_CURVE ( 'NONE', #105, #182, #277, .T. ) ;
#32 = VERTEX_POINT ( 'NONE', #146 ) ;
#33 = CARTESIAN_POINT ( 'NONE',  ( 247.3115191178989100, 0.0000000000000000000, -9.169892124430020100E-022 ) ) ;
#34 = VECTOR ( 'NONE', #240, 1000.000000000000000 ) ;
#35 = CARTESIAN_POINT ( 'NONE',  ( -0.8160621761658051200, 7.776507174585743400E-016, -6.350000000000041400 ) ) ;
#36 = ADVANCED_FACE ( 'NONE', ( #139 ), #211, .F. ) ;
#37 = ORIENTED_EDGE ( 'NONE', *, *, #162, .T. ) ;
#38 = DIRECTION ( 'NONE',  ( -1.000000000000000000, -0.0000000000000000000, 1.836970198721029400E-016 ) ) ;
#39 = DIRECTION ( 'NONE',  ( 0.0000000000000000000, 0.0000000000000000000, 1.000000000000000000 ) ) ;
#40 = COLOUR_RGB ( '',1.000000000000000000, 1.000000000000000000, 1.000000000000000000 ) ;
#41 = CARTESIAN_POINT ( 'NONE',  ( 247.3115191178989100, 0.0000000000000000000, -9.169892124430020100E-022 ) ) ;
#42 = CARTESIAN_POINT ( 'NONE',  ( 232.0823530212274200, 0.0000000000000000000, -4.278274480469682700E-014 ) ) ;
#43 = DIRECTION ( 'NONE',  ( 1.878145495644168800E-016, 0.0000000000000000000, 1.000000000000000000 ) ) ;
#44 = AXIS2_PLACEMENT_3D ( 'NONE', #138, #49, #43 ) ;
#45 = CARTESIAN_POINT ( 'NONE',  ( 247.3115191178989100, 0.0000000000000000000, -9.169892124430020100E-022 ) ) ;
#46 = DIRECTION ( 'NONE',  ( 0.0000000000000000000, 0.0000000000000000000, 1.000000000000000000 ) ) ;
#47 = FACE_OUTER_BOUND ( 'NONE', #152, .T. ) ;
#48 = DIRECTION ( 'NONE',  ( 0.0000000000000000000, 0.0000000000000000000, -1.000000000000000000 ) ) ;
#49 = DIRECTION ( 'NONE',  ( -1.000000000000000000, -0.0000000000000000000, 1.836970198721029400E-016 ) ) ;
#50 = EDGE_CURVE ( 'NONE', #105, #82, #147, .T. ) ;
#51 = CARTESIAN_POINT ( 'NONE',  ( 229.3115191178989700, 0.0000000000000000000, -1.983927814723534900E-015 ) ) ;
#52 = ORIENTED_EDGE ( 'NONE', *, *, #94, .T. ) ;
#53 = DIRECTION ( 'NONE',  ( 0.0000000000000000000, 0.0000000000000000000, 1.000000000000000000 ) ) ;
#54 = EDGE_CURVE ( 'NONE', #29, #59, #6, .T. ) ;
#55 = PRODUCT ( '145191', '145191', '', ( #58 ) ) ;
#56 = EDGE_LOOP ( 'NONE', ( #217, #37, #317, #276 ) ) ;
#57 = APPLICATION_PROTOCOL_DEFINITION ( 'draft international standard', 'automotive_design', 1998, #60 ) ;
#58 = PRODUCT_CONTEXT ( 'NONE', #96, 'mechanical' ) ;
#59 = VERTEX_POINT ( 'NONE', #302 ) ;
#60 = APPLICATION_CONTEXT ( 'automotive_design' ) ;
#61 = ADVANCED_FACE ( 'NONE', ( #157 ), #119, .F. ) ;
#62 = SPHERICAL_SURFACE ( 'NONE', #238, 154.1999999999999900 ) ;
#63 = DIRECTION ( 'NONE',  ( 1.000000000000000000, 0.0000000000000000000, 0.0000000000000000000 ) ) ;
#64 = DIRECTION ( 'NONE',  ( 0.0000000000000000000, 0.0000000000000000000, 1.000000000000000000 ) ) ;
#65 = EDGE_CURVE ( 'NONE', #59, #230, #204, .T. ) ;
#66 = COLOUR_RGB ( '',1.000000000000000000, 1.000000000000000000, 1.000000000000000000 ) ;
#67 = CARTESIAN_POINT ( 'NONE',  ( 0.0000000000000000000, 0.0000000000000000000, 0.0000000000000000000 ) ) ;
#68 = EDGE_LOOP ( 'NONE', ( #303, #314, #7 ) ) ;
#69 =( NAMED_UNIT ( * ) PLANE_ANGLE_UNIT ( ) SI_UNIT ( $, .RADIAN. ) );
#70 = ORIENTED_EDGE ( 'NONE', *, *, #162, .F. ) ;
#71 =( NAMED_UNIT ( * ) SI_UNIT ( $, .STERADIAN. ) SOLID_ANGLE_UNIT ( ) );
#72 = SPHERICAL_SURFACE ( 'NONE', #293, 16.50000000000025600 ) ;
#73 = SURFACE_STYLE_USAGE ( .BOTH. , #88 ) ;
#74 = VECTOR ( 'NONE', #313, 1000.000000000000000 ) ;
#75 =( LENGTH_UNIT ( ) NAMED_UNIT ( * ) SI_UNIT ( .MILLI., .METRE. ) );
#76 = STYLED_ITEM ( 'NONE', ( #178 ), #2 ) ;
#77 = ORIENTED_EDGE ( 'NONE', *, *, #174, .T. ) ;
#78 = DIRECTION ( 'NONE',  ( 0.0000000000000000000, -1.224646799147353200E-016, 1.000000000000000000 ) ) ;
#79 = FACE_OUTER_BOUND ( 'NONE', #68, .T. ) ;
#80 = FILL_AREA_STYLE ('',( #17 ) ) ;
#81 = SPHERICAL_SURFACE ( 'NONE', #260, 154.1999999999999900 ) ;
#82 = VERTEX_POINT ( 'NONE', #142 ) ;
#83 = CYLINDRICAL_SURFACE ( 'NONE', #289, 6.349999999999996100 ) ;
#84 = EDGE_CURVE ( 'NONE', #89, #29, #188, .T. ) ;
#85 = ORIENTED_EDGE ( 'NONE', *, *, #15, .F. ) ;
#86 = PRODUCT_RELATED_PRODUCT_CATEGORY ( 'part', '', ( #55 ) ) ;
#87 = DIRECTION ( 'NONE',  ( -0.0000000000000000000, -1.000000000000000000, -0.0000000000000000000 ) ) ;
#88 = SURFACE_SIDE_STYLE ('',( #10 ) ) ;
#89 = VERTEX_POINT ( 'NONE', #273 ) ;
#90 = CARTESIAN_POINT ( 'NONE',  ( 233.2423220017975900, 0.0000000000000000000, 6.349999999999999600 ) ) ;
#91 = CIRCLE ( 'NONE', #244, 6.350000000000042300 ) ;
#92 = DIRECTION ( 'NONE',  ( -1.000000000000000000, -0.0000000000000000000, 1.836970198721029400E-016 ) ) ;
#93 = PRODUCT_DEFINITION_FORMATION_WITH_SPECIFIED_SOURCE ( 'ÈÎºÎ', '', #55, .NOT_KNOWN. ) ;
#94 = EDGE_CURVE ( 'NONE', #230, #59, #343, .T. ) ;
#95 = DIRECTION ( 'NONE',  ( 0.0000000000000000000, 1.224646799147353200E-016, -1.000000000000000000 ) ) ;
#96 = APPLICATION_CONTEXT ( 'automotive_design' ) ;
#97 = ORIENTED_EDGE ( 'NONE', *, *, #269, .T. ) ;
#98 = ADVANCED_FACE ( 'NONE', ( #13 ), #81, .F. ) ;
#99 = AXIS2_PLACEMENT_3D ( 'NONE', #192, #274, #250 ) ;
#100 = CIRCLE ( 'NONE', #183, 16.50000000000025200 ) ;
#101 = ORIENTED_EDGE ( 'NONE', *, *, #31, .F. ) ;
#102 = COLOUR_RGB ( '',1.000000000000000000, 1.000000000000000000, 1.000000000000000000 ) ;
#103 = APPLICATION_PROTOCOL_DEFINITION ( 'draft international standard', 'automotive_design', 1998, #96 ) ;
#104 = CIRCLE ( 'NONE', #311, 154.1999999999999900 ) ;
#105 = VERTEX_POINT ( 'NONE', #229 ) ;
#106 = EDGE_CURVE ( 'NONE', #117, #82, #285, .T. ) ;
#107 = CARTESIAN_POINT ( 'NONE',  ( 247.3115191178989100, 0.0000000000000000000, -9.169892124430020100E-022 ) ) ;
#108 = AXIS2_PLACEMENT_3D ( 'NONE', #67, #53, #63 ) ;
#109 = ORIENTED_EDGE ( 'NONE', *, *, #21, .F. ) ;
#110 = ORIENTED_EDGE ( 'NONE', *, *, #333, .T. ) ;
#111 = MANIFOLD_SOLID_BREP ( 'Ðý×ª1', #207 ) ;
#112 = ORIENTED_EDGE ( 'NONE', *, *, #333, .F. ) ;
#113 =( NAMED_UNIT ( * ) SI_UNIT ( $, .STERADIAN. ) SOLID_ANGLE_UNIT ( ) );
#114 = CARTESIAN_POINT ( 'NONE',  ( 228.0151260638701300, 0.0000000000000000000, -4.203560733348681300E-014 ) ) ;
#115 = CARTESIAN_POINT ( 'NONE',  ( 213.1115191178989500, 0.0000000000000000000, -1.048218187111863300E-025 ) ) ;
#116 = DIRECTION ( 'NONE',  ( 0.0000000000000000000, 1.000000000000000000, 0.0000000000000000000 ) ) ;
#117 = VERTEX_POINT ( 'NONE', #222 ) ;
#118 = UNCERTAINTY_MEASURE_WITH_UNIT (LENGTH_MEASURE( 1.000000000000000100E-005 ), #336, 'distance_accuracy_value', 'NONE');
#119 = SPHERICAL_SURFACE ( 'NONE', #347, 16.20000000000001000 ) ;
#120 = ORIENTED_EDGE ( 'NONE', *, *, #297, .F. ) ;
#121 = PRODUCT_DEFINITION ( 'Î´Öª', '', #93, #137 ) ;
#122 = DIRECTION ( 'NONE',  ( -1.000000000000000000, -0.0000000000000000000, -0.0000000000000000000 ) ) ;
#123 = SURFACE_STYLE_USAGE ( .BOTH. , #12 ) ;
#124 = CARTESIAN_POINT ( 'NONE',  ( 232.0823530212274200, 0.0000000000000000000, 0.0000000000000000000 ) ) ;
#125 = ORIENTED_EDGE ( 'NONE', *, *, #297, .T. ) ;
#126 =( GEOMETRIC_REPRESENTATION_CONTEXT ( 3 ) GLOBAL_UNCERTAINTY_ASSIGNED_CONTEXT ( ( #23 ) ) GLOBAL_UNIT_ASSIGNED_CONTEXT ( ( #75, #69, #71 ) ) REPRESENTATION_CONTEXT ( 'NONE', 'WORKASPACE' ) );
#127 = CIRCLE ( 'NONE', #99, 16.50000000000025200 ) ;
#128 = FACE_OUTER_BOUND ( 'NONE', #295, .T. ) ;
#129 = ADVANCED_FACE ( 'NONE', ( #268 ), #22, .T. ) ;
#130 = ORIENTED_EDGE ( 'NONE', *, *, #15, .T. ) ;
#131 = CYLINDRICAL_SURFACE ( 'NONE', #44, 6.350000000000041400 ) ;
#132 = PRODUCT_DEFINITION_SHAPE ( 'NONE', 'NONE',  #121 ) ;
#133 = MECHANICAL_DESIGN_GEOMETRIC_PRESENTATION_REPRESENTATION (  '', ( #254 ), #126 ) ;
#134 = ORIENTED_EDGE ( 'NONE', *, *, #54, .T. ) ;
#135 = DIRECTION ( 'NONE',  ( -0.0000000000000000000, -1.000000000000000000, -0.0000000000000000000 ) ) ;
#136 =( NAMED_UNIT ( * ) PLANE_ANGLE_UNIT ( ) SI_UNIT ( $, .RADIAN. ) );
#137 = PRODUCT_DEFINITION_CONTEXT ( 'detailed design', #60, 'design' ) ;
#138 = CARTESIAN_POINT ( 'NONE',  ( -0.8160621761658039000, 0.0000000000000000000, 0.0000000000000000000 ) ) ;
#139 = FACE_OUTER_BOUND ( 'NONE', #225, .T. ) ;
#140 = CARTESIAN_POINT ( 'NONE',  ( 247.3115191178989100, 0.0000000000000000000, -9.169892124430020100E-022 ) ) ;
#141 = AXIS2_PLACEMENT_3D ( 'NONE', #228, #301, #177 ) ;
#142 = CARTESIAN_POINT ( 'NONE',  ( 228.0151260638701300, 7.776507174585742500E-016, -6.350000000000043200 ) ) ;
#143 = CIRCLE ( 'NONE', #190, 154.1999999999999900 ) ;
#144 = DIRECTION ( 'NONE',  ( 0.0000000000000000000, -1.000000000000000000, -1.224646799147353200E-016 ) ) ;
#145 = EDGE_LOOP ( 'NONE', ( #272, #310, #101 ) ) ;
#146 = CARTESIAN_POINT ( 'NONE',  ( 230.8115191178986500, 0.0000000000000000000, 1.010332692307369300E-015 ) ) ;
#147 = LINE ( 'NONE', #35, #262 ) ;
#148 = LINE ( 'NONE', #173, #34 ) ;
#149 = CARTESIAN_POINT ( 'NONE',  ( 213.1115191178989500, 0.0000000000000000000, -1.048218187111863300E-025 ) ) ;
#150 = SHAPE_DEFINITION_REPRESENTATION ( #132, #226 ) ;
#151 = DIRECTION ( 'NONE',  ( -0.0000000000000000000, -1.000000000000000000, -0.0000000000000000000 ) ) ;
#152 = EDGE_LOOP ( 'NONE', ( #120, #334, #208 ) ) ;
#153 = AXIS2_PLACEMENT_3D ( 'NONE', #172, #167, #165 ) ;
#154 = FACE_OUTER_BOUND ( 'NONE', #242, .T. ) ;
#155 = DIRECTION ( 'NONE',  ( 0.0000000000000000000, 0.0000000000000000000, 1.000000000000000000 ) ) ;
#156 = CARTESIAN_POINT ( 'NONE',  ( 387.3115191178986300, 0.0000000000000000000, 0.0000000000000000000 ) ) ;
#157 = FACE_OUTER_BOUND ( 'NONE', #18, .T. ) ;
#158 = AXIS2_PLACEMENT_3D ( 'NONE', #115, #3, #279 ) ;
#159 = MECHANICAL_DESIGN_GEOMETRIC_PRESENTATION_REPRESENTATION (  '', ( #76 ), #196 ) ;
#160 = EDGE_LOOP ( 'NONE', ( #214, #8, #5, #112 ) ) ;
#161 = CARTESIAN_POINT ( 'NONE',  ( -0.8160621761658039000, 0.0000000000000000000, 0.0000000000000000000 ) ) ;
#162 = EDGE_CURVE ( 'NONE', #89, #230, #148, .T. ) ;
#163 = CIRCLE ( 'NONE', #340, 16.50000000000025600 ) ;
#164 = DIRECTION ( 'NONE',  ( -0.0000000000000000000, 1.000000000000000000, 0.0000000000000000000 ) ) ;
#165 = DIRECTION ( 'NONE',  ( 0.0000000000000000000, 0.0000000000000000000, 1.000000000000000000 ) ) ;
#166 = SURFACE_STYLE_FILL_AREA ( #168 ) ;
#167 = DIRECTION ( 'NONE',  ( -1.000000000000000000, -0.0000000000000000000, -0.0000000000000000000 ) ) ;
#168 = FILL_AREA_STYLE ('',( #305 ) ) ;
#169 =( NAMED_UNIT ( * ) PLANE_ANGLE_UNIT ( ) SI_UNIT ( $, .RADIAN. ) );
#170 = ADVANCED_FACE ( 'NONE', ( #47 ), #62, .F. ) ;
#171 = ORIENTED_EDGE ( 'NONE', *, *, #257, .T. ) ;
#172 = CARTESIAN_POINT ( 'NONE',  ( 233.2423220017975900, 0.0000000000000000000, 0.0000000000000000000 ) ) ;
#173 = CARTESIAN_POINT ( 'NONE',  ( 228.0151260638701300, 7.776507174585689200E-016, -6.349999999999996100 ) ) ;
#174 = EDGE_CURVE ( 'NONE', #243, #105, #91, .T. ) ;
#175 = AXIS2_PLACEMENT_3D ( 'NONE', #181, #234, #335 ) ;
#176 = DIRECTION ( 'NONE',  ( 1.878145495644168800E-016, 0.0000000000000000000, 1.000000000000000000 ) ) ;
#177 = DIRECTION ( 'NONE',  ( 0.0000000000000000000, 0.0000000000000000000, 1.000000000000000000 ) ) ;
#178 = PRESENTATION_STYLE_ASSIGNMENT (( #123 ) ) ;
#179 = DIRECTION ( 'NONE',  ( -0.0000000000000000000, 1.000000000000000000, 0.0000000000000000000 ) ) ;
#180 = PRESENTATION_LAYER_ASSIGNMENT (  '', '', ( #254 ) ) ;
#181 = CARTESIAN_POINT ( 'NONE',  ( 233.2423220017975900, 0.0000000000000000000, 0.0000000000000000000 ) ) ;
#182 = VERTEX_POINT ( 'NONE', #339 ) ;
#183 = AXIS2_PLACEMENT_3D ( 'NONE', #140, #319, #9 ) ;
#184 = CARTESIAN_POINT ( 'NONE',  ( 228.0151260638701300, 0.0000000000000000000, 0.0000000000000000000 ) ) ;
#185 = EDGE_CURVE ( 'NONE', #105, #243, #294, .T. ) ;
#186 = AXIS2_PLACEMENT_3D ( 'NONE', #184, #312, #338 ) ;
#187 = VERTEX_POINT ( 'NONE', #198 ) ;
#188 = CIRCLE ( 'NONE', #153, 6.349999999999999600 ) ;
#189 = DIRECTION ( 'NONE',  ( 2.249639673992786100E-032, 1.000000000000000000, 1.224646799147353200E-016 ) ) ;
#190 = AXIS2_PLACEMENT_3D ( 'NONE', #328, #342, #235 ) ;
#191 = CARTESIAN_POINT ( 'NONE',  ( -0.8160621761658027900, 0.0000000000000000000, 6.350000000000041400 ) ) ;
#192 = CARTESIAN_POINT ( 'NONE',  ( 247.3115191178989100, 0.0000000000000000000, -9.169892124430020100E-022 ) ) ;
#193 = ADVANCED_FACE ( 'NONE', ( #128 ), #318, .T. ) ;
#194 = AXIS2_PLACEMENT_3D ( 'NONE', #332, #189, #78 ) ;
#195 = FACE_OUTER_BOUND ( 'NONE', #160, .T. ) ;
#196 =( GEOMETRIC_REPRESENTATION_CONTEXT ( 3 ) GLOBAL_UNCERTAINTY_ASSIGNED_CONTEXT ( ( #306 ) ) GLOBAL_UNIT_ASSIGNED_CONTEXT ( ( #344, #169, #113 ) ) REPRESENTATION_CONTEXT ( 'NONE', 'WORKASPACE' ) );
#197 = AXIS2_PLACEMENT_3D ( 'NONE', #124, #122, #219 ) ;
#198 = CARTESIAN_POINT ( 'NONE',  ( 233.1115191178986700, 0.0000000000000000000, -9.442026821426091600E-015 ) ) ;
#199 = PRESENTATION_STYLE_ASSIGNMENT (( #73 ) ) ;
#200 = EDGE_CURVE ( 'NONE', #29, #89, #241, .T. ) ;
#201 = AXIS2_PLACEMENT_3D ( 'NONE', #161, #299, #176 ) ;
#202 = FACE_OUTER_BOUND ( 'NONE', #56, .T. ) ;
#203 = LINE ( 'NONE', #191, #267 ) ;
#204 = CIRCLE ( 'NONE', #141, 6.349999999999993400 ) ;
#205 = DIRECTION ( 'NONE',  ( 0.0000000000000000000, 0.0000000000000000000, -1.000000000000000000 ) ) ;
#206 = DIRECTION ( 'NONE',  ( 0.0000000000000000000, -1.000000000000000000, 0.0000000000000000000 ) ) ;
#207 = CLOSED_SHELL ( 'NONE', ( #278, #220, #36, #61, #26, #300 ) ) ;
#208 = ORIENTED_EDGE ( 'NONE', *, *, #227, .T. ) ;
#209 = AXIS2_PLACEMENT_3D ( 'NONE', #246, #247, #251 ) ;
#210 = DIRECTION ( 'NONE',  ( 0.0000000000000000000, 0.0000000000000000000, 1.000000000000000000 ) ) ;
#211 = SPHERICAL_SURFACE ( 'NONE', #158, 16.20000000000001000 ) ;
#212 =( GEOMETRIC_REPRESENTATION_CONTEXT ( 3 ) GLOBAL_UNCERTAINTY_ASSIGNED_CONTEXT ( ( #259 ) ) GLOBAL_UNIT_ASSIGNED_CONTEXT ( ( #271, #255, #245 ) ) REPRESENTATION_CONTEXT ( 'NONE', 'WORKASPACE' ) );
#213 = ORIENTED_EDGE ( 'NONE', *, *, #345, .F. ) ;
#214 = ORIENTED_EDGE ( 'NONE', *, *, #50, .F. ) ;
#215 = ADVANCED_FACE ( 'NONE', ( #202 ), #275, .T. ) ;
#216 = CIRCLE ( 'NONE', #298, 16.20000000000001000 ) ;
#217 = ORIENTED_EDGE ( 'NONE', *, *, #200, .T. ) ;
#218 = AXIS2_PLACEMENT_3D ( 'NONE', #41, #231, #155 ) ;
#219 = DIRECTION ( 'NONE',  ( 0.0000000000000000000, 0.0000000000000000000, 1.000000000000000000 ) ) ;
#220 = ADVANCED_FACE ( 'NONE', ( #20 ), #324, .T. ) ;
#221 = DIRECTION ( 'NONE',  ( 0.0000000000000000000, 0.0000000000000000000, -1.000000000000000000 ) ) ;
#222 = CARTESIAN_POINT ( 'NONE',  ( 228.0151260638701300, 0.0000000000000000000, 6.349999999999999600 ) ) ;
#223 = FILL_AREA_STYLE_COLOUR ( '', #40 ) ;
#224 = EDGE_LOOP ( 'NONE', ( #77, #256, #4, #109 ) ) ;
#225 = EDGE_LOOP ( 'NONE', ( #213, #97, #110 ) ) ;
#226 = ADVANCED_BREP_SHAPE_REPRESENTATION ( '145191', ( #111, #2, #108 ), #282 ) ;
#227 = EDGE_CURVE ( 'NONE', #89, #187, #143, .T. ) ;
#228 = CARTESIAN_POINT ( 'NONE',  ( 232.0823530212274200, 0.0000000000000000000, 0.0000000000000000000 ) ) ;
#229 = CARTESIAN_POINT ( 'NONE',  ( 232.0823530212274200, 7.776507174585745400E-016, -6.350000000000084900 ) ) ;
#230 = VERTEX_POINT ( 'NONE', #11 ) ;
#231 = DIRECTION ( 'NONE',  ( 0.0000000000000000000, 1.000000000000000000, 0.0000000000000000000 ) ) ;
#232 = STYLED_ITEM ( 'NONE', ( #326 ), #111 ) ;
#233 = ORIENTED_EDGE ( 'NONE', *, *, #345, .T. ) ;
#234 = DIRECTION ( 'NONE',  ( -1.000000000000000000, -0.0000000000000000000, -0.0000000000000000000 ) ) ;
#235 = DIRECTION ( 'NONE',  ( 0.0000000000000000000, 0.0000000000000000000, 1.000000000000000000 ) ) ;
#236 = AXIS2_PLACEMENT_3D ( 'NONE', #290, #179, #296 ) ;
#237 =( NAMED_UNIT ( * ) SI_UNIT ( $, .STERADIAN. ) SOLID_ANGLE_UNIT ( ) );
#238 = AXIS2_PLACEMENT_3D ( 'NONE', #258, #87, #249 ) ;
#239 = ORIENTED_EDGE ( 'NONE', *, *, #227, .F. ) ;
#240 = DIRECTION ( 'NONE',  ( -1.000000000000000000, -0.0000000000000000000, -0.0000000000000000000 ) ) ;
#241 = CIRCLE ( 'NONE', #175, 6.349999999999999600 ) ;
#242 = EDGE_LOOP ( 'NONE', ( #70, #1, #134, #291 ) ) ;
#243 = VERTEX_POINT ( 'NONE', #287 ) ;
#244 = AXIS2_PLACEMENT_3D ( 'NONE', #28, #38, #39 ) ;
#245 =( NAMED_UNIT ( * ) SI_UNIT ( $, .STERADIAN. ) SOLID_ANGLE_UNIT ( ) );
#246 = CARTESIAN_POINT ( 'NONE',  ( 228.0151260638701300, 0.0000000000000000000, -4.203560733348681300E-014 ) ) ;
#247 = DIRECTION ( 'NONE',  ( -1.000000000000000000, -0.0000000000000000000, 1.836970198721029400E-016 ) ) ;
#248 = EDGE_LOOP ( 'NONE', ( #85, #52, #171 ) ) ;
#249 = DIRECTION ( 'NONE',  ( 0.0000000000000000000, 0.0000000000000000000, -1.000000000000000000 ) ) ;
#250 = DIRECTION ( 'NONE',  ( 0.0000000000000000000, -1.224646799147353000E-016, 1.000000000000000000 ) ) ;
#251 = DIRECTION ( 'NONE',  ( 0.0000000000000000000, 0.0000000000000000000, 1.000000000000000000 ) ) ;
#252 = FILL_AREA_STYLE ('',( #223 ) ) ;
#253 = SURFACE_SIDE_STYLE ('',( #286 ) ) ;
#254 = STYLED_ITEM ( 'NONE', ( #199 ), #226 ) ;
#255 =( NAMED_UNIT ( * ) PLANE_ANGLE_UNIT ( ) SI_UNIT ( $, .RADIAN. ) );
#256 = ORIENTED_EDGE ( 'NONE', *, *, #50, .T. ) ;
#257 = EDGE_CURVE ( 'NONE', #59, #32, #100, .T. ) ;
#258 = CARTESIAN_POINT ( 'NONE',  ( 387.3115191178986300, 0.0000000000000000000, 0.0000000000000000000 ) ) ;
#259 = UNCERTAINTY_MEASURE_WITH_UNIT (LENGTH_MEASURE( 1.000000000000000100E-005 ), #271, 'distance_accuracy_value', 'NONE');
#260 = AXIS2_PLACEMENT_3D ( 'NONE', #156, #151, #221 ) ;
#261 = EDGE_LOOP ( 'NONE', ( #283, #125, #239 ) ) ;
#262 = VECTOR ( 'NONE', #323, 1000.000000000000000 ) ;
#263 = AXIS2_PLACEMENT_3D ( 'NONE', #42, #92, #210 ) ;
#264 = SURFACE_STYLE_USAGE ( .BOTH. , #253 ) ;
#265 = DIRECTION ( 'NONE',  ( 0.0000000000000000000, 0.0000000000000000000, -1.000000000000000000 ) ) ;
#266 = CIRCLE ( 'NONE', #322, 6.350000000000041400 ) ;
#267 = VECTOR ( 'NONE', #330, 1000.000000000000000 ) ;
#268 = FACE_OUTER_BOUND ( 'NONE', #248, .T. ) ;
#269 = EDGE_CURVE ( 'NONE', #325, #82, #30, .T. ) ;
#270 = MECHANICAL_DESIGN_GEOMETRIC_PRESENTATION_REPRESENTATION (  '', ( #232 ), #212 ) ;
#271 =( LENGTH_UNIT ( ) NAMED_UNIT ( * ) SI_UNIT ( .MILLI., .METRE. ) );
#272 = ORIENTED_EDGE ( 'NONE', *, *, #174, .F. ) ;
#273 = CARTESIAN_POINT ( 'NONE',  ( 233.2423220017975900, 7.776507174585692200E-016, -6.349999999999998800 ) ) ;
#274 = DIRECTION ( 'NONE',  ( -0.0000000000000000000, 1.000000000000000000, 1.224646799147353200E-016 ) ) ;
#275 = CYLINDRICAL_SURFACE ( 'NONE', #186, 6.349999999999996100 ) ;
#276 = ORIENTED_EDGE ( 'NONE', *, *, #54, .F. ) ;
#277 = CIRCLE ( 'NONE', #236, 16.50000000000025600 ) ;
#278 = ADVANCED_FACE ( 'NONE', ( #308 ), #14, .F. ) ;
#279 = DIRECTION ( 'NONE',  ( 0.0000000000000000000, 0.0000000000000000000, 1.000000000000000000 ) ) ;
#280 = PRESENTATION_LAYER_ASSIGNMENT (  '', '', ( #76 ) ) ;
#281 = ORIENTED_EDGE ( 'NONE', *, *, #269, .F. ) ;
#282 =( GEOMETRIC_REPRESENTATION_CONTEXT ( 3 ) GLOBAL_UNCERTAINTY_ASSIGNED_CONTEXT ( ( #118 ) ) GLOBAL_UNIT_ASSIGNED_CONTEXT ( ( #336, #136, #237 ) ) REPRESENTATION_CONTEXT ( 'NONE', 'WORKASPACE' ) );
#283 = ORIENTED_EDGE ( 'NONE', *, *, #200, .F. ) ;
#284 = CARTESIAN_POINT ( 'NONE',  ( 247.3115191178989100, 0.0000000000000000000, -9.169892124430020100E-022 ) ) ;
#285 = CIRCLE ( 'NONE', #209, 6.350000000000041400 ) ;
#286 = SURFACE_STYLE_FILL_AREA ( #252 ) ;
#287 = CARTESIAN_POINT ( 'NONE',  ( 232.0823530212274200, 0.0000000000000000000, 6.349999999999999600 ) ) ;
#288 = CARTESIAN_POINT ( 'NONE',  ( 213.1115191178989500, 0.0000000000000000000, -1.048218187111863300E-025 ) ) ;
#289 = AXIS2_PLACEMENT_3D ( 'NONE', #346, #307, #46 ) ;
#290 = CARTESIAN_POINT ( 'NONE',  ( 247.3115191178989100, 0.0000000000000000000, -9.169892124430020100E-022 ) ) ;
#291 = ORIENTED_EDGE ( 'NONE', *, *, #94, .F. ) ;
#292 = DIRECTION ( 'NONE',  ( 0.0000000000000000000, 0.0000000000000000000, 1.000000000000000000 ) ) ;
#293 = AXIS2_PLACEMENT_3D ( 'NONE', #284, #309, #265 ) ;
#294 = CIRCLE ( 'NONE', #263, 6.350000000000042300 ) ;
#295 = EDGE_LOOP ( 'NONE', ( #16, #130, #316 ) ) ;
#296 = DIRECTION ( 'NONE',  ( 0.0000000000000000000, 0.0000000000000000000, 1.000000000000000000 ) ) ;
#297 = EDGE_CURVE ( 'NONE', #29, #187, #104, .T. ) ;
#298 = AXIS2_PLACEMENT_3D ( 'NONE', #149, #206, #205 ) ;
#299 = DIRECTION ( 'NONE',  ( -1.000000000000000000, -0.0000000000000000000, 1.836970198721029400E-016 ) ) ;
#300 = ADVANCED_FACE ( 'NONE', ( #79 ), #72, .F. ) ;
#301 = DIRECTION ( 'NONE',  ( -1.000000000000000000, -0.0000000000000000000, -0.0000000000000000000 ) ) ;
#302 = CARTESIAN_POINT ( 'NONE',  ( 232.0823530212274200, 0.0000000000000000000, 6.349999999999989900 ) ) ;
#303 = ORIENTED_EDGE ( 'NONE', *, *, #320, .F. ) ;
#304 = DIRECTION ( 'NONE',  ( -1.000000000000000000, -0.0000000000000000000, 1.836970198721029400E-016 ) ) ;
#305 = FILL_AREA_STYLE_COLOUR ( '', #102 ) ;
#306 = UNCERTAINTY_MEASURE_WITH_UNIT (LENGTH_MEASURE( 1.000000000000000100E-005 ), #344, 'distance_accuracy_value', 'NONE');
#307 = DIRECTION ( 'NONE',  ( -1.000000000000000000, -0.0000000000000000000, -0.0000000000000000000 ) ) ;
#308 = FACE_OUTER_BOUND ( 'NONE', #145, .T. ) ;
#309 = DIRECTION ( 'NONE',  ( -0.0000000000000000000, -1.000000000000000000, -0.0000000000000000000 ) ) ;
#310 = ORIENTED_EDGE ( 'NONE', *, *, #320, .T. ) ;
#311 = AXIS2_PLACEMENT_3D ( 'NONE', #329, #144, #95 ) ;
#312 = DIRECTION ( 'NONE',  ( -1.000000000000000000, -0.0000000000000000000, -0.0000000000000000000 ) ) ;
#313 = DIRECTION ( 'NONE',  ( -1.000000000000000000, -0.0000000000000000000, -0.0000000000000000000 ) ) ;
#314 = ORIENTED_EDGE ( 'NONE', *, *, #185, .F. ) ;
#315 = ORIENTED_EDGE ( 'NONE', *, *, #106, .T. ) ;
#316 = ORIENTED_EDGE ( 'NONE', *, *, #257, .F. ) ;
#317 = ORIENTED_EDGE ( 'NONE', *, *, #65, .F. ) ;
#318 = SPHERICAL_SURFACE ( 'NONE', #327, 16.50000000000025200 ) ;
#319 = DIRECTION ( 'NONE',  ( 0.0000000000000000000, -1.000000000000000000, 0.0000000000000000000 ) ) ;
#320 = EDGE_CURVE ( 'NONE', #243, #182, #163, .T. ) ;
#321 = DIRECTION ( 'NONE',  ( 0.0000000000000000000, 0.0000000000000000000, 1.000000000000000000 ) ) ;
#322 = AXIS2_PLACEMENT_3D ( 'NONE', #114, #304, #64 ) ;
#323 = DIRECTION ( 'NONE',  ( -1.000000000000000000, -0.0000000000000000000, 1.836970198721029400E-016 ) ) ;
#324 = CYLINDRICAL_SURFACE ( 'NONE', #201, 6.350000000000041400 ) ;
#325 = VERTEX_POINT ( 'NONE', #51 ) ;
#326 = PRESENTATION_STYLE_ASSIGNMENT (( #264 ) ) ;
#327 = AXIS2_PLACEMENT_3D ( 'NONE', #33, #116, #321 ) ;
#328 = CARTESIAN_POINT ( 'NONE',  ( 387.3115191178986300, 0.0000000000000000000, 0.0000000000000000000 ) ) ;
#329 = CARTESIAN_POINT ( 'NONE',  ( 387.3115191178986300, 0.0000000000000000000, 0.0000000000000000000 ) ) ;
#330 = DIRECTION ( 'NONE',  ( -1.000000000000000000, -0.0000000000000000000, 1.836970198721029400E-016 ) ) ;
#331 = AXIS2_PLACEMENT_3D ( 'NONE', #107, #135, #48 ) ;
#332 = CARTESIAN_POINT ( 'NONE',  ( 213.1115191178989500, 0.0000000000000000000, -1.048218187111863300E-025 ) ) ;
#333 = EDGE_CURVE ( 'NONE', #82, #117, #266, .T. ) ;
#334 = ORIENTED_EDGE ( 'NONE', *, *, #84, .F. ) ;
#335 = DIRECTION ( 'NONE',  ( 0.0000000000000000000, 0.0000000000000000000, 1.000000000000000000 ) ) ;
#336 =( LENGTH_UNIT ( ) NAMED_UNIT ( * ) SI_UNIT ( .MILLI., .METRE. ) );
#337 = ADVANCED_FACE ( 'NONE', ( #154 ), #83, .T. ) ;
#338 = DIRECTION ( 'NONE',  ( 0.0000000000000000000, 0.0000000000000000000, 1.000000000000000000 ) ) ;
#339 = CARTESIAN_POINT ( 'NONE',  ( 230.8115191178986500, 0.0000000000000000000, 2.020666301603950700E-015 ) ) ;
#340 = AXIS2_PLACEMENT_3D ( 'NONE', #45, #19, #24 ) ;
#341 = CARTESIAN_POINT ( 'NONE',  ( 228.0151260638701300, 0.0000000000000000000, 6.349999999999996100 ) ) ;
#342 = DIRECTION ( 'NONE',  ( 0.0000000000000000000, 1.000000000000000000, -0.0000000000000000000 ) ) ;
#343 = CIRCLE ( 'NONE', #197, 6.349999999999993400 ) ;
#344 =( LENGTH_UNIT ( ) NAMED_UNIT ( * ) SI_UNIT ( .MILLI., .METRE. ) );
#345 = EDGE_CURVE ( 'NONE', #325, #117, #216, .T. ) ;
#346 = CARTESIAN_POINT ( 'NONE',  ( 228.0151260638701300, 0.0000000000000000000, 0.0000000000000000000 ) ) ;
#347 = AXIS2_PLACEMENT_3D ( 'NONE', #288, #164, #292 ) ;
ENDSEC;
END-ISO-10303-21;
