ISO-10303-21;
HEADER;
FILE_DESCRIPTION (( 'STEP AP214' ),
    '1' );
FILE_NAME ('145193.STEP',
    '2019-06-13T06:05:44',
    ( 'user' ),
    ( 'Î¢ÈíÖÐ¹ú' ),
    'SwSTEP 2.0',
    'SolidWorks 2016',
    '' );
FILE_SCHEMA (( 'AUTOMOTIVE_DESIGN' ));
ENDSEC;

DATA;
#1 = AXIS2_PLACEMENT_3D ( 'NONE', #256, #190, #105 ) ;
#2 =( NAMED_UNIT ( * ) SI_UNIT ( $, .STERADIAN. ) SOLID_ANGLE_UNIT ( ) );
#3 = CARTESIAN_POINT ( 'NONE',  ( 230.9320583690048100, 0.0000000000000000000, -2.601150578873036000E-015 ) ) ;
#4 = ORIENTED_EDGE ( 'NONE', *, *, #32, .F. ) ;
#5 = AXIS2_PLACEMENT_3D ( 'NONE', #81, #334, #46 ) ;
#6 = ORIENTED_EDGE ( 'NONE', *, *, #250, .T. ) ;
#7 = CIRCLE ( 'NONE', #203, 17.26000000000042100 ) ;
#8 = ORIENTED_EDGE ( 'NONE', *, *, #276, .F. ) ;
#9 = AXIS2_PLACEMENT_3D ( 'NONE', #194, #309, #230 ) ;
#10 = DIRECTION ( 'NONE',  ( -1.000000000000000000, -0.0000000000000000000, 1.836970198721029900E-016 ) ) ;
#11 = VERTEX_POINT ( 'NONE', #287 ) ;
#12 = CARTESIAN_POINT ( 'NONE',  ( 226.8643500040778300, 0.0000000000000000000, -4.182421320076282000E-014 ) ) ;
#13 = CARTESIAN_POINT ( 'NONE',  ( 240.2900585370432200, 0.0000000000000000000, 0.0000000000000000000 ) ) ;
#14 = FILL_AREA_STYLE_COLOUR ( '', #34 ) ;
#15 = DIRECTION ( 'NONE',  ( -1.000000000000000000, -0.0000000000000000000, 1.836970198721029900E-016 ) ) ;
#16 = AXIS2_PLACEMENT_3D ( 'NONE', #234, #313, #320 ) ;
#17 = ORIENTED_EDGE ( 'NONE', *, *, #331, .F. ) ;
#18 =( NAMED_UNIT ( * ) PLANE_ANGLE_UNIT ( ) SI_UNIT ( $, .RADIAN. ) );
#19 = DIRECTION ( 'NONE',  ( 0.0000000000000000000, -1.224646799147353500E-016, 1.000000000000000000 ) ) ;
#20 = DIRECTION ( 'NONE',  ( 1.821459649775641000E-016, 0.0000000000000000000, 1.000000000000000000 ) ) ;
#21 = VERTEX_POINT ( 'NONE', #57 ) ;
#22 = VERTEX_POINT ( 'NONE', #59 ) ;
#23 = EDGE_CURVE ( 'NONE', #102, #22, #345, .T. ) ;
#24 = CARTESIAN_POINT ( 'NONE',  ( -0.8160621761658062300, 1.530808498934197000E-015, -12.50000000000004400 ) ) ;
#25 = DIRECTION ( 'NONE',  ( 0.0000000000000000000, -1.224646799147353200E-016, 1.000000000000000000 ) ) ;
#26 = VERTEX_POINT ( 'NONE', #171 ) ;
#27 = APPLICATION_CONTEXT ( 'automotive_design' ) ;
#28 = AXIS2_PLACEMENT_3D ( 'NONE', #264, #232, #165 ) ;
#29 = ORIENTED_EDGE ( 'NONE', *, *, #235, .F. ) ;
#30 = ADVANCED_FACE ( 'NONE', ( #328 ), #318, .T. ) ;
#31 = PRODUCT_DEFINITION ( 'Î´Öª', '', #323, #183 ) ;
#32 = EDGE_CURVE ( 'NONE', #26, #315, #296, .T. ) ;
#33 = CARTESIAN_POINT ( 'NONE',  ( 226.8643500040778300, 0.0000000000000000000, 12.49999999999999600 ) ) ;
#34 = COLOUR_RGB ( '',1.000000000000000000, 1.000000000000000000, 1.000000000000000000 ) ;
#35 = DIRECTION ( 'NONE',  ( -0.0000000000000000000, 1.000000000000000000, 1.224646799147353200E-016 ) ) ;
#36 = CARTESIAN_POINT ( 'NONE',  ( 209.6920583690048300, 0.0000000000000000000, -7.774840603276192800E-022 ) ) ;
#37 = AXIS2_PLACEMENT_3D ( 'NONE', #42, #35, #19 ) ;
#38 =( NAMED_UNIT ( * ) SI_UNIT ( $, .STERADIAN. ) SOLID_ANGLE_UNIT ( ) );
#39 = CARTESIAN_POINT ( 'NONE',  ( -0.8160621761658016800, 0.0000000000000000000, 12.50000000000004400 ) ) ;
#40 = COLOUR_RGB ( '',1.000000000000000000, 1.000000000000000000, 1.000000000000000000 ) ;
#41 = DIRECTION ( 'NONE',  ( 0.0000000000000000000, 0.0000000000000000000, 1.000000000000000000 ) ) ;
#42 = CARTESIAN_POINT ( 'NONE',  ( 252.1920583690048300, 0.0000000000000000000, -8.135908250643079300E-022 ) ) ;
#43 = CARTESIAN_POINT ( 'NONE',  ( 405.1720583690043900, 0.0000000000000000000, 0.0000000000000000000 ) ) ;
#44 = VERTEX_POINT ( 'NONE', #208 ) ;
#45 = MECHANICAL_DESIGN_GEOMETRIC_PRESENTATION_REPRESENTATION (  '', ( #119 ), #284 ) ;
#46 = DIRECTION ( 'NONE',  ( 0.0000000000000000000, 0.0000000000000000000, 1.000000000000000000 ) ) ;
#47 = FACE_OUTER_BOUND ( 'NONE', #341, .T. ) ;
#48 = SPHERICAL_SURFACE ( 'NONE', #319, 162.2400000000000100 ) ;
#49 = CARTESIAN_POINT ( 'NONE',  ( 252.1920583690048300, 0.0000000000000000000, -8.135908250643079300E-022 ) ) ;
#50 = CIRCLE ( 'NONE', #9, 12.50000000000000000 ) ;
#51 = DIRECTION ( 'NONE',  ( 0.0000000000000000000, 0.0000000000000000000, 1.000000000000000000 ) ) ;
#52 = DIRECTION ( 'NONE',  ( 0.0000000000000000000, 1.000000000000000000, 0.0000000000000000000 ) ) ;
#53 = EDGE_CURVE ( 'NONE', #44, #316, #312, .T. ) ;
#54 = ADVANCED_FACE ( 'NONE', ( #288 ), #290, .F. ) ;
#55 = AXIS2_PLACEMENT_3D ( 'NONE', #80, #314, #129 ) ;
#56 = ORIENTED_EDGE ( 'NONE', *, *, #163, .F. ) ;
#57 = CARTESIAN_POINT ( 'NONE',  ( 240.2900585370432200, 0.0000000000000000000, 12.50000000000000000 ) ) ;
#58 = ORIENTED_EDGE ( 'NONE', *, *, #235, .T. ) ;
#59 = CARTESIAN_POINT ( 'NONE',  ( 226.8643500040778300, 1.530808498934196300E-015, -12.50000000000004300 ) ) ;
#60 = ADVANCED_FACE ( 'NONE', ( #301 ), #280, .F. ) ;
#61 = DIRECTION ( 'NONE',  ( 0.0000000000000000000, 0.0000000000000000000, 1.000000000000000000 ) ) ;
#62 = DIRECTION ( 'NONE',  ( 0.0000000000000000000, 1.000000000000000000, 0.0000000000000000000 ) ) ;
#63 = CARTESIAN_POINT ( 'NONE',  ( 226.8643500040778300, 0.0000000000000000000, 12.50000000000000200 ) ) ;
#64 = CARTESIAN_POINT ( 'NONE',  ( 226.8643500040778300, 0.0000000000000000000, 0.0000000000000000000 ) ) ;
#65 = ORIENTED_EDGE ( 'NONE', *, *, #87, .F. ) ;
#66 = ORIENTED_EDGE ( 'NONE', *, *, #196, .F. ) ;
#67 = DIRECTION ( 'NONE',  ( -1.000000000000000000, -0.0000000000000000000, -0.0000000000000000000 ) ) ;
#68 = DIRECTION ( 'NONE',  ( 0.0000000000000000000, 0.0000000000000000000, 1.000000000000000000 ) ) ;
#69 =( GEOMETRIC_REPRESENTATION_CONTEXT ( 3 ) GLOBAL_UNCERTAINTY_ASSIGNED_CONTEXT ( ( #142 ) ) GLOBAL_UNIT_ASSIGNED_CONTEXT ( ( #189, #159, #2 ) ) REPRESENTATION_CONTEXT ( 'NONE', 'WORKASPACE' ) );
#70 = SURFACE_SIDE_STYLE ('',( #251 ) ) ;
#71 = ORIENTED_EDGE ( 'NONE', *, *, #331, .T. ) ;
#72 = MECHANICAL_DESIGN_GEOMETRIC_PRESENTATION_REPRESENTATION (  '', ( #326 ), #69 ) ;
#73 = CYLINDRICAL_SURFACE ( 'NONE', #248, 12.50000000000000200 ) ;
#74 = DIRECTION ( 'NONE',  ( 0.0000000000000000000, 0.0000000000000000000, -1.000000000000000000 ) ) ;
#75 = DIRECTION ( 'NONE',  ( -1.000000000000000000, -0.0000000000000000000, 1.836970198721029900E-016 ) ) ;
#76 = SURFACE_STYLE_USAGE ( .BOTH. , #70 ) ;
#77 = LINE ( 'NONE', #39, #245 ) ;
#78 = EDGE_LOOP ( 'NONE', ( #17, #202, #322 ) ) ;
#79 = AXIS2_PLACEMENT_3D ( 'NONE', #169, #339, #25 ) ;
#80 = CARTESIAN_POINT ( 'NONE',  ( -0.8160621761658039000, 0.0000000000000000000, 0.0000000000000000000 ) ) ;
#81 = CARTESIAN_POINT ( 'NONE',  ( 243.4143148140202900, 0.0000000000000000000, 0.0000000000000000000 ) ) ;
#82 = SURFACE_STYLE_USAGE ( .BOTH. , #103 ) ;
#83 = CIRCLE ( 'NONE', #5, 12.50000000000000000 ) ;
#84 = SPHERICAL_SURFACE ( 'NONE', #137, 162.2400000000000100 ) ;
#85 = MECHANICAL_DESIGN_GEOMETRIC_PRESENTATION_REPRESENTATION (  '', ( #193 ), #99 ) ;
#86 = ORIENTED_EDGE ( 'NONE', *, *, #134, .F. ) ;
#87 = EDGE_CURVE ( 'NONE', #291, #249, #153, .T. ) ;
#88 = PRESENTATION_LAYER_ASSIGNMENT (  '', '', ( #326 ) ) ;
#89 = CIRCLE ( 'NONE', #168, 12.50000000000000400 ) ;
#90 = MANIFOLD_SOLID_BREP ( 'Ðý×ª1', #122 ) ;
#91 = AXIS2_PLACEMENT_3D ( 'NONE', #12, #95, #269 ) ;
#92 = CIRCLE ( 'NONE', #266, 12.50000000000000400 ) ;
#93 = CARTESIAN_POINT ( 'NONE',  ( 240.2900585370432200, 0.0000000000000000000, -4.429047584794002000E-014 ) ) ;
#94 = EDGE_LOOP ( 'NONE', ( #141, #222, #120, #56 ) ) ;
#95 = DIRECTION ( 'NONE',  ( -1.000000000000000000, -0.0000000000000000000, 1.836970198721029900E-016 ) ) ;
#96 =( LENGTH_UNIT ( ) NAMED_UNIT ( * ) SI_UNIT ( .MILLI., .METRE. ) );
#97 = DIRECTION ( 'NONE',  ( -0.0000000000000000000, 1.000000000000000000, 0.0000000000000000000 ) ) ;
#98 = ADVANCED_FACE ( 'NONE', ( #254 ), #144, .T. ) ;
#99 =( GEOMETRIC_REPRESENTATION_CONTEXT ( 3 ) GLOBAL_UNCERTAINTY_ASSIGNED_CONTEXT ( ( #243 ) ) GLOBAL_UNIT_ASSIGNED_CONTEXT ( ( #260, #310, #38 ) ) REPRESENTATION_CONTEXT ( 'NONE', 'WORKASPACE' ) );
#100 = FILL_AREA_STYLE ('',( #139 ) ) ;
#101 = DIRECTION ( 'NONE',  ( -1.000000000000000000, -0.0000000000000000000, -0.0000000000000000000 ) ) ;
#102 = VERTEX_POINT ( 'NONE', #3 ) ;
#103 = SURFACE_SIDE_STYLE ('',( #239 ) ) ;
#104 = FACE_OUTER_BOUND ( 'NONE', #131, .T. ) ;
#105 = DIRECTION ( 'NONE',  ( 0.0000000000000000000, 0.0000000000000000000, 1.000000000000000000 ) ) ;
#106 = DIRECTION ( 'NONE',  ( -0.0000000000000000000, 1.000000000000000000, 0.0000000000000000000 ) ) ;
#107 =( NAMED_UNIT ( * ) SI_UNIT ( $, .STERADIAN. ) SOLID_ANGLE_UNIT ( ) );
#108 = PRESENTATION_LAYER_ASSIGNMENT (  '', '', ( #193 ) ) ;
#109 = CARTESIAN_POINT ( 'NONE',  ( -0.8160621761658039000, 0.0000000000000000000, 0.0000000000000000000 ) ) ;
#110 = ORIENTED_EDGE ( 'NONE', *, *, #163, .T. ) ;
#111 = DIRECTION ( 'NONE',  ( 0.0000000000000000000, 1.224646799147353200E-016, -1.000000000000000000 ) ) ;
#112 = MANIFOLD_SOLID_BREP ( 'Ðý×ª3', #304 ) ;
#113 = VERTEX_POINT ( 'NONE', #173 ) ;
#114 = FACE_OUTER_BOUND ( 'NONE', #195, .T. ) ;
#115 = EDGE_CURVE ( 'NONE', #332, #22, #265, .T. ) ;
#116 = EDGE_CURVE ( 'NONE', #44, #22, #228, .T. ) ;
#117 = DIRECTION ( 'NONE',  ( -2.249639673992786700E-032, -1.000000000000000000, -1.224646799147353200E-016 ) ) ;
#118 = FACE_OUTER_BOUND ( 'NONE', #178, .T. ) ;
#119 = STYLED_ITEM ( 'NONE', ( #246 ), #112 ) ;
#120 = ORIENTED_EDGE ( 'NONE', *, *, #298, .T. ) ;
#121 = PRESENTATION_STYLE_ASSIGNMENT (( #82 ) ) ;
#122 = CLOSED_SHELL ( 'NONE', ( #123, #154, #60, #135, #98, #54 ) ) ;
#123 = ADVANCED_FACE ( 'NONE', ( #47 ), #182, .F. ) ;
#124 = VECTOR ( 'NONE', #311, 1000.000000000000000 ) ;
#125 = CIRCLE ( 'NONE', #158, 21.23999999999997700 ) ;
#126 = DIRECTION ( 'NONE',  ( 0.0000000000000000000, -1.000000000000000000, 0.0000000000000000000 ) ) ;
#127 = DIRECTION ( 'NONE',  ( 0.0000000000000000000, 1.224646799147353200E-016, -1.000000000000000000 ) ) ;
#128 = CARTESIAN_POINT ( 'NONE',  ( 240.2900585370432200, 0.0000000000000000000, 0.0000000000000000000 ) ) ;
#129 = DIRECTION ( 'NONE',  ( 1.821459649775641000E-016, 0.0000000000000000000, 1.000000000000000000 ) ) ;
#130 = DIRECTION ( 'NONE',  ( 0.0000000000000000000, 0.0000000000000000000, 1.000000000000000000 ) ) ;
#131 = EDGE_LOOP ( 'NONE', ( #225, #147, #275, #237 ) ) ;
#132 = LINE ( 'NONE', #63, #197 ) ;
#133 = CIRCLE ( 'NONE', #37, 17.26000000000041400 ) ;
#134 = EDGE_CURVE ( 'NONE', #11, #249, #327, .T. ) ;
#135 = ADVANCED_FACE ( 'NONE', ( #118 ), #175, .F. ) ;
#136 = ORIENTED_EDGE ( 'NONE', *, *, #298, .F. ) ;
#137 = AXIS2_PLACEMENT_3D ( 'NONE', #292, #253, #74 ) ;
#138 = DIRECTION ( 'NONE',  ( 0.0000000000000000000, 0.0000000000000000000, 1.000000000000000000 ) ) ;
#139 = FILL_AREA_STYLE_COLOUR ( '', #40 ) ;
#140 = DIRECTION ( 'NONE',  ( 0.0000000000000000000, 0.0000000000000000000, 1.000000000000000000 ) ) ;
#141 = ORIENTED_EDGE ( 'NONE', *, *, #116, .F. ) ;
#142 = UNCERTAINTY_MEASURE_WITH_UNIT (LENGTH_MEASURE( 1.000000000000000100E-005 ), #189, 'distance_accuracy_value', 'NONE');
#143 = VECTOR ( 'NONE', #211, 1000.000000000000000 ) ;
#144 = CYLINDRICAL_SURFACE ( 'NONE', #210, 12.50000000000004400 ) ;
#145 = UNCERTAINTY_MEASURE_WITH_UNIT (LENGTH_MEASURE( 1.000000000000000100E-005 ), #317, 'distance_accuracy_value', 'NONE');
#146 = AXIS2_PLACEMENT_3D ( 'NONE', #281, #233, #111 ) ;
#147 = ORIENTED_EDGE ( 'NONE', *, *, #148, .T. ) ;
#148 = EDGE_CURVE ( 'NONE', #291, #113, #166, .T. ) ;
#149 = DIRECTION ( 'NONE',  ( 0.0000000000000000000, 0.0000000000000000000, 1.000000000000000000 ) ) ;
#150 = EDGE_CURVE ( 'NONE', #113, #315, #133, .T. ) ;
#151 = CARTESIAN_POINT ( 'NONE',  ( 252.1920583690048300, 0.0000000000000000000, -8.135908250643079300E-022 ) ) ;
#152 = FACE_OUTER_BOUND ( 'NONE', #285, .T. ) ;
#153 = CIRCLE ( 'NONE', #218, 162.2400000000000100 ) ;
#154 = ADVANCED_FACE ( 'NONE', ( #152 ), #324, .T. ) ;
#155 = DIRECTION ( 'NONE',  ( -0.0000000000000000000, -1.000000000000000000, -0.0000000000000000000 ) ) ;
#156 = AXIS2_PLACEMENT_3D ( 'NONE', #289, #41, #282 ) ;
#157 = DIRECTION ( 'NONE',  ( 0.0000000000000000000, 0.0000000000000000000, 1.000000000000000000 ) ) ;
#158 = AXIS2_PLACEMENT_3D ( 'NONE', #294, #126, #244 ) ;
#159 =( NAMED_UNIT ( * ) PLANE_ANGLE_UNIT ( ) SI_UNIT ( $, .RADIAN. ) );
#160 = CARTESIAN_POINT ( 'NONE',  ( 242.9320583690043800, 0.0000000000000000000, -9.934334834683328900E-015 ) ) ;
#161 = CIRCLE ( 'NONE', #185, 12.50000000000004600 ) ;
#162 = ORIENTED_EDGE ( 'NONE', *, *, #23, .F. ) ;
#163 = EDGE_CURVE ( 'NONE', #22, #332, #343, .T. ) ;
#164 = FACE_OUTER_BOUND ( 'NONE', #263, .T. ) ;
#165 = DIRECTION ( 'NONE',  ( 0.0000000000000000000, 0.0000000000000000000, -1.000000000000000000 ) ) ;
#166 = LINE ( 'NONE', #167, #143 ) ;
#167 = CARTESIAN_POINT ( 'NONE',  ( 226.8643500040778300, 1.530808498934191700E-015, -12.50000000000000200 ) ) ;
#168 = AXIS2_PLACEMENT_3D ( 'NONE', #128, #241, #51 ) ;
#169 = CARTESIAN_POINT ( 'NONE',  ( 209.6920583690048300, 0.0000000000000000000, -7.774840603276192800E-022 ) ) ;
#170 = EDGE_CURVE ( 'NONE', #11, #26, #132, .T. ) ;
#171 = CARTESIAN_POINT ( 'NONE',  ( 240.2900585370432200, 0.0000000000000000000, 12.50000000000000400 ) ) ;
#172 = PRESENTATION_STYLE_ASSIGNMENT (( #204 ) ) ;
#173 = CARTESIAN_POINT ( 'NONE',  ( 240.2900585370432200, 1.530808498934192100E-015, -12.50000000000000400 ) ) ;
#174 = ORIENTED_EDGE ( 'NONE', *, *, #115, .F. ) ;
#175 = SPHERICAL_SURFACE ( 'NONE', #240, 21.23999999999997700 ) ;
#176 = ADVANCED_BREP_SHAPE_REPRESENTATION ( '145193', ( #90, #112, #156 ), #272 ) ;
#177 = CYLINDRICAL_SURFACE ( 'NONE', #302, 12.50000000000000200 ) ;
#178 = EDGE_LOOP ( 'NONE', ( #162, #303, #213 ) ) ;
#179 = AXIS2_PLACEMENT_3D ( 'NONE', #49, #238, #306 ) ;
#180 = EDGE_LOOP ( 'NONE', ( #338, #257, #110 ) ) ;
#181 = EDGE_CURVE ( 'NONE', #102, #332, #125, .T. ) ;
#182 = SPHERICAL_SURFACE ( 'NONE', #28, 17.26000000000042100 ) ;
#183 = PRODUCT_DEFINITION_CONTEXT ( 'detailed design', #27, 'design' ) ;
#184 = FILL_AREA_STYLE ('',( #14 ) ) ;
#185 = AXIS2_PLACEMENT_3D ( 'NONE', #93, #75, #299 ) ;
#186 = ADVANCED_FACE ( 'NONE', ( #104 ), #73, .T. ) ;
#187 = DIRECTION ( 'NONE',  ( 0.0000000000000000000, 0.0000000000000000000, -1.000000000000000000 ) ) ;
#188 =( NAMED_UNIT ( * ) PLANE_ANGLE_UNIT ( ) SI_UNIT ( $, .RADIAN. ) );
#189 =( LENGTH_UNIT ( ) NAMED_UNIT ( * ) SI_UNIT ( .MILLI., .METRE. ) );
#190 = DIRECTION ( 'NONE',  ( -0.0000000000000000000, 1.000000000000000000, 0.0000000000000000000 ) ) ;
#191 = DIRECTION ( 'NONE',  ( -1.000000000000000000, -0.0000000000000000000, -0.0000000000000000000 ) ) ;
#192 = EDGE_CURVE ( 'NONE', #11, #291, #83, .T. ) ;
#193 = STYLED_ITEM ( 'NONE', ( #172 ), #176 ) ;
#194 = CARTESIAN_POINT ( 'NONE',  ( 243.4143148140202900, 0.0000000000000000000, 0.0000000000000000000 ) ) ;
#195 = EDGE_LOOP ( 'NONE', ( #227, #58, #242, #66 ) ) ;
#196 = EDGE_CURVE ( 'NONE', #113, #26, #92, .T. ) ;
#197 = VECTOR ( 'NONE', #101, 1000.000000000000000 ) ;
#198 = PRESENTATION_LAYER_ASSIGNMENT (  '', '', ( #119 ) ) ;
#199 = FACE_OUTER_BOUND ( 'NONE', #209, .T. ) ;
#200 = EDGE_LOOP ( 'NONE', ( #6, #268, #4 ) ) ;
#201 = APPLICATION_PROTOCOL_DEFINITION ( 'draft international standard', 'automotive_design', 1998, #27 ) ;
#202 = ORIENTED_EDGE ( 'NONE', *, *, #270, .F. ) ;
#203 = AXIS2_PLACEMENT_3D ( 'NONE', #277, #117, #127 ) ;
#204 = SURFACE_STYLE_USAGE ( .BOTH. , #336 ) ;
#205 = ADVANCED_FACE ( 'NONE', ( #164 ), #84, .F. ) ;
#206 = DIRECTION ( 'NONE',  ( -1.000000000000000000, -0.0000000000000000000, 1.836970198721029900E-016 ) ) ;
#207 = UNCERTAINTY_MEASURE_WITH_UNIT (LENGTH_MEASURE( 1.000000000000000100E-005 ), #96, 'distance_accuracy_value', 'NONE');
#208 = CARTESIAN_POINT ( 'NONE',  ( 240.2900585370432200, 1.530808498934197400E-015, -12.50000000000009100 ) ) ;
#209 = EDGE_LOOP ( 'NONE', ( #214, #325, #286 ) ) ;
#210 = AXIS2_PLACEMENT_3D ( 'NONE', #109, #219, #20 ) ;
#211 = DIRECTION ( 'NONE',  ( -1.000000000000000000, -0.0000000000000000000, -0.0000000000000000000 ) ) ;
#212 = CARTESIAN_POINT ( 'NONE',  ( 234.9320583690044100, 0.0000000000000000000, 2.113739561737558400E-015 ) ) ;
#213 = ORIENTED_EDGE ( 'NONE', *, *, #115, .T. ) ;
#214 = ORIENTED_EDGE ( 'NONE', *, *, #150, .F. ) ;
#215 = DIRECTION ( 'NONE',  ( 0.0000000000000000000, 0.0000000000000000000, 1.000000000000000000 ) ) ;
#216 = CARTESIAN_POINT ( 'NONE',  ( 405.1720583690043900, 0.0000000000000000000, 0.0000000000000000000 ) ) ;
#217 = APPLICATION_CONTEXT ( 'automotive_design' ) ;
#218 = AXIS2_PLACEMENT_3D ( 'NONE', #216, #221, #215 ) ;
#219 = DIRECTION ( 'NONE',  ( -1.000000000000000000, -0.0000000000000000000, 1.836970198721029900E-016 ) ) ;
#220 = FILL_AREA_STYLE ('',( #271 ) ) ;
#221 = DIRECTION ( 'NONE',  ( 0.0000000000000000000, 1.000000000000000000, -0.0000000000000000000 ) ) ;
#222 = ORIENTED_EDGE ( 'NONE', *, *, #270, .T. ) ;
#223 = AXIS2_PLACEMENT_3D ( 'NONE', #283, #206, #140 ) ;
#224 = SURFACE_STYLE_FILL_AREA ( #184 ) ;
#225 = ORIENTED_EDGE ( 'NONE', *, *, #192, .T. ) ;
#226 = ADVANCED_FACE ( 'NONE', ( #273 ), #48, .F. ) ;
#227 = ORIENTED_EDGE ( 'NONE', *, *, #148, .F. ) ;
#228 = LINE ( 'NONE', #24, #124 ) ;
#229 = ADVANCED_FACE ( 'NONE', ( #114 ), #177, .T. ) ;
#230 = DIRECTION ( 'NONE',  ( 0.0000000000000000000, 0.0000000000000000000, 1.000000000000000000 ) ) ;
#231 = CARTESIAN_POINT ( 'NONE',  ( 209.6920583690048300, 0.0000000000000000000, -7.774840603276192800E-022 ) ) ;
#232 = DIRECTION ( 'NONE',  ( -0.0000000000000000000, -1.000000000000000000, -0.0000000000000000000 ) ) ;
#233 = DIRECTION ( 'NONE',  ( 0.0000000000000000000, -1.000000000000000000, -1.224646799147353200E-016 ) ) ;
#234 = CARTESIAN_POINT ( 'NONE',  ( 252.1920583690048300, 0.0000000000000000000, -8.135908250643079300E-022 ) ) ;
#235 = EDGE_CURVE ( 'NONE', #291, #11, #50, .T. ) ;
#236 = SPHERICAL_SURFACE ( 'NONE', #329, 17.26000000000041400 ) ;
#237 = ORIENTED_EDGE ( 'NONE', *, *, #170, .F. ) ;
#238 = DIRECTION ( 'NONE',  ( 0.0000000000000000000, -1.000000000000000000, 0.0000000000000000000 ) ) ;
#239 = SURFACE_STYLE_FILL_AREA ( #100 ) ;
#240 = AXIS2_PLACEMENT_3D ( 'NONE', #231, #97, #157 ) ;
#241 = DIRECTION ( 'NONE',  ( -1.000000000000000000, -0.0000000000000000000, -0.0000000000000000000 ) ) ;
#242 = ORIENTED_EDGE ( 'NONE', *, *, #170, .T. ) ;
#243 = UNCERTAINTY_MEASURE_WITH_UNIT (LENGTH_MEASURE( 1.000000000000000100E-005 ), #260, 'distance_accuracy_value', 'NONE');
#244 = DIRECTION ( 'NONE',  ( 0.0000000000000000000, 0.0000000000000000000, -1.000000000000000000 ) ) ;
#245 = VECTOR ( 'NONE', #10, 1000.000000000000000 ) ;
#246 = PRESENTATION_STYLE_ASSIGNMENT (( #76 ) ) ;
#247 = EDGE_LOOP ( 'NONE', ( #259, #278, #65 ) ) ;
#248 = AXIS2_PLACEMENT_3D ( 'NONE', #255, #321, #346 ) ;
#249 = VERTEX_POINT ( 'NONE', #160 ) ;
#250 = EDGE_CURVE ( 'NONE', #26, #113, #89, .T. ) ;
#251 = SURFACE_STYLE_FILL_AREA ( #220 ) ;
#252 = ORIENTED_EDGE ( 'NONE', *, *, #116, .T. ) ;
#253 = DIRECTION ( 'NONE',  ( -0.0000000000000000000, -1.000000000000000000, -0.0000000000000000000 ) ) ;
#254 = FACE_OUTER_BOUND ( 'NONE', #94, .T. ) ;
#255 = CARTESIAN_POINT ( 'NONE',  ( 226.8643500040778300, 0.0000000000000000000, 0.0000000000000000000 ) ) ;
#256 = CARTESIAN_POINT ( 'NONE',  ( 252.1920583690048300, 0.0000000000000000000, -8.135908250643079300E-022 ) ) ;
#257 = ORIENTED_EDGE ( 'NONE', *, *, #23, .T. ) ;
#258 = CIRCLE ( 'NONE', #223, 12.50000000000004600 ) ;
#259 = ORIENTED_EDGE ( 'NONE', *, *, #192, .F. ) ;
#260 =( LENGTH_UNIT ( ) NAMED_UNIT ( * ) SI_UNIT ( .MILLI., .METRE. ) );
#261 = DIRECTION ( 'NONE',  ( 0.0000000000000000000, 0.0000000000000000000, 1.000000000000000000 ) ) ;
#262 = CARTESIAN_POINT ( 'NONE',  ( 234.9320583690044100, 0.0000000000000000000, 1.056869374073366200E-015 ) ) ;
#263 = EDGE_LOOP ( 'NONE', ( #86, #29, #347 ) ) ;
#264 = CARTESIAN_POINT ( 'NONE',  ( 252.1920583690048300, 0.0000000000000000000, -8.135908250643079300E-022 ) ) ;
#265 = CIRCLE ( 'NONE', #91, 12.50000000000004300 ) ;
#266 = AXIS2_PLACEMENT_3D ( 'NONE', #13, #191, #68 ) ;
#267 = CARTESIAN_POINT ( 'NONE',  ( 243.4143148140202900, 1.530808498934191700E-015, -12.50000000000000000 ) ) ;
#268 = ORIENTED_EDGE ( 'NONE', *, *, #150, .T. ) ;
#269 = DIRECTION ( 'NONE',  ( 0.0000000000000000000, 0.0000000000000000000, 1.000000000000000000 ) ) ;
#270 = EDGE_CURVE ( 'NONE', #44, #21, #258, .T. ) ;
#271 = FILL_AREA_STYLE_COLOUR ( '', #333 ) ;
#272 =( GEOMETRIC_REPRESENTATION_CONTEXT ( 3 ) GLOBAL_UNCERTAINTY_ASSIGNED_CONTEXT ( ( #207 ) ) GLOBAL_UNIT_ASSIGNED_CONTEXT ( ( #96, #18, #107 ) ) REPRESENTATION_CONTEXT ( 'NONE', 'WORKASPACE' ) );
#273 = FACE_OUTER_BOUND ( 'NONE', #247, .T. ) ;
#274 = SHAPE_DEFINITION_REPRESENTATION ( #308, #176 ) ;
#275 = ORIENTED_EDGE ( 'NONE', *, *, #250, .F. ) ;
#276 = EDGE_CURVE ( 'NONE', #21, #44, #161, .T. ) ;
#277 = CARTESIAN_POINT ( 'NONE',  ( 252.1920583690048300, 0.0000000000000000000, -8.135908250643079300E-022 ) ) ;
#278 = ORIENTED_EDGE ( 'NONE', *, *, #134, .T. ) ;
#279 = ORIENTED_EDGE ( 'NONE', *, *, #276, .T. ) ;
#280 = SPHERICAL_SURFACE ( 'NONE', #342, 21.23999999999997700 ) ;
#281 = CARTESIAN_POINT ( 'NONE',  ( 405.1720583690043900, 0.0000000000000000000, 0.0000000000000000000 ) ) ;
#282 = DIRECTION ( 'NONE',  ( 1.000000000000000000, 0.0000000000000000000, 0.0000000000000000000 ) ) ;
#283 = CARTESIAN_POINT ( 'NONE',  ( 240.2900585370432200, 0.0000000000000000000, -4.429047584794002000E-014 ) ) ;
#284 =( GEOMETRIC_REPRESENTATION_CONTEXT ( 3 ) GLOBAL_UNCERTAINTY_ASSIGNED_CONTEXT ( ( #145 ) ) GLOBAL_UNIT_ASSIGNED_CONTEXT ( ( #317, #188, #337 ) ) REPRESENTATION_CONTEXT ( 'NONE', 'WORKASPACE' ) );
#285 = EDGE_LOOP ( 'NONE', ( #279, #252, #174, #136 ) ) ;
#286 = ORIENTED_EDGE ( 'NONE', *, *, #32, .T. ) ;
#287 = CARTESIAN_POINT ( 'NONE',  ( 243.4143148140202900, 0.0000000000000000000, 12.50000000000000000 ) ) ;
#288 = FACE_OUTER_BOUND ( 'NONE', #78, .T. ) ;
#289 = CARTESIAN_POINT ( 'NONE',  ( 0.0000000000000000000, 0.0000000000000000000, 0.0000000000000000000 ) ) ;
#290 = SPHERICAL_SURFACE ( 'NONE', #16, 17.26000000000042100 ) ;
#291 = VERTEX_POINT ( 'NONE', #267 ) ;
#292 = CARTESIAN_POINT ( 'NONE',  ( 405.1720583690043900, 0.0000000000000000000, 0.0000000000000000000 ) ) ;
#293 = AXIS2_PLACEMENT_3D ( 'NONE', #344, #15, #61 ) ;
#294 = CARTESIAN_POINT ( 'NONE',  ( 209.6920583690048300, 0.0000000000000000000, -7.774840603276192800E-022 ) ) ;
#295 = ORIENTED_EDGE ( 'NONE', *, *, #53, .F. ) ;
#296 = CIRCLE ( 'NONE', #179, 17.26000000000041400 ) ;
#297 = PRODUCT ( '145193', '145193', '', ( #335 ) ) ;
#298 = EDGE_CURVE ( 'NONE', #21, #332, #77, .T. ) ;
#299 = DIRECTION ( 'NONE',  ( 0.0000000000000000000, 0.0000000000000000000, 1.000000000000000000 ) ) ;
#300 = ADVANCED_FACE ( 'NONE', ( #199 ), #236, .T. ) ;
#301 = FACE_OUTER_BOUND ( 'NONE', #180, .T. ) ;
#302 = AXIS2_PLACEMENT_3D ( 'NONE', #64, #67, #138 ) ;
#303 = ORIENTED_EDGE ( 'NONE', *, *, #181, .T. ) ;
#304 = CLOSED_SHELL ( 'NONE', ( #226, #186, #30, #300, #229, #205 ) ) ;
#305 = APPLICATION_PROTOCOL_DEFINITION ( 'draft international standard', 'automotive_design', 1998, #217 ) ;
#306 = DIRECTION ( 'NONE',  ( 0.0000000000000000000, 0.0000000000000000000, -1.000000000000000000 ) ) ;
#307 = AXIS2_PLACEMENT_3D ( 'NONE', #340, #52, #130 ) ;
#308 = PRODUCT_DEFINITION_SHAPE ( 'NONE', 'NONE',  #31 ) ;
#309 = DIRECTION ( 'NONE',  ( -1.000000000000000000, -0.0000000000000000000, -0.0000000000000000000 ) ) ;
#310 =( NAMED_UNIT ( * ) PLANE_ANGLE_UNIT ( ) SI_UNIT ( $, .RADIAN. ) );
#311 = DIRECTION ( 'NONE',  ( -1.000000000000000000, -0.0000000000000000000, 1.836970198721029900E-016 ) ) ;
#312 = CIRCLE ( 'NONE', #1, 17.26000000000042100 ) ;
#313 = DIRECTION ( 'NONE',  ( -0.0000000000000000000, -1.000000000000000000, -0.0000000000000000000 ) ) ;
#314 = DIRECTION ( 'NONE',  ( -1.000000000000000000, -0.0000000000000000000, 1.836970198721029900E-016 ) ) ;
#315 = VERTEX_POINT ( 'NONE', #262 ) ;
#316 = VERTEX_POINT ( 'NONE', #212 ) ;
#317 =( LENGTH_UNIT ( ) NAMED_UNIT ( * ) SI_UNIT ( .MILLI., .METRE. ) );
#318 = SPHERICAL_SURFACE ( 'NONE', #307, 17.26000000000041400 ) ;
#319 = AXIS2_PLACEMENT_3D ( 'NONE', #43, #155, #187 ) ;
#320 = DIRECTION ( 'NONE',  ( 0.0000000000000000000, 0.0000000000000000000, -1.000000000000000000 ) ) ;
#321 = DIRECTION ( 'NONE',  ( -1.000000000000000000, -0.0000000000000000000, -0.0000000000000000000 ) ) ;
#322 = ORIENTED_EDGE ( 'NONE', *, *, #53, .T. ) ;
#323 = PRODUCT_DEFINITION_FORMATION_WITH_SPECIFIED_SOURCE ( 'ÈÎºÎ', '', #297, .NOT_KNOWN. ) ;
#324 = CYLINDRICAL_SURFACE ( 'NONE', #55, 12.50000000000004400 ) ;
#325 = ORIENTED_EDGE ( 'NONE', *, *, #196, .T. ) ;
#326 = STYLED_ITEM ( 'NONE', ( #121 ), #90 ) ;
#327 = CIRCLE ( 'NONE', #146, 162.2400000000000100 ) ;
#328 = FACE_OUTER_BOUND ( 'NONE', #200, .T. ) ;
#329 = AXIS2_PLACEMENT_3D ( 'NONE', #151, #62, #149 ) ;
#330 = PRODUCT_RELATED_PRODUCT_CATEGORY ( 'part', '', ( #297 ) ) ;
#331 = EDGE_CURVE ( 'NONE', #21, #316, #7, .T. ) ;
#332 = VERTEX_POINT ( 'NONE', #33 ) ;
#333 = COLOUR_RGB ( '',1.000000000000000000, 1.000000000000000000, 1.000000000000000000 ) ;
#334 = DIRECTION ( 'NONE',  ( -1.000000000000000000, -0.0000000000000000000, -0.0000000000000000000 ) ) ;
#335 = PRODUCT_CONTEXT ( 'NONE', #217, 'mechanical' ) ;
#336 = SURFACE_SIDE_STYLE ('',( #224 ) ) ;
#337 =( NAMED_UNIT ( * ) SI_UNIT ( $, .STERADIAN. ) SOLID_ANGLE_UNIT ( ) );
#338 = ORIENTED_EDGE ( 'NONE', *, *, #181, .F. ) ;
#339 = DIRECTION ( 'NONE',  ( 2.249639673992786700E-032, 1.000000000000000000, 1.224646799147353200E-016 ) ) ;
#340 = CARTESIAN_POINT ( 'NONE',  ( 252.1920583690048300, 0.0000000000000000000, -8.135908250643079300E-022 ) ) ;
#341 = EDGE_LOOP ( 'NONE', ( #8, #71, #295 ) ) ;
#342 = AXIS2_PLACEMENT_3D ( 'NONE', #36, #106, #261 ) ;
#343 = CIRCLE ( 'NONE', #293, 12.50000000000004300 ) ;
#344 = CARTESIAN_POINT ( 'NONE',  ( 226.8643500040778300, 0.0000000000000000000, -4.182421320076282000E-014 ) ) ;
#345 = CIRCLE ( 'NONE', #79, 21.23999999999997700 ) ;
#346 = DIRECTION ( 'NONE',  ( 0.0000000000000000000, 0.0000000000000000000, 1.000000000000000000 ) ) ;
#347 = ORIENTED_EDGE ( 'NONE', *, *, #87, .T. ) ;
ENDSEC;
END-ISO-10303-21;
