ISO-10303-21;
HEADER;
FILE_DESCRIPTION (( 'STEP AP214' ),
    '1' );
FILE_NAME ('145194.STEP',
    '2019-06-13T06:20:13',
    ( 'user' ),
    ( 'Î¢ÈíÖÐ¹ú' ),
    'SwSTEP 2.0',
    'SolidWorks 2016',
    '' );
FILE_SCHEMA (( 'AUTOMOTIVE_DESIGN' ));
ENDSEC;

DATA;
#1 = PRODUCT_DEFINITION_SHAPE ( 'NONE', 'NONE',  #212 ) ;
#2 = APPLICATION_CONTEXT ( 'automotive_design' ) ;
#3 = DIRECTION ( 'NONE',  ( 0.0000000000000000000, 1.000000000000000000, 0.0000000000000000000 ) ) ;
#4 = AXIS2_PLACEMENT_3D ( 'NONE', #97, #197, #305 ) ;
#5 = LINE ( 'NONE', #258, #41 ) ;
#6 = DIRECTION ( 'NONE',  ( 0.0000000000000000000, 0.0000000000000000000, -1.000000000000000000 ) ) ;
#7 = CARTESIAN_POINT ( 'NONE',  ( 228.1020287689708800, 0.0000000000000000000, 0.0000000000000000000 ) ) ;
#8 = EDGE_CURVE ( 'NONE', #235, #236, #18, .T. ) ;
#9 = CARTESIAN_POINT ( 'NONE',  ( -0.8160621761658039000, 0.0000000000000000000, 0.0000000000000000000 ) ) ;
#10 = FACE_OUTER_BOUND ( 'NONE', #46, .T. ) ;
#11 = PRESENTATION_LAYER_ASSIGNMENT (  '', '', ( #19 ) ) ;
#12 = ORIENTED_EDGE ( 'NONE', *, *, #64, .T. ) ;
#13 = CIRCLE ( 'NONE', #56, 12.49999999999998800 ) ;
#14 = SURFACE_STYLE_USAGE ( .BOTH. , #171 ) ;
#15 = ADVANCED_FACE ( 'NONE', ( #292 ), #245, .T. ) ;
#16 = EDGE_LOOP ( 'NONE', ( #134, #269, #327 ) ) ;
#17 = CYLINDRICAL_SURFACE ( 'NONE', #337, 12.50000000000004300 ) ;
#18 = LINE ( 'NONE', #152, #270 ) ;
#19 = STYLED_ITEM ( 'NONE', ( #239 ), #33 ) ;
#20 = FACE_OUTER_BOUND ( 'NONE', #128, .T. ) ;
#21 = VECTOR ( 'NONE', #222, 1000.000000000000000 ) ;
#22 = MECHANICAL_DESIGN_GEOMETRIC_PRESENTATION_REPRESENTATION (  '', ( #309 ), #106 ) ;
#23 = CARTESIAN_POINT ( 'NONE',  ( 228.1020287689708800, 0.0000000000000000000, 12.50000000000000000 ) ) ;
#24 = CIRCLE ( 'NONE', #267, 12.50000000000004400 ) ;
#25 = CIRCLE ( 'NONE', #242, 12.50000000000000200 ) ;
#26 = DIRECTION ( 'NONE',  ( -1.000000000000000000, -0.0000000000000000000, -0.0000000000000000000 ) ) ;
#27 = AXIS2_PLACEMENT_3D ( 'NONE', #105, #81, #136 ) ;
#28 = ORIENTED_EDGE ( 'NONE', *, *, #220, .T. ) ;
#29 = LINE ( 'NONE', #260, #21 ) ;
#30 = ORIENTED_EDGE ( 'NONE', *, *, #184, .F. ) ;
#31 = CARTESIAN_POINT ( 'NONE',  ( 238.8571545780562800, 0.0000000000000000000, 0.0000000000000000000 ) ) ;
#32 = APPLICATION_PROTOCOL_DEFINITION ( 'draft international standard', 'automotive_design', 1998, #2 ) ;
#33 = MANIFOLD_SOLID_BREP ( 'Ðý×ª1', #206 ) ;
#34 = CARTESIAN_POINT ( 'NONE',  ( 199.5264080408047100, 0.0000000000000000000, -7.774840603276192800E-022 ) ) ;
#35 = AXIS2_PLACEMENT_3D ( 'NONE', #141, #65, #232 ) ;
#36 = CARTESIAN_POINT ( 'NONE',  ( 258.6064080408046900, 0.0000000000000000000, -7.042604883983359700E-022 ) ) ;
#37 = CIRCLE ( 'NONE', #43, 12.50000000000004300 ) ;
#38 = ORIENTED_EDGE ( 'NONE', *, *, #49, .F. ) ;
#39 = ADVANCED_FACE ( 'NONE', ( #221 ), #47, .F. ) ;
#40 = DIRECTION ( 'NONE',  ( 0.0000000000000000000, 0.0000000000000000000, 1.000000000000000000 ) ) ;
#41 = VECTOR ( 'NONE', #48, 1000.000000000000000 ) ;
#42 = ORIENTED_EDGE ( 'NONE', *, *, #68, .T. ) ;
#43 = AXIS2_PLACEMENT_3D ( 'NONE', #224, #156, #107 ) ;
#44 = CARTESIAN_POINT ( 'NONE',  ( 233.7164080408047400, 0.0000000000000000000, 1.524072237278391000E-015 ) ) ;
#45 = CIRCLE ( 'NONE', #35, 31.18999999999999400 ) ;
#46 = EDGE_LOOP ( 'NONE', ( #183, #122, #241, #58 ) ) ;
#47 = SPHERICAL_SURFACE ( 'NONE', #284, 85.31000000000001600 ) ;
#48 = DIRECTION ( 'NONE',  ( -1.000000000000000000, -0.0000000000000000000, 1.836970198721029700E-016 ) ) ;
#49 = EDGE_CURVE ( 'NONE', #235, #209, #159, .T. ) ;
#50 = AXIS2_PLACEMENT_3D ( 'NONE', #146, #210, #208 ) ;
#51 = ORIENTED_EDGE ( 'NONE', *, *, #62, .F. ) ;
#52 = MANIFOLD_SOLID_BREP ( 'Ðý×ª3', #63 ) ;
#53 = CIRCLE ( 'NONE', #259, 85.31000000000001600 ) ;
#54 = VERTEX_POINT ( 'NONE', #44 ) ;
#55 = DIRECTION ( 'NONE',  ( -1.000000000000000000, -0.0000000000000000000, 1.836970198721029700E-016 ) ) ;
#56 = AXIS2_PLACEMENT_3D ( 'NONE', #317, #338, #40 ) ;
#57 = CIRCLE ( 'NONE', #304, 31.18999999999999400 ) ;
#58 = ORIENTED_EDGE ( 'NONE', *, *, #64, .F. ) ;
#59 = AXIS2_PLACEMENT_3D ( 'NONE', #34, #99, #117 ) ;
#60 = DIRECTION ( 'NONE',  ( 0.0000000000000000000, 0.0000000000000000000, -1.000000000000000000 ) ) ;
#61 = DIRECTION ( 'NONE',  ( 0.0000000000000000000, -1.000000000000000000, -1.224646799147353200E-016 ) ) ;
#62 = EDGE_CURVE ( 'NONE', #217, #294, #29, .T. ) ;
#63 = CLOSED_SHELL ( 'NONE', ( #39, #251, #315, #15, #95, #237 ) ) ;
#64 = EDGE_CURVE ( 'NONE', #225, #294, #13, .T. ) ;
#65 = DIRECTION ( 'NONE',  ( 0.0000000000000000000, -1.000000000000000000, 0.0000000000000000000 ) ) ;
#66 = ADVANCED_FACE ( 'NONE', ( #115 ), #104, .F. ) ;
#67 = ORIENTED_EDGE ( 'NONE', *, *, #143, .T. ) ;
#68 = EDGE_CURVE ( 'NONE', #294, #225, #343, .T. ) ;
#69 = CARTESIAN_POINT ( 'NONE',  ( 228.1020287689708800, 1.530808498934190700E-015, -12.49999999999999300 ) ) ;
#70 = DIRECTION ( 'NONE',  ( 0.0000000000000000000, 0.0000000000000000000, 1.000000000000000000 ) ) ;
#71 = PRESENTATION_LAYER_ASSIGNMENT (  '', '', ( #309 ) ) ;
#72 = DIRECTION ( 'NONE',  ( 0.0000000000000000000, 1.000000000000000000, 0.0000000000000000000 ) ) ;
#73 = ORIENTED_EDGE ( 'NONE', *, *, #123, .F. ) ;
#74 = DIRECTION ( 'NONE',  ( -1.000000000000000000, -0.0000000000000000000, 1.836970198721029700E-016 ) ) ;
#75 =( NAMED_UNIT ( * ) SI_UNIT ( $, .STERADIAN. ) SOLID_ANGLE_UNIT ( ) );
#76 = FILL_AREA_STYLE ('',( #323 ) ) ;
#77 = ORIENTED_EDGE ( 'NONE', *, *, #160, .F. ) ;
#78 = AXIS2_PLACEMENT_3D ( 'NONE', #280, #265, #94 ) ;
#79 = DIRECTION ( 'NONE',  ( 0.0000000000000000000, 1.000000000000000000, -0.0000000000000000000 ) ) ;
#80 = SPHERICAL_SURFACE ( 'NONE', #296, 24.88999999999998300 ) ;
#81 = DIRECTION ( 'NONE',  ( -0.0000000000000000000, 1.000000000000000000, 1.224646799147353200E-016 ) ) ;
#82 = ORIENTED_EDGE ( 'NONE', *, *, #172, .T. ) ;
#83 = MECHANICAL_DESIGN_GEOMETRIC_PRESENTATION_REPRESENTATION (  '', ( #19 ), #164 ) ;
#84 = CARTESIAN_POINT ( 'NONE',  ( 233.7164080408047400, 0.0000000000000000000, 3.048145178817270800E-015 ) ) ;
#85 = EDGE_CURVE ( 'NONE', #231, #285, #5, .T. ) ;
#86 = UNCERTAINTY_MEASURE_WITH_UNIT (LENGTH_MEASURE( 1.000000000000000100E-005 ), #344, 'distance_accuracy_value', 'NONE');
#87 = DIRECTION ( 'NONE',  ( -1.000000000000000000, -0.0000000000000000000, -0.0000000000000000000 ) ) ;
#88 = CARTESIAN_POINT ( 'NONE',  ( 238.8571545780562800, 0.0000000000000000000, 0.0000000000000000000 ) ) ;
#89 =( NAMED_UNIT ( * ) PLANE_ANGLE_UNIT ( ) SI_UNIT ( $, .RADIAN. ) );
#90 = DIRECTION ( 'NONE',  ( -1.000000000000000000, -0.0000000000000000000, 1.836970198721029700E-016 ) ) ;
#91 = AXIS2_PLACEMENT_3D ( 'NONE', #205, #176, #70 ) ;
#92 = CIRCLE ( 'NONE', #91, 12.50000000000004300 ) ;
#93 = AXIS2_PLACEMENT_3D ( 'NONE', #36, #72, #340 ) ;
#94 = DIRECTION ( 'NONE',  ( 0.0000000000000000000, 0.0000000000000000000, -1.000000000000000000 ) ) ;
#95 = ADVANCED_FACE ( 'NONE', ( #10 ), #262, .T. ) ;
#96 = ORIENTED_EDGE ( 'NONE', *, *, #98, .F. ) ;
#97 = CARTESIAN_POINT ( 'NONE',  ( 199.5264080408047100, 0.0000000000000000000, -7.774840603276192800E-022 ) ) ;
#98 = EDGE_CURVE ( 'NONE', #231, #235, #196, .T. ) ;
#99 = DIRECTION ( 'NONE',  ( -0.0000000000000000000, 1.000000000000000000, 0.0000000000000000000 ) ) ;
#100 = DIRECTION ( 'NONE',  ( 0.0000000000000000000, 0.0000000000000000000, 1.000000000000000000 ) ) ;
#101 = AXIS2_PLACEMENT_3D ( 'NONE', #287, #74, #110 ) ;
#102 = CARTESIAN_POINT ( 'NONE',  ( 237.9364080408047400, 0.0000000000000000000, -5.223730921763036300E-015 ) ) ;
#103 = EDGE_LOOP ( 'NONE', ( #96, #312, #38 ) ) ;
#104 = SPHERICAL_SURFACE ( 'NONE', #4, 31.18999999999999400 ) ;
#105 = CARTESIAN_POINT ( 'NONE',  ( 258.6064080408046900, 0.0000000000000000000, -7.042604883983359700E-022 ) ) ;
#106 =( GEOMETRIC_REPRESENTATION_CONTEXT ( 3 ) GLOBAL_UNCERTAINTY_ASSIGNED_CONTEXT ( ( #138 ) ) GLOBAL_UNIT_ASSIGNED_CONTEXT ( ( #330, #195, #165 ) ) REPRESENTATION_CONTEXT ( 'NONE', 'WORKASPACE' ) );
#107 = DIRECTION ( 'NONE',  ( 0.0000000000000000000, 0.0000000000000000000, 1.000000000000000000 ) ) ;
#108 = ORIENTED_EDGE ( 'NONE', *, *, #342, .F. ) ;
#109 = CARTESIAN_POINT ( 'NONE',  ( 228.1020287689708800, 1.530808498934197000E-015, -12.50000000000004800 ) ) ;
#110 = DIRECTION ( 'NONE',  ( 0.0000000000000000000, 0.0000000000000000000, 1.000000000000000000 ) ) ;
#111 = STYLED_ITEM ( 'NONE', ( #199 ), #298 ) ;
#112 = LINE ( 'NONE', #69, #289 ) ;
#113 = DIRECTION ( 'NONE',  ( 0.0000000000000000000, 0.0000000000000000000, 1.000000000000000000 ) ) ;
#114 = CARTESIAN_POINT ( 'NONE',  ( 0.0000000000000000000, 0.0000000000000000000, 0.0000000000000000000 ) ) ;
#115 = FACE_OUTER_BOUND ( 'NONE', #321, .T. ) ;
#116 = DIRECTION ( 'NONE',  ( 0.0000000000000000000, 1.224646799147353200E-016, -1.000000000000000000 ) ) ;
#117 = DIRECTION ( 'NONE',  ( 0.0000000000000000000, 0.0000000000000000000, 1.000000000000000000 ) ) ;
#118 = ADVANCED_FACE ( 'NONE', ( #174 ), #169, .F. ) ;
#119 = CIRCLE ( 'NONE', #148, 12.50000000000000200 ) ;
#120 = ORIENTED_EDGE ( 'NONE', *, *, #68, .F. ) ;
#121 = FILL_AREA_STYLE_COLOUR ( '', #149 ) ;
#122 = ORIENTED_EDGE ( 'NONE', *, *, #160, .T. ) ;
#123 = EDGE_CURVE ( 'NONE', #336, #236, #57, .T. ) ;
#124 = ADVANCED_FACE ( 'NONE', ( #173 ), #80, .F. ) ;
#125 = DIRECTION ( 'NONE',  ( -1.000000000000000000, -0.0000000000000000000, -0.0000000000000000000 ) ) ;
#126 = EDGE_LOOP ( 'NONE', ( #30, #274, #307 ) ) ;
#127 = AXIS2_PLACEMENT_3D ( 'NONE', #201, #226, #113 ) ;
#128 = EDGE_LOOP ( 'NONE', ( #218, #234, #229, #200 ) ) ;
#129 = EDGE_CURVE ( 'NONE', #294, #54, #288, .T. ) ;
#130 = PRODUCT ( '145194', '145194', '', ( #131 ) ) ;
#131 = PRODUCT_CONTEXT ( 'NONE', #157, 'mechanical' ) ;
#132 =( GEOMETRIC_REPRESENTATION_CONTEXT ( 3 ) GLOBAL_UNCERTAINTY_ASSIGNED_CONTEXT ( ( #187 ) ) GLOBAL_UNIT_ASSIGNED_CONTEXT ( ( #306, #211, #75 ) ) REPRESENTATION_CONTEXT ( 'NONE', 'WORKASPACE' ) );
#133 = CARTESIAN_POINT ( 'NONE',  ( 323.2464080408047400, 0.0000000000000000000, 0.0000000000000000000 ) ) ;
#134 = ORIENTED_EDGE ( 'NONE', *, *, #238, .F. ) ;
#135 = ORIENTED_EDGE ( 'NONE', *, *, #129, .T. ) ;
#136 = DIRECTION ( 'NONE',  ( 0.0000000000000000000, -1.224646799147353200E-016, 1.000000000000000000 ) ) ;
#137 = DIRECTION ( 'NONE',  ( 0.0000000000000000000, 1.224646799147353200E-016, -1.000000000000000000 ) ) ;
#138 = UNCERTAINTY_MEASURE_WITH_UNIT (LENGTH_MEASURE( 1.000000000000000100E-005 ), #330, 'distance_accuracy_value', 'NONE');
#139 = CIRCLE ( 'NONE', #27, 24.88999999999997600 ) ;
#140 = ORIENTED_EDGE ( 'NONE', *, *, #98, .T. ) ;
#141 = CARTESIAN_POINT ( 'NONE',  ( 199.5264080408047100, 0.0000000000000000000, -7.774840603276192800E-022 ) ) ;
#142 = CARTESIAN_POINT ( 'NONE',  ( 237.0828837011432600, 1.530808498934189700E-015, -12.49999999999998800 ) ) ;
#143 = EDGE_CURVE ( 'NONE', #336, #285, #45, .T. ) ;
#144 = CARTESIAN_POINT ( 'NONE',  ( 237.0828837011432600, 0.0000000000000000000, 12.50000000000000000 ) ) ;
#145 = ORIENTED_EDGE ( 'NONE', *, *, #123, .T. ) ;
#146 = CARTESIAN_POINT ( 'NONE',  ( 237.0828837011432600, 0.0000000000000000000, 0.0000000000000000000 ) ) ;
#147 = CARTESIAN_POINT ( 'NONE',  ( 258.6064080408046900, 0.0000000000000000000, -7.042604883983359700E-022 ) ) ;
#148 = AXIS2_PLACEMENT_3D ( 'NONE', #88, #194, #272 ) ;
#149 = COLOUR_RGB ( '',1.000000000000000000, 1.000000000000000000, 1.000000000000000000 ) ;
#150 = CARTESIAN_POINT ( 'NONE',  ( 199.5264080408047100, 0.0000000000000000000, -7.774840603276192800E-022 ) ) ;
#151 = AXIS2_PLACEMENT_3D ( 'NONE', #277, #301, #137 ) ;
#152 = CARTESIAN_POINT ( 'NONE',  ( -0.8160621761658062300, 1.530808498934196800E-015, -12.50000000000004300 ) ) ;
#153 = FACE_OUTER_BOUND ( 'NONE', #302, .T. ) ;
#154 = FILL_AREA_STYLE ('',( #198 ) ) ;
#155 = COLOUR_RGB ( '',1.000000000000000000, 1.000000000000000000, 1.000000000000000000 ) ;
#156 = DIRECTION ( 'NONE',  ( -1.000000000000000000, -0.0000000000000000000, 1.836970198721029700E-016 ) ) ;
#157 = APPLICATION_CONTEXT ( 'automotive_design' ) ;
#158 = CYLINDRICAL_SURFACE ( 'NONE', #230, 12.49999999999999300 ) ;
#159 = CIRCLE ( 'NONE', #246, 24.88999999999998300 ) ;
#160 = EDGE_CURVE ( 'NONE', #263, #217, #25, .T. ) ;
#161 = SPHERICAL_SURFACE ( 'NONE', #59, 31.18999999999999400 ) ;
#162 = PRESENTATION_STYLE_ASSIGNMENT (( #14 ) ) ;
#163 = DIRECTION ( 'NONE',  ( -0.0000000000000000000, 1.000000000000000000, 0.0000000000000000000 ) ) ;
#164 =( GEOMETRIC_REPRESENTATION_CONTEXT ( 3 ) GLOBAL_UNCERTAINTY_ASSIGNED_CONTEXT ( ( #204 ) ) GLOBAL_UNIT_ASSIGNED_CONTEXT ( ( #313, #89, #175 ) ) REPRESENTATION_CONTEXT ( 'NONE', 'WORKASPACE' ) );
#165 =( NAMED_UNIT ( * ) SI_UNIT ( $, .STERADIAN. ) SOLID_ANGLE_UNIT ( ) );
#166 = CARTESIAN_POINT ( 'NONE',  ( -0.8160621761658039000, 0.0000000000000000000, 0.0000000000000000000 ) ) ;
#167 = SURFACE_STYLE_FILL_AREA ( #76 ) ;
#168 = FACE_OUTER_BOUND ( 'NONE', #291, .T. ) ;
#169 = SPHERICAL_SURFACE ( 'NONE', #333, 24.88999999999998300 ) ;
#170 = ADVANCED_FACE ( 'NONE', ( #181 ), #161, .F. ) ;
#171 = SURFACE_SIDE_STYLE ('',( #182 ) ) ;
#172 = EDGE_CURVE ( 'NONE', #263, #225, #112, .T. ) ;
#173 = FACE_OUTER_BOUND ( 'NONE', #103, .T. ) ;
#174 = FACE_OUTER_BOUND ( 'NONE', #16, .T. ) ;
#175 =( NAMED_UNIT ( * ) SI_UNIT ( $, .STERADIAN. ) SOLID_ANGLE_UNIT ( ) );
#176 = DIRECTION ( 'NONE',  ( -1.000000000000000000, -0.0000000000000000000, 1.836970198721029700E-016 ) ) ;
#177 = EDGE_CURVE ( 'NONE', #236, #285, #92, .T. ) ;
#178 = CYLINDRICAL_SURFACE ( 'NONE', #273, 12.50000000000004300 ) ;
#179 = FILL_AREA_STYLE ('',( #121 ) ) ;
#180 = DIRECTION ( 'NONE',  ( -1.000000000000000000, -0.0000000000000000000, 1.836970198721029700E-016 ) ) ;
#181 = FACE_OUTER_BOUND ( 'NONE', #297, .T. ) ;
#182 = SURFACE_STYLE_FILL_AREA ( #179 ) ;
#183 = ORIENTED_EDGE ( 'NONE', *, *, #172, .F. ) ;
#184 = EDGE_CURVE ( 'NONE', #217, #263, #119, .T. ) ;
#185 = CARTESIAN_POINT ( 'NONE',  ( 230.7164080408047100, 0.0000000000000000000, -3.819674144024654000E-015 ) ) ;
#186 = PRESENTATION_LAYER_ASSIGNMENT (  '', '', ( #111 ) ) ;
#187 = UNCERTAINTY_MEASURE_WITH_UNIT (LENGTH_MEASURE( 1.000000000000000100E-005 ), #306, 'distance_accuracy_value', 'NONE');
#188 =( NAMED_UNIT ( * ) PLANE_ANGLE_UNIT ( ) SI_UNIT ( $, .RADIAN. ) );
#189 = AXIS2_PLACEMENT_3D ( 'NONE', #114, #192, #219 ) ;
#190 = CARTESIAN_POINT ( 'NONE',  ( 237.0828837011432600, 0.0000000000000000000, 12.49999999999998800 ) ) ;
#191 = EDGE_CURVE ( 'NONE', #235, #231, #24, .T. ) ;
#192 = DIRECTION ( 'NONE',  ( 0.0000000000000000000, 0.0000000000000000000, 1.000000000000000000 ) ) ;
#193 =( GEOMETRIC_REPRESENTATION_CONTEXT ( 3 ) GLOBAL_UNCERTAINTY_ASSIGNED_CONTEXT ( ( #86 ) ) GLOBAL_UNIT_ASSIGNED_CONTEXT ( ( #344, #188, #213 ) ) REPRESENTATION_CONTEXT ( 'NONE', 'WORKASPACE' ) );
#194 = DIRECTION ( 'NONE',  ( -1.000000000000000000, -0.0000000000000000000, -0.0000000000000000000 ) ) ;
#195 =( NAMED_UNIT ( * ) PLANE_ANGLE_UNIT ( ) SI_UNIT ( $, .RADIAN. ) );
#196 = CIRCLE ( 'NONE', #101, 12.50000000000004400 ) ;
#197 = DIRECTION ( 'NONE',  ( -0.0000000000000000000, 1.000000000000000000, 0.0000000000000000000 ) ) ;
#198 = FILL_AREA_STYLE_COLOUR ( '', #286 ) ;
#199 = PRESENTATION_STYLE_ASSIGNMENT (( #250 ) ) ;
#200 = ORIENTED_EDGE ( 'NONE', *, *, #177, .F. ) ;
#201 = CARTESIAN_POINT ( 'NONE',  ( 228.1020287689708800, 0.0000000000000000000, 0.0000000000000000000 ) ) ;
#202 = PRODUCT_DEFINITION_FORMATION_WITH_SPECIFIED_SOURCE ( 'ÈÎºÎ', '', #130, .NOT_KNOWN. ) ;
#203 = ORIENTED_EDGE ( 'NONE', *, *, #85, .F. ) ;
#204 = UNCERTAINTY_MEASURE_WITH_UNIT (LENGTH_MEASURE( 1.000000000000000100E-005 ), #313, 'distance_accuracy_value', 'NONE');
#205 = CARTESIAN_POINT ( 'NONE',  ( 228.1020287689708800, 0.0000000000000000000, -4.205157110143265300E-014 ) ) ;
#206 = CLOSED_SHELL ( 'NONE', ( #124, #207, #170, #66, #256, #118 ) ) ;
#207 = ADVANCED_FACE ( 'NONE', ( #153 ), #17, .T. ) ;
#208 = DIRECTION ( 'NONE',  ( 0.0000000000000000000, 0.0000000000000000000, 1.000000000000000000 ) ) ;
#209 = VERTEX_POINT ( 'NONE', #84 ) ;
#210 = DIRECTION ( 'NONE',  ( -1.000000000000000000, -0.0000000000000000000, -0.0000000000000000000 ) ) ;
#211 =( NAMED_UNIT ( * ) PLANE_ANGLE_UNIT ( ) SI_UNIT ( $, .RADIAN. ) );
#212 = PRODUCT_DEFINITION ( 'Î´Öª', '', #202, #214 ) ;
#213 =( NAMED_UNIT ( * ) SI_UNIT ( $, .STERADIAN. ) SOLID_ANGLE_UNIT ( ) );
#214 = PRODUCT_DEFINITION_CONTEXT ( 'detailed design', #2, 'design' ) ;
#215 = CIRCLE ( 'NONE', #151, 24.88999999999998300 ) ;
#216 = CARTESIAN_POINT ( 'NONE',  ( 323.2464080408047400, 0.0000000000000000000, 0.0000000000000000000 ) ) ;
#217 = VERTEX_POINT ( 'NONE', #223 ) ;
#218 = ORIENTED_EDGE ( 'NONE', *, *, #8, .F. ) ;
#219 = DIRECTION ( 'NONE',  ( 1.000000000000000000, 0.0000000000000000000, 0.0000000000000000000 ) ) ;
#220 = EDGE_CURVE ( 'NONE', #263, #339, #325, .T. ) ;
#221 = FACE_OUTER_BOUND ( 'NONE', #126, .T. ) ;
#222 = DIRECTION ( 'NONE',  ( -1.000000000000000000, -0.0000000000000000000, -0.0000000000000000000 ) ) ;
#223 = CARTESIAN_POINT ( 'NONE',  ( 238.8571545780562800, 0.0000000000000000000, 12.50000000000000200 ) ) ;
#224 = CARTESIAN_POINT ( 'NONE',  ( 228.1020287689708800, 0.0000000000000000000, -4.205157110143265300E-014 ) ) ;
#225 = VERTEX_POINT ( 'NONE', #142 ) ;
#226 = DIRECTION ( 'NONE',  ( -1.000000000000000000, -0.0000000000000000000, -0.0000000000000000000 ) ) ;
#227 = PRODUCT_RELATED_PRODUCT_CATEGORY ( 'part', '', ( #130 ) ) ;
#228 = EDGE_CURVE ( 'NONE', #225, #54, #139, .T. ) ;
#229 = ORIENTED_EDGE ( 'NONE', *, *, #85, .T. ) ;
#230 = AXIS2_PLACEMENT_3D ( 'NONE', #7, #26, #244 ) ;
#231 = VERTEX_POINT ( 'NONE', #144 ) ;
#232 = DIRECTION ( 'NONE',  ( 0.0000000000000000000, 0.0000000000000000000, -1.000000000000000000 ) ) ;
#233 = CARTESIAN_POINT ( 'NONE',  ( 323.2464080408047400, 0.0000000000000000000, 0.0000000000000000000 ) ) ;
#234 = ORIENTED_EDGE ( 'NONE', *, *, #191, .T. ) ;
#235 = VERTEX_POINT ( 'NONE', #299 ) ;
#236 = VERTEX_POINT ( 'NONE', #109 ) ;
#237 = ADVANCED_FACE ( 'NONE', ( #310 ), #334, .F. ) ;
#238 = EDGE_CURVE ( 'NONE', #231, #209, #215, .T. ) ;
#239 = PRESENTATION_STYLE_ASSIGNMENT (( #328 ) ) ;
#240 = CARTESIAN_POINT ( 'NONE',  ( 258.6064080408046900, 0.0000000000000000000, -7.042604883983359700E-022 ) ) ;
#241 = ORIENTED_EDGE ( 'NONE', *, *, #62, .T. ) ;
#242 = AXIS2_PLACEMENT_3D ( 'NONE', #31, #87, #314 ) ;
#243 = CARTESIAN_POINT ( 'NONE',  ( 323.2464080408047400, 0.0000000000000000000, 0.0000000000000000000 ) ) ;
#244 = DIRECTION ( 'NONE',  ( 0.0000000000000000000, 0.0000000000000000000, 1.000000000000000000 ) ) ;
#245 = SPHERICAL_SURFACE ( 'NONE', #93, 24.88999999999997600 ) ;
#246 = AXIS2_PLACEMENT_3D ( 'NONE', #147, #163, #282 ) ;
#247 = SHAPE_DEFINITION_REPRESENTATION ( #1, #298 ) ;
#248 = EDGE_LOOP ( 'NONE', ( #108, #77, #28 ) ) ;
#249 = ORIENTED_EDGE ( 'NONE', *, *, #300, .T. ) ;
#250 = SURFACE_STYLE_USAGE ( .BOTH. , #322 ) ;
#251 = ADVANCED_FACE ( 'NONE', ( #168 ), #158, .T. ) ;
#252 = AXIS2_PLACEMENT_3D ( 'NONE', #216, #324, #295 ) ;
#253 = ORIENTED_EDGE ( 'NONE', *, *, #184, .T. ) ;
#254 = SURFACE_STYLE_FILL_AREA ( #154 ) ;
#255 = EDGE_LOOP ( 'NONE', ( #42, #316, #347 ) ) ;
#256 = ADVANCED_FACE ( 'NONE', ( #20 ), #178, .T. ) ;
#257 = SURFACE_SIDE_STYLE ('',( #254 ) ) ;
#258 = CARTESIAN_POINT ( 'NONE',  ( -0.8160621761658016800, 0.0000000000000000000, 12.50000000000004300 ) ) ;
#259 = AXIS2_PLACEMENT_3D ( 'NONE', #243, #61, #116 ) ;
#260 = CARTESIAN_POINT ( 'NONE',  ( 228.1020287689708800, 0.0000000000000000000, 12.49999999999999300 ) ) ;
#261 = DIRECTION ( 'NONE',  ( 0.0000000000000000000, -1.224646799147353200E-016, 1.000000000000000000 ) ) ;
#262 = CYLINDRICAL_SURFACE ( 'NONE', #127, 12.49999999999999300 ) ;
#263 = VERTEX_POINT ( 'NONE', #276 ) ;
#264 = ORIENTED_EDGE ( 'NONE', *, *, #177, .T. ) ;
#265 = DIRECTION ( 'NONE',  ( 0.0000000000000000000, -1.000000000000000000, 0.0000000000000000000 ) ) ;
#266 = ORIENTED_EDGE ( 'NONE', *, *, #228, .F. ) ;
#267 = AXIS2_PLACEMENT_3D ( 'NONE', #271, #293, #345 ) ;
#268 = DIRECTION ( 'NONE',  ( 1.821459649775641300E-016, 0.0000000000000000000, 1.000000000000000000 ) ) ;
#269 = ORIENTED_EDGE ( 'NONE', *, *, #191, .F. ) ;
#270 = VECTOR ( 'NONE', #180, 1000.000000000000000 ) ;
#271 = CARTESIAN_POINT ( 'NONE',  ( 237.0828837011432600, 0.0000000000000000000, -4.370132738837639300E-014 ) ) ;
#272 = DIRECTION ( 'NONE',  ( 0.0000000000000000000, 0.0000000000000000000, 1.000000000000000000 ) ) ;
#273 = AXIS2_PLACEMENT_3D ( 'NONE', #166, #55, #320 ) ;
#274 = ORIENTED_EDGE ( 'NONE', *, *, #342, .T. ) ;
#275 = DIRECTION ( 'NONE',  ( 0.0000000000000000000, 0.0000000000000000000, 1.000000000000000000 ) ) ;
#276 = CARTESIAN_POINT ( 'NONE',  ( 238.8571545780562800, 1.530808498934191700E-015, -12.50000000000000200 ) ) ;
#277 = CARTESIAN_POINT ( 'NONE',  ( 258.6064080408046900, 0.0000000000000000000, -7.042604883983359700E-022 ) ) ;
#278 = ORIENTED_EDGE ( 'NONE', *, *, #300, .F. ) ;
#279 = CARTESIAN_POINT ( 'NONE',  ( 258.6064080408046900, 0.0000000000000000000, -7.042604883983359700E-022 ) ) ;
#280 = CARTESIAN_POINT ( 'NONE',  ( 258.6064080408046900, 0.0000000000000000000, -7.042604883983359700E-022 ) ) ;
#281 = FACE_OUTER_BOUND ( 'NONE', #255, .T. ) ;
#282 = DIRECTION ( 'NONE',  ( 0.0000000000000000000, 0.0000000000000000000, 1.000000000000000000 ) ) ;
#283 = DIRECTION ( 'NONE',  ( 0.0000000000000000000, 0.0000000000000000000, -1.000000000000000000 ) ) ;
#284 = AXIS2_PLACEMENT_3D ( 'NONE', #233, #290, #60 ) ;
#285 = VERTEX_POINT ( 'NONE', #23 ) ;
#286 = COLOUR_RGB ( '',1.000000000000000000, 1.000000000000000000, 1.000000000000000000 ) ;
#287 = CARTESIAN_POINT ( 'NONE',  ( 237.0828837011432600, 0.0000000000000000000, -4.370132738837639300E-014 ) ) ;
#288 = CIRCLE ( 'NONE', #78, 24.88999999999997600 ) ;
#289 = VECTOR ( 'NONE', #125, 1000.000000000000000 ) ;
#290 = DIRECTION ( 'NONE',  ( -0.0000000000000000000, -1.000000000000000000, -0.0000000000000000000 ) ) ;
#291 = EDGE_LOOP ( 'NONE', ( #253, #82, #120, #51 ) ) ;
#292 = FACE_OUTER_BOUND ( 'NONE', #331, .T. ) ;
#293 = DIRECTION ( 'NONE',  ( -1.000000000000000000, -0.0000000000000000000, 1.836970198721029700E-016 ) ) ;
#294 = VERTEX_POINT ( 'NONE', #190 ) ;
#295 = DIRECTION ( 'NONE',  ( 0.0000000000000000000, 0.0000000000000000000, -1.000000000000000000 ) ) ;
#296 = AXIS2_PLACEMENT_3D ( 'NONE', #332, #335, #283 ) ;
#297 = EDGE_LOOP ( 'NONE', ( #303, #145, #264 ) ) ;
#298 = ADVANCED_BREP_SHAPE_REPRESENTATION ( '145194', ( #33, #52, #189 ), #132 ) ;
#299 = CARTESIAN_POINT ( 'NONE',  ( 237.0828837011432600, 1.530808498934197200E-015, -12.50000000000008700 ) ) ;
#300 = EDGE_CURVE ( 'NONE', #285, #236, #37, .T. ) ;
#301 = DIRECTION ( 'NONE',  ( -2.249639673992786400E-032, -1.000000000000000000, -1.224646799147353200E-016 ) ) ;
#302 = EDGE_LOOP ( 'NONE', ( #140, #308, #278, #203 ) ) ;
#303 = ORIENTED_EDGE ( 'NONE', *, *, #143, .F. ) ;
#304 = AXIS2_PLACEMENT_3D ( 'NONE', #150, #311, #261 ) ;
#305 = DIRECTION ( 'NONE',  ( 0.0000000000000000000, 0.0000000000000000000, 1.000000000000000000 ) ) ;
#306 =( LENGTH_UNIT ( ) NAMED_UNIT ( * ) SI_UNIT ( .MILLI., .METRE. ) );
#307 = ORIENTED_EDGE ( 'NONE', *, *, #220, .F. ) ;
#308 = ORIENTED_EDGE ( 'NONE', *, *, #8, .T. ) ;
#309 = STYLED_ITEM ( 'NONE', ( #162 ), #52 ) ;
#310 = FACE_OUTER_BOUND ( 'NONE', #248, .T. ) ;
#311 = DIRECTION ( 'NONE',  ( 2.249639673992786400E-032, 1.000000000000000000, 1.224646799147353200E-016 ) ) ;
#312 = ORIENTED_EDGE ( 'NONE', *, *, #238, .T. ) ;
#313 =( LENGTH_UNIT ( ) NAMED_UNIT ( * ) SI_UNIT ( .MILLI., .METRE. ) );
#314 = DIRECTION ( 'NONE',  ( 0.0000000000000000000, 0.0000000000000000000, 1.000000000000000000 ) ) ;
#315 = ADVANCED_FACE ( 'NONE', ( #281 ), #329, .T. ) ;
#316 = ORIENTED_EDGE ( 'NONE', *, *, #228, .T. ) ;
#317 = CARTESIAN_POINT ( 'NONE',  ( 237.0828837011432600, 0.0000000000000000000, 0.0000000000000000000 ) ) ;
#318 = AXIS2_PLACEMENT_3D ( 'NONE', #240, #3, #275 ) ;
#319 = DIRECTION ( 'NONE',  ( -0.0000000000000000000, -1.000000000000000000, -0.0000000000000000000 ) ) ;
#320 = DIRECTION ( 'NONE',  ( 1.821459649775641300E-016, 0.0000000000000000000, 1.000000000000000000 ) ) ;
#321 = EDGE_LOOP ( 'NONE', ( #73, #67, #249 ) ) ;
#322 = SURFACE_SIDE_STYLE ('',( #167 ) ) ;
#323 = FILL_AREA_STYLE_COLOUR ( '', #155 ) ;
#324 = DIRECTION ( 'NONE',  ( -0.0000000000000000000, -1.000000000000000000, -0.0000000000000000000 ) ) ;
#325 = CIRCLE ( 'NONE', #326, 85.31000000000001600 ) ;
#326 = AXIS2_PLACEMENT_3D ( 'NONE', #133, #79, #100 ) ;
#327 = ORIENTED_EDGE ( 'NONE', *, *, #49, .T. ) ;
#328 = SURFACE_STYLE_USAGE ( .BOTH. , #257 ) ;
#329 = SPHERICAL_SURFACE ( 'NONE', #318, 24.88999999999997600 ) ;
#330 =( LENGTH_UNIT ( ) NAMED_UNIT ( * ) SI_UNIT ( .MILLI., .METRE. ) );
#331 = EDGE_LOOP ( 'NONE', ( #266, #12, #135 ) ) ;
#332 = CARTESIAN_POINT ( 'NONE',  ( 258.6064080408046900, 0.0000000000000000000, -7.042604883983359700E-022 ) ) ;
#333 = AXIS2_PLACEMENT_3D ( 'NONE', #279, #319, #6 ) ;
#334 = SPHERICAL_SURFACE ( 'NONE', #252, 85.31000000000001600 ) ;
#335 = DIRECTION ( 'NONE',  ( -0.0000000000000000000, -1.000000000000000000, -0.0000000000000000000 ) ) ;
#336 = VERTEX_POINT ( 'NONE', #185 ) ;
#337 = AXIS2_PLACEMENT_3D ( 'NONE', #9, #90, #268 ) ;
#338 = DIRECTION ( 'NONE',  ( -1.000000000000000000, -0.0000000000000000000, -0.0000000000000000000 ) ) ;
#339 = VERTEX_POINT ( 'NONE', #102 ) ;
#340 = DIRECTION ( 'NONE',  ( 0.0000000000000000000, 0.0000000000000000000, 1.000000000000000000 ) ) ;
#341 = APPLICATION_PROTOCOL_DEFINITION ( 'draft international standard', 'automotive_design', 1998, #157 ) ;
#342 = EDGE_CURVE ( 'NONE', #217, #339, #53, .T. ) ;
#343 = CIRCLE ( 'NONE', #50, 12.49999999999998800 ) ;
#344 =( LENGTH_UNIT ( ) NAMED_UNIT ( * ) SI_UNIT ( .MILLI., .METRE. ) );
#345 = DIRECTION ( 'NONE',  ( 0.0000000000000000000, 0.0000000000000000000, 1.000000000000000000 ) ) ;
#346 = MECHANICAL_DESIGN_GEOMETRIC_PRESENTATION_REPRESENTATION (  '', ( #111 ), #193 ) ;
#347 = ORIENTED_EDGE ( 'NONE', *, *, #129, .F. ) ;
ENDSEC;
END-ISO-10303-21;
