ISO-10303-21;
HEADER;
FILE_DESCRIPTION (( 'STEP AP214' ),
    '1' );
FILE_NAME ('145195.STEP',
    '2019-06-13T06:49:16',
    ( 'user' ),
    ( 'Î¢ÈíÖÐ¹ú' ),
    'SwSTEP 2.0',
    'SolidWorks 2016',
    '' );
FILE_SCHEMA (( 'AUTOMOTIVE_DESIGN' ));
ENDSEC;

DATA;
#1 = DIRECTION ( 'NONE',  ( 0.0000000000000000000, 0.0000000000000000000, 1.000000000000000000 ) ) ;
#2 = ORIENTED_EDGE ( 'NONE', *, *, #90, .F. ) ;
#3 = ORIENTED_EDGE ( 'NONE', *, *, #313, .F. ) ;
#4 = FACE_OUTER_BOUND ( 'NONE', #73, .T. ) ;
#5 = ORIENTED_EDGE ( 'NONE', *, *, #171, .T. ) ;
#6 = CARTESIAN_POINT ( 'NONE',  ( 230.5256261271373100, 1.530808498934196800E-015, -12.50000000000008300 ) ) ;
#7 = DIRECTION ( 'NONE',  ( -1.000000000000000000, -0.0000000000000000000, -0.0000000000000000000 ) ) ;
#8 = EDGE_CURVE ( 'NONE', #71, #202, #68, .T. ) ;
#9 = DIRECTION ( 'NONE',  ( 0.0000000000000000000, 0.0000000000000000000, 1.000000000000000000 ) ) ;
#10 = CIRCLE ( 'NONE', #245, 43.05000000000000400 ) ;
#11 = CARTESIAN_POINT ( 'NONE',  ( 271.7209231888165800, 0.0000000000000000000, -7.774638227973457500E-022 ) ) ;
#12 = CARTESIAN_POINT ( 'NONE',  ( 224.3692556565556200, 1.530808498934191900E-015, -12.50000000000000400 ) ) ;
#13 = ORIENTED_EDGE ( 'NONE', *, *, #8, .F. ) ;
#14 = SURFACE_STYLE_FILL_AREA ( #15 ) ;
#15 = FILL_AREA_STYLE ('',( #81 ) ) ;
#16 = ORIENTED_EDGE ( 'NONE', *, *, #199, .T. ) ;
#17 = DIRECTION ( 'NONE',  ( 0.0000000000000000000, 0.0000000000000000000, -1.000000000000000000 ) ) ;
#18 = EDGE_LOOP ( 'NONE', ( #255, #80, #188 ) ) ;
#19 = EDGE_CURVE ( 'NONE', #105, #202, #10, .T. ) ;
#20 = ADVANCED_FACE ( 'NONE', ( #201 ), #126, .T. ) ;
#21 = MANIFOLD_SOLID_BREP ( 'Ðý×ª3', #118 ) ;
#22 = DIRECTION ( 'NONE',  ( -1.000000000000000000, -0.0000000000000000000, 1.836970198721029700E-016 ) ) ;
#23 = ORIENTED_EDGE ( 'NONE', *, *, #109, .T. ) ;
#24 = MECHANICAL_DESIGN_GEOMETRIC_PRESENTATION_REPRESENTATION (  '', ( #29 ), #191 ) ;
#25 = ORIENTED_EDGE ( 'NONE', *, *, #90, .T. ) ;
#26 =( LENGTH_UNIT ( ) NAMED_UNIT ( * ) SI_UNIT ( .MILLI., .METRE. ) );
#27 = AXIS2_PLACEMENT_3D ( 'NONE', #331, #178, #179 ) ;
#28 = FACE_OUTER_BOUND ( 'NONE', #332, .T. ) ;
#29 = STYLED_ITEM ( 'NONE', ( #56 ), #21 ) ;
#30 = CIRCLE ( 'NONE', #256, 12.50000000000004300 ) ;
#31 = CARTESIAN_POINT ( 'NONE',  ( 230.5256261271373100, 0.0000000000000000000, -4.249677871349772400E-014 ) ) ;
#32 = CARTESIAN_POINT ( 'NONE',  ( 228.6709231888165700, 0.0000000000000000000, 5.272103692865532400E-015 ) ) ;
#33 = DIRECTION ( 'NONE',  ( -1.000000000000000000, -0.0000000000000000000, -0.0000000000000000000 ) ) ;
#34 = AXIS2_PLACEMENT_3D ( 'NONE', #264, #152, #100 ) ;
#35 = CARTESIAN_POINT ( 'NONE',  ( -0.8160621761658039000, 0.0000000000000000000, 0.0000000000000000000 ) ) ;
#36 = EDGE_LOOP ( 'NONE', ( #139, #226, #217 ) ) ;
#37 = DIRECTION ( 'NONE',  ( -1.000000000000000000, -0.0000000000000000000, -0.0000000000000000000 ) ) ;
#38 = AXIS2_PLACEMENT_3D ( 'NONE', #108, #79, #94 ) ;
#39 = CARTESIAN_POINT ( 'NONE',  ( 230.5256261271373100, 0.0000000000000000000, 12.50000000000000000 ) ) ;
#40 = CARTESIAN_POINT ( 'NONE',  ( 230.5256261271373100, 1.530808498934192700E-015, -12.50000000000000700 ) ) ;
#41 = ORIENTED_EDGE ( 'NONE', *, *, #84, .T. ) ;
#42 = CARTESIAN_POINT ( 'NONE',  ( 224.3692556565556200, 0.0000000000000000000, 12.50000000000000400 ) ) ;
#43 = EDGE_LOOP ( 'NONE', ( #106, #299, #252 ) ) ;
#44 = AXIS2_PLACEMENT_3D ( 'NONE', #220, #233, #246 ) ;
#45 = CARTESIAN_POINT ( 'NONE',  ( 224.3692556565556200, 0.0000000000000000000, -4.136587180482325000E-014 ) ) ;
#46 = ORIENTED_EDGE ( 'NONE', *, *, #84, .F. ) ;
#47 = EDGE_CURVE ( 'NONE', #194, #271, #340, .T. ) ;
#48 = UNCERTAINTY_MEASURE_WITH_UNIT (LENGTH_MEASURE( 1.000000000000000100E-005 ), #137, 'distance_accuracy_value', 'NONE');
#49 = VERTEX_POINT ( 'NONE', #32 ) ;
#50 = FACE_OUTER_BOUND ( 'NONE', #43, .T. ) ;
#51 = PRODUCT ( '145195', '145195', '', ( #338 ) ) ;
#52 = APPLICATION_CONTEXT ( 'automotive_design' ) ;
#53 = ORIENTED_EDGE ( 'NONE', *, *, #206, .F. ) ;
#54 = DIRECTION ( 'NONE',  ( -0.0000000000000000000, 1.000000000000000000, 0.0000000000000000000 ) ) ;
#55 = DIRECTION ( 'NONE',  ( 0.0000000000000000000, 0.0000000000000000000, 1.000000000000000000 ) ) ;
#56 = PRESENTATION_STYLE_ASSIGNMENT (( #99 ) ) ;
#57 = CARTESIAN_POINT ( 'NONE',  ( 165.0009231888165600, 0.0000000000000000000, -7.774840603276192800E-022 ) ) ;
#58 = MECHANICAL_DESIGN_GEOMETRIC_PRESENTATION_REPRESENTATION (  '', ( #283 ), #74 ) ;
#59 = DIRECTION ( 'NONE',  ( -1.000000000000000000, -0.0000000000000000000, 1.836970198721029700E-016 ) ) ;
#60 = EDGE_CURVE ( 'NONE', #271, #49, #223, .T. ) ;
#61 = ORIENTED_EDGE ( 'NONE', *, *, #120, .F. ) ;
#62 = ADVANCED_BREP_SHAPE_REPRESENTATION ( '145195', ( #102, #21, #304 ), #273 ) ;
#63 = LINE ( 'NONE', #42, #291 ) ;
#64 = VECTOR ( 'NONE', #33, 1000.000000000000000 ) ;
#65 =( GEOMETRIC_REPRESENTATION_CONTEXT ( 3 ) GLOBAL_UNCERTAINTY_ASSIGNED_CONTEXT ( ( #195 ) ) GLOBAL_UNIT_ASSIGNED_CONTEXT ( ( #97, #131, #144 ) ) REPRESENTATION_CONTEXT ( 'NONE', 'WORKASPACE' ) );
#66 = CARTESIAN_POINT ( 'NONE',  ( 224.3692556565556200, 0.0000000000000000000, 0.0000000000000000000 ) ) ;
#67 = ORIENTED_EDGE ( 'NONE', *, *, #275, .F. ) ;
#68 = CIRCLE ( 'NONE', #254, 43.05000000000000400 ) ;
#69 = SHAPE_DEFINITION_REPRESENTATION ( #111, #62 ) ;
#70 = CIRCLE ( 'NONE', #151, 43.05000000000000400 ) ;
#71 = VERTEX_POINT ( 'NONE', #336 ) ;
#72 = CIRCLE ( 'NONE', #38, 160.6900000000000000 ) ;
#73 = EDGE_LOOP ( 'NONE', ( #76, #290, #61 ) ) ;
#74 =( GEOMETRIC_REPRESENTATION_CONTEXT ( 3 ) GLOBAL_UNCERTAINTY_ASSIGNED_CONTEXT ( ( #48 ) ) GLOBAL_UNIT_ASSIGNED_CONTEXT ( ( #137, #294, #175 ) ) REPRESENTATION_CONTEXT ( 'NONE', 'WORKASPACE' ) );
#75 = DIRECTION ( 'NONE',  ( 1.821459649775641300E-016, 0.0000000000000000000, 1.000000000000000000 ) ) ;
#76 = ORIENTED_EDGE ( 'NONE', *, *, #166, .F. ) ;
#77 = AXIS2_PLACEMENT_3D ( 'NONE', #161, #302, #55 ) ;
#78 = AXIS2_PLACEMENT_3D ( 'NONE', #311, #167, #231 ) ;
#79 = DIRECTION ( 'NONE',  ( 0.0000000000000000000, -1.000000000000000000, -1.224646799147353200E-016 ) ) ;
#80 = ORIENTED_EDGE ( 'NONE', *, *, #47, .F. ) ;
#81 = FILL_AREA_STYLE_COLOUR ( '', #203 ) ;
#82 = AXIS2_PLACEMENT_3D ( 'NONE', #164, #123, #266 ) ;
#83 = DIRECTION ( 'NONE',  ( 0.0000000000000000000, 0.0000000000000000000, 1.000000000000000000 ) ) ;
#84 = EDGE_CURVE ( 'NONE', #149, #241, #257, .T. ) ;
#85 = AXIS2_PLACEMENT_3D ( 'NONE', #35, #253, #219 ) ;
#86 = APPLICATION_PROTOCOL_DEFINITION ( 'draft international standard', 'automotive_design', 1998, #52 ) ;
#87 = AXIS2_PLACEMENT_3D ( 'NONE', #308, #315, #183 ) ;
#88 = EDGE_CURVE ( 'NONE', #71, #105, #276, .T. ) ;
#89 = SURFACE_SIDE_STYLE ('',( #14 ) ) ;
#90 = EDGE_CURVE ( 'NONE', #112, #241, #140, .T. ) ;
#91 = AXIS2_PLACEMENT_3D ( 'NONE', #312, #198, #239 ) ;
#92 = ORIENTED_EDGE ( 'NONE', *, *, #222, .T. ) ;
#93 = APPLICATION_PROTOCOL_DEFINITION ( 'draft international standard', 'automotive_design', 1998, #330 ) ;
#94 = DIRECTION ( 'NONE',  ( 0.0000000000000000000, 1.224646799147353200E-016, -1.000000000000000000 ) ) ;
#95 = PRESENTATION_LAYER_ASSIGNMENT (  '', '', ( #283 ) ) ;
#96 = FACE_OUTER_BOUND ( 'NONE', #316, .T. ) ;
#97 =( LENGTH_UNIT ( ) NAMED_UNIT ( * ) SI_UNIT ( .MILLI., .METRE. ) );
#98 = AXIS2_PLACEMENT_3D ( 'NONE', #297, #274, #329 ) ;
#99 = SURFACE_STYLE_USAGE ( .BOTH. , #180 ) ;
#100 = DIRECTION ( 'NONE',  ( 0.0000000000000000000, 1.224646799147353000E-016, -1.000000000000000000 ) ) ;
#101 = CLOSED_SHELL ( 'NONE', ( #261, #193, #327, #214, #307, #337 ) ) ;
#102 = MANIFOLD_SOLID_BREP ( 'Ðý×ª1', #101 ) ;
#103 = ADVANCED_FACE ( 'NONE', ( #28 ), #339, .F. ) ;
#104 = DIRECTION ( 'NONE',  ( 0.0000000000000000000, 0.0000000000000000000, 1.000000000000000000 ) ) ;
#105 = VERTEX_POINT ( 'NONE', #40 ) ;
#106 = ORIENTED_EDGE ( 'NONE', *, *, #19, .F. ) ;
#107 = FACE_OUTER_BOUND ( 'NONE', #36, .T. ) ;
#108 = CARTESIAN_POINT ( 'NONE',  ( 392.9609231888165900, 0.0000000000000000000, 0.0000000000000000000 ) ) ;
#109 = EDGE_CURVE ( 'NONE', #241, #149, #30, .T. ) ;
#110 = CARTESIAN_POINT ( 'NONE',  ( 0.0000000000000000000, 0.0000000000000000000, 0.0000000000000000000 ) ) ;
#111 = PRODUCT_DEFINITION_SHAPE ( 'NONE', 'NONE',  #284 ) ;
#112 = VERTEX_POINT ( 'NONE', #323 ) ;
#113 = EDGE_LOOP ( 'NONE', ( #334, #25, #23 ) ) ;
#114 = ORIENTED_EDGE ( 'NONE', *, *, #19, .T. ) ;
#115 = SPHERICAL_SURFACE ( 'NONE', #82, 43.05000000000000400 ) ;
#116 = CYLINDRICAL_SURFACE ( 'NONE', #289, 12.50000000000004300 ) ;
#117 = PRESENTATION_LAYER_ASSIGNMENT (  '', '', ( #29 ) ) ;
#118 = CLOSED_SHELL ( 'NONE', ( #333, #20, #209, #303, #322, #103 ) ) ;
#119 = SURFACE_STYLE_USAGE ( .BOTH. , #285 ) ;
#120 = EDGE_CURVE ( 'NONE', #194, #49, #70, .T. ) ;
#121 = EDGE_LOOP ( 'NONE', ( #145, #286, #46, #67 ) ) ;
#122 = CARTESIAN_POINT ( 'NONE',  ( 228.6709231888165700, 0.0000000000000000000, 2.636051457700855500E-015 ) ) ;
#123 = DIRECTION ( 'NONE',  ( -0.0000000000000000000, -1.000000000000000000, -0.0000000000000000000 ) ) ;
#124 = CARTESIAN_POINT ( 'NONE',  ( 224.3692556565556200, 0.0000000000000000000, -4.136587180482325000E-014 ) ) ;
#125 = EDGE_LOOP ( 'NONE', ( #181, #309, #92, #187 ) ) ;
#126 = CYLINDRICAL_SURFACE ( 'NONE', #317, 12.50000000000000400 ) ;
#127 = AXIS2_PLACEMENT_3D ( 'NONE', #321, #269, #163 ) ;
#128 = UNCERTAINTY_MEASURE_WITH_UNIT (LENGTH_MEASURE( 1.000000000000000100E-005 ), #153, 'distance_accuracy_value', 'NONE');
#129 = DIRECTION ( 'NONE',  ( 1.000000000000000000, 0.0000000000000000000, 0.0000000000000000000 ) ) ;
#130 = ORIENTED_EDGE ( 'NONE', *, *, #160, .T. ) ;
#131 =( NAMED_UNIT ( * ) PLANE_ANGLE_UNIT ( ) SI_UNIT ( $, .RADIAN. ) );
#132 = VERTEX_POINT ( 'NONE', #234 ) ;
#133 = DIRECTION ( 'NONE',  ( 0.0000000000000000000, 0.0000000000000000000, -1.000000000000000000 ) ) ;
#134 = EDGE_LOOP ( 'NONE', ( #237, #130, #158, #263 ) ) ;
#135 = CARTESIAN_POINT ( 'NONE',  ( 392.9609231888165900, 0.0000000000000000000, 0.0000000000000000000 ) ) ;
#136 = EDGE_CURVE ( 'NONE', #132, #176, #200, .T. ) ;
#137 =( LENGTH_UNIT ( ) NAMED_UNIT ( * ) SI_UNIT ( .MILLI., .METRE. ) );
#138 = UNCERTAINTY_MEASURE_WITH_UNIT (LENGTH_MEASURE( 1.000000000000000100E-005 ), #26, 'distance_accuracy_value', 'NONE');
#139 = ORIENTED_EDGE ( 'NONE', *, *, #169, .F. ) ;
#140 = CIRCLE ( 'NONE', #243, 60.67000000000000900 ) ;
#141 = SPHERICAL_SURFACE ( 'NONE', #127, 43.05000000000000400 ) ;
#142 = LINE ( 'NONE', #305, #177 ) ;
#143 = DIRECTION ( 'NONE',  ( 0.0000000000000000000, -1.224646799147353500E-016, 1.000000000000000000 ) ) ;
#144 =( NAMED_UNIT ( * ) SI_UNIT ( $, .STERADIAN. ) SOLID_ANGLE_UNIT ( ) );
#145 = ORIENTED_EDGE ( 'NONE', *, *, #166, .T. ) ;
#146 = COLOUR_RGB ( '',1.000000000000000000, 1.000000000000000000, 1.000000000000000000 ) ;
#147 = DIRECTION ( 'NONE',  ( 0.0000000000000000000, 0.0000000000000000000, 1.000000000000000000 ) ) ;
#148 = SPHERICAL_SURFACE ( 'NONE', #87, 60.67000000000000900 ) ;
#149 = VERTEX_POINT ( 'NONE', #159 ) ;
#150 = CYLINDRICAL_SURFACE ( 'NONE', #168, 12.50000000000000400 ) ;
#151 = AXIS2_PLACEMENT_3D ( 'NONE', #267, #54, #156 ) ;
#152 = DIRECTION ( 'NONE',  ( -2.249639673992786400E-032, -1.000000000000000000, -1.224646799147353200E-016 ) ) ;
#153 =( LENGTH_UNIT ( ) NAMED_UNIT ( * ) SI_UNIT ( .MILLI., .METRE. ) );
#154 = AXIS2_PLACEMENT_3D ( 'NONE', #124, #22, #147 ) ;
#155 = DIRECTION ( 'NONE',  ( 0.0000000000000000000, 1.000000000000000000, -0.0000000000000000000 ) ) ;
#156 = DIRECTION ( 'NONE',  ( 0.0000000000000000000, 0.0000000000000000000, 1.000000000000000000 ) ) ;
#157 = DIRECTION ( 'NONE',  ( -1.000000000000000000, -0.0000000000000000000, -0.0000000000000000000 ) ) ;
#158 = ORIENTED_EDGE ( 'NONE', *, *, #88, .F. ) ;
#159 = CARTESIAN_POINT ( 'NONE',  ( 224.3692556565556200, 0.0000000000000000000, 12.50000000000000700 ) ) ;
#160 = EDGE_CURVE ( 'NONE', #132, #105, #277, .T. ) ;
#161 = CARTESIAN_POINT ( 'NONE',  ( 271.7209231888165800, 0.0000000000000000000, -7.774638227973457500E-022 ) ) ;
#162 = PRODUCT_RELATED_PRODUCT_CATEGORY ( 'part', '', ( #51 ) ) ;
#163 = DIRECTION ( 'NONE',  ( 0.0000000000000000000, 0.0000000000000000000, -1.000000000000000000 ) ) ;
#164 = CARTESIAN_POINT ( 'NONE',  ( 271.7209231888165800, 0.0000000000000000000, -7.774638227973457500E-022 ) ) ;
#165 = CARTESIAN_POINT ( 'NONE',  ( -0.8160621761658039000, 0.0000000000000000000, 0.0000000000000000000 ) ) ;
#166 = EDGE_CURVE ( 'NONE', #271, #194, #320, .T. ) ;
#167 = DIRECTION ( 'NONE',  ( -0.0000000000000000000, 1.000000000000000000, 0.0000000000000000000 ) ) ;
#168 = AXIS2_PLACEMENT_3D ( 'NONE', #260, #238, #343 ) ;
#169 = EDGE_CURVE ( 'NONE', #176, #132, #272, .T. ) ;
#170 = DIRECTION ( 'NONE',  ( -1.000000000000000000, -0.0000000000000000000, 1.836970198721029700E-016 ) ) ;
#171 = EDGE_CURVE ( 'NONE', #112, #149, #242, .T. ) ;
#172 = ORIENTED_EDGE ( 'NONE', *, *, #88, .T. ) ;
#173 = COLOUR_RGB ( '',1.000000000000000000, 1.000000000000000000, 1.000000000000000000 ) ;
#174 = AXIS2_PLACEMENT_3D ( 'NONE', #301, #157, #83 ) ;
#175 =( NAMED_UNIT ( * ) SI_UNIT ( $, .STERADIAN. ) SOLID_ANGLE_UNIT ( ) );
#176 = VERTEX_POINT ( 'NONE', #326 ) ;
#177 = VECTOR ( 'NONE', #230, 1000.000000000000000 ) ;
#178 = DIRECTION ( 'NONE',  ( -0.0000000000000000000, -1.000000000000000000, -0.0000000000000000000 ) ) ;
#179 = DIRECTION ( 'NONE',  ( 0.0000000000000000000, 0.0000000000000000000, -1.000000000000000000 ) ) ;
#180 = SURFACE_SIDE_STYLE ('',( #212 ) ) ;
#181 = ORIENTED_EDGE ( 'NONE', *, *, #160, .F. ) ;
#182 = FACE_OUTER_BOUND ( 'NONE', #197, .T. ) ;
#183 = DIRECTION ( 'NONE',  ( 0.0000000000000000000, 0.0000000000000000000, 1.000000000000000000 ) ) ;
#184 = CARTESIAN_POINT ( 'NONE',  ( 224.3692556565556200, 1.530808498934197400E-015, -12.50000000000006000 ) ) ;
#185 = DIRECTION ( 'NONE',  ( 2.249639673992786400E-032, 1.000000000000000000, 1.224646799147353200E-016 ) ) ;
#186 = DIRECTION ( 'NONE',  ( 0.0000000000000000000, 0.0000000000000000000, 1.000000000000000000 ) ) ;
#187 = ORIENTED_EDGE ( 'NONE', *, *, #216, .F. ) ;
#188 = ORIENTED_EDGE ( 'NONE', *, *, #120, .T. ) ;
#189 =( NAMED_UNIT ( * ) PLANE_ANGLE_UNIT ( ) SI_UNIT ( $, .RADIAN. ) );
#190 = LINE ( 'NONE', #293, #314 ) ;
#191 =( GEOMETRIC_REPRESENTATION_CONTEXT ( 3 ) GLOBAL_UNCERTAINTY_ASSIGNED_CONTEXT ( ( #128 ) ) GLOBAL_UNIT_ASSIGNED_CONTEXT ( ( #153, #189, #205 ) ) REPRESENTATION_CONTEXT ( 'NONE', 'WORKASPACE' ) );
#192 = PRESENTATION_LAYER_ASSIGNMENT (  '', '', ( #224 ) ) ;
#193 = ADVANCED_FACE ( 'NONE', ( #228 ), #116, .T. ) ;
#194 = VERTEX_POINT ( 'NONE', #6 ) ;
#195 = UNCERTAINTY_MEASURE_WITH_UNIT (LENGTH_MEASURE( 1.000000000000000100E-005 ), #97, 'distance_accuracy_value', 'NONE');
#196 = CARTESIAN_POINT ( 'NONE',  ( 230.5256261271373100, 0.0000000000000000000, 0.0000000000000000000 ) ) ;
#197 = EDGE_LOOP ( 'NONE', ( #3, #346, #248, #251 ) ) ;
#198 = DIRECTION ( 'NONE',  ( -1.000000000000000000, -0.0000000000000000000, -0.0000000000000000000 ) ) ;
#199 = EDGE_CURVE ( 'NONE', #132, #249, #204, .T. ) ;
#200 = CIRCLE ( 'NONE', #174, 12.49999999999999800 ) ;
#201 = FACE_OUTER_BOUND ( 'NONE', #134, .T. ) ;
#202 = VERTEX_POINT ( 'NONE', #122 ) ;
#203 = COLOUR_RGB ( '',1.000000000000000000, 1.000000000000000000, 1.000000000000000000 ) ;
#204 = CIRCLE ( 'NONE', #265, 160.6900000000000000 ) ;
#205 =( NAMED_UNIT ( * ) SI_UNIT ( $, .STERADIAN. ) SOLID_ANGLE_UNIT ( ) );
#206 = EDGE_CURVE ( 'NONE', #176, #249, #72, .T. ) ;
#207 = ORIENTED_EDGE ( 'NONE', *, *, #136, .F. ) ;
#208 = CARTESIAN_POINT ( 'NONE',  ( 271.7209231888165800, 0.0000000000000000000, -7.774638227973457500E-022 ) ) ;
#209 = ADVANCED_FACE ( 'NONE', ( #96 ), #295, .T. ) ;
#210 = MECHANICAL_DESIGN_GEOMETRIC_PRESENTATION_REPRESENTATION (  '', ( #224 ), #65 ) ;
#211 = FILL_AREA_STYLE ('',( #259 ) ) ;
#212 = SURFACE_STYLE_FILL_AREA ( #268 ) ;
#213 = FACE_OUTER_BOUND ( 'NONE', #113, .T. ) ;
#214 = ADVANCED_FACE ( 'NONE', ( #287 ), #148, .F. ) ;
#215 = DIRECTION ( 'NONE',  ( -1.000000000000000000, -0.0000000000000000000, -0.0000000000000000000 ) ) ;
#216 = EDGE_CURVE ( 'NONE', #105, #71, #318, .T. ) ;
#217 = ORIENTED_EDGE ( 'NONE', *, *, #199, .F. ) ;
#218 = FACE_OUTER_BOUND ( 'NONE', #125, .T. ) ;
#219 = DIRECTION ( 'NONE',  ( 1.821459649775641300E-016, 0.0000000000000000000, 1.000000000000000000 ) ) ;
#220 = CARTESIAN_POINT ( 'NONE',  ( 230.5256261271373100, 0.0000000000000000000, -4.249677871349772400E-014 ) ) ;
#221 = PRODUCT_DEFINITION_CONTEXT ( 'detailed design', #330, 'design' ) ;
#222 = EDGE_CURVE ( 'NONE', #176, #71, #63, .T. ) ;
#223 = CIRCLE ( 'NONE', #34, 43.05000000000000400 ) ;
#224 = STYLED_ITEM ( 'NONE', ( #280 ), #102 ) ;
#225 =( NAMED_UNIT ( * ) PLANE_ANGLE_UNIT ( ) SI_UNIT ( $, .RADIAN. ) );
#226 = ORIENTED_EDGE ( 'NONE', *, *, #206, .T. ) ;
#227 = AXIS2_PLACEMENT_3D ( 'NONE', #31, #347, #298 ) ;
#228 = FACE_OUTER_BOUND ( 'NONE', #121, .T. ) ;
#229 = AXIS2_PLACEMENT_3D ( 'NONE', #196, #215, #9 ) ;
#230 = DIRECTION ( 'NONE',  ( -1.000000000000000000, -0.0000000000000000000, 1.836970198721029700E-016 ) ) ;
#231 = DIRECTION ( 'NONE',  ( 0.0000000000000000000, 0.0000000000000000000, 1.000000000000000000 ) ) ;
#232 = DIRECTION ( 'NONE',  ( -0.0000000000000000000, 1.000000000000000000, 1.224646799147353200E-016 ) ) ;
#233 = DIRECTION ( 'NONE',  ( -1.000000000000000000, -0.0000000000000000000, 1.836970198721029700E-016 ) ) ;
#234 = CARTESIAN_POINT ( 'NONE',  ( 232.7578455030243000, 1.530808498934191700E-015, -12.49999999999999800 ) ) ;
#235 = DIRECTION ( 'NONE',  ( 0.0000000000000000000, 0.0000000000000000000, 1.000000000000000000 ) ) ;
#236 = DIRECTION ( 'NONE',  ( -0.0000000000000000000, -1.000000000000000000, -0.0000000000000000000 ) ) ;
#237 = ORIENTED_EDGE ( 'NONE', *, *, #169, .T. ) ;
#238 = DIRECTION ( 'NONE',  ( -1.000000000000000000, -0.0000000000000000000, -0.0000000000000000000 ) ) ;
#239 = DIRECTION ( 'NONE',  ( 0.0000000000000000000, 0.0000000000000000000, 1.000000000000000000 ) ) ;
#240 = DIRECTION ( 'NONE',  ( -1.000000000000000000, -0.0000000000000000000, 1.836970198721029700E-016 ) ) ;
#241 = VERTEX_POINT ( 'NONE', #184 ) ;
#242 = CIRCLE ( 'NONE', #98, 60.67000000000000900 ) ;
#243 = AXIS2_PLACEMENT_3D ( 'NONE', #57, #185, #143 ) ;
#244 = DIRECTION ( 'NONE',  ( 0.0000000000000000000, 1.000000000000000000, 0.0000000000000000000 ) ) ;
#245 = AXIS2_PLACEMENT_3D ( 'NONE', #11, #232, #270 ) ;
#246 = DIRECTION ( 'NONE',  ( 0.0000000000000000000, 0.0000000000000000000, 1.000000000000000000 ) ) ;
#247 = SPHERICAL_SURFACE ( 'NONE', #324, 43.05000000000000400 ) ;
#248 = ORIENTED_EDGE ( 'NONE', *, *, #275, .T. ) ;
#249 = VERTEX_POINT ( 'NONE', #281 ) ;
#250 = DIRECTION ( 'NONE',  ( 0.0000000000000000000, 0.0000000000000000000, 1.000000000000000000 ) ) ;
#251 = ORIENTED_EDGE ( 'NONE', *, *, #109, .F. ) ;
#252 = ORIENTED_EDGE ( 'NONE', *, *, #8, .T. ) ;
#253 = DIRECTION ( 'NONE',  ( -1.000000000000000000, -0.0000000000000000000, 1.836970198721029700E-016 ) ) ;
#254 = AXIS2_PLACEMENT_3D ( 'NONE', #296, #288, #17 ) ;
#255 = ORIENTED_EDGE ( 'NONE', *, *, #60, .F. ) ;
#256 = AXIS2_PLACEMENT_3D ( 'NONE', #45, #59, #1 ) ;
#257 = CIRCLE ( 'NONE', #154, 12.50000000000004300 ) ;
#258 = CYLINDRICAL_SURFACE ( 'NONE', #85, 12.50000000000004300 ) ;
#259 = FILL_AREA_STYLE_COLOUR ( '', #173 ) ;
#260 = CARTESIAN_POINT ( 'NONE',  ( 224.3692556565556200, 0.0000000000000000000, 0.0000000000000000000 ) ) ;
#261 = ADVANCED_FACE ( 'NONE', ( #4 ), #141, .F. ) ;
#262 = CARTESIAN_POINT ( 'NONE',  ( 230.5256261271373100, 0.0000000000000000000, 0.0000000000000000000 ) ) ;
#263 = ORIENTED_EDGE ( 'NONE', *, *, #222, .F. ) ;
#264 = CARTESIAN_POINT ( 'NONE',  ( 271.7209231888165800, 0.0000000000000000000, -7.774638227973457500E-022 ) ) ;
#265 = AXIS2_PLACEMENT_3D ( 'NONE', #135, #155, #186 ) ;
#266 = DIRECTION ( 'NONE',  ( 0.0000000000000000000, 0.0000000000000000000, -1.000000000000000000 ) ) ;
#267 = CARTESIAN_POINT ( 'NONE',  ( 271.7209231888165800, 0.0000000000000000000, -7.774638227973457500E-022 ) ) ;
#268 = FILL_AREA_STYLE ('',( #345 ) ) ;
#269 = DIRECTION ( 'NONE',  ( -0.0000000000000000000, -1.000000000000000000, -0.0000000000000000000 ) ) ;
#270 = DIRECTION ( 'NONE',  ( 0.0000000000000000000, -1.224646799147353000E-016, 1.000000000000000000 ) ) ;
#271 = VERTEX_POINT ( 'NONE', #39 ) ;
#272 = CIRCLE ( 'NONE', #91, 12.49999999999999800 ) ;
#273 =( GEOMETRIC_REPRESENTATION_CONTEXT ( 3 ) GLOBAL_UNCERTAINTY_ASSIGNED_CONTEXT ( ( #138 ) ) GLOBAL_UNIT_ASSIGNED_CONTEXT ( ( #26, #225, #328 ) ) REPRESENTATION_CONTEXT ( 'NONE', 'WORKASPACE' ) );
#274 = DIRECTION ( 'NONE',  ( 0.0000000000000000000, -1.000000000000000000, 0.0000000000000000000 ) ) ;
#275 = EDGE_CURVE ( 'NONE', #271, #149, #142, .T. ) ;
#276 = CIRCLE ( 'NONE', #229, 12.50000000000001100 ) ;
#277 = LINE ( 'NONE', #12, #64 ) ;
#278 = AXIS2_PLACEMENT_3D ( 'NONE', #262, #319, #310 ) ;
#279 = EDGE_LOOP ( 'NONE', ( #2, #5, #41 ) ) ;
#280 = PRESENTATION_STYLE_ASSIGNMENT (( #341 ) ) ;
#281 = CARTESIAN_POINT ( 'NONE',  ( 232.2709231888166000, 0.0000000000000000000, -9.839424707749409800E-015 ) ) ;
#282 = SPHERICAL_SURFACE ( 'NONE', #78, 60.67000000000000900 ) ;
#283 = STYLED_ITEM ( 'NONE', ( #342 ), #62 ) ;
#284 = PRODUCT_DEFINITION ( 'Î´Öª', '', #292, #221 ) ;
#285 = SURFACE_SIDE_STYLE ('',( #335 ) ) ;
#286 = ORIENTED_EDGE ( 'NONE', *, *, #313, .T. ) ;
#287 = FACE_OUTER_BOUND ( 'NONE', #279, .T. ) ;
#288 = DIRECTION ( 'NONE',  ( 0.0000000000000000000, -1.000000000000000000, 0.0000000000000000000 ) ) ;
#289 = AXIS2_PLACEMENT_3D ( 'NONE', #165, #240, #75 ) ;
#290 = ORIENTED_EDGE ( 'NONE', *, *, #60, .T. ) ;
#291 = VECTOR ( 'NONE', #7, 1000.000000000000000 ) ;
#292 = PRODUCT_DEFINITION_FORMATION_WITH_SPECIFIED_SOURCE ( 'ÈÎºÎ', '', #51, .NOT_KNOWN. ) ;
#293 = CARTESIAN_POINT ( 'NONE',  ( -0.8160621761658062300, 1.530808498934196800E-015, -12.50000000000004300 ) ) ;
#294 =( NAMED_UNIT ( * ) PLANE_ANGLE_UNIT ( ) SI_UNIT ( $, .RADIAN. ) );
#295 = SPHERICAL_SURFACE ( 'NONE', #77, 43.05000000000000400 ) ;
#296 = CARTESIAN_POINT ( 'NONE',  ( 271.7209231888165800, 0.0000000000000000000, -7.774638227973457500E-022 ) ) ;
#297 = CARTESIAN_POINT ( 'NONE',  ( 165.0009231888165600, 0.0000000000000000000, -7.774840603276192800E-022 ) ) ;
#298 = DIRECTION ( 'NONE',  ( 0.0000000000000000000, 0.0000000000000000000, 1.000000000000000000 ) ) ;
#299 = ORIENTED_EDGE ( 'NONE', *, *, #216, .T. ) ;
#300 = CARTESIAN_POINT ( 'NONE',  ( 392.9609231888165900, 0.0000000000000000000, 0.0000000000000000000 ) ) ;
#301 = CARTESIAN_POINT ( 'NONE',  ( 232.7578455030243000, 0.0000000000000000000, 0.0000000000000000000 ) ) ;
#302 = DIRECTION ( 'NONE',  ( 0.0000000000000000000, 1.000000000000000000, 0.0000000000000000000 ) ) ;
#303 = ADVANCED_FACE ( 'NONE', ( #50 ), #247, .T. ) ;
#304 = AXIS2_PLACEMENT_3D ( 'NONE', #110, #104, #129 ) ;
#305 = CARTESIAN_POINT ( 'NONE',  ( -0.8160621761658016800, 0.0000000000000000000, 12.50000000000004300 ) ) ;
#306 = FACE_OUTER_BOUND ( 'NONE', #18, .T. ) ;
#307 = ADVANCED_FACE ( 'NONE', ( #182 ), #258, .T. ) ;
#308 = CARTESIAN_POINT ( 'NONE',  ( 165.0009231888165600, 0.0000000000000000000, -7.774840603276192800E-022 ) ) ;
#309 = ORIENTED_EDGE ( 'NONE', *, *, #136, .T. ) ;
#310 = DIRECTION ( 'NONE',  ( 0.0000000000000000000, 0.0000000000000000000, 1.000000000000000000 ) ) ;
#311 = CARTESIAN_POINT ( 'NONE',  ( 165.0009231888165600, 0.0000000000000000000, -7.774840603276192800E-022 ) ) ;
#312 = CARTESIAN_POINT ( 'NONE',  ( 232.7578455030243000, 0.0000000000000000000, 0.0000000000000000000 ) ) ;
#313 = EDGE_CURVE ( 'NONE', #194, #241, #190, .T. ) ;
#314 = VECTOR ( 'NONE', #170, 1000.000000000000000 ) ;
#315 = DIRECTION ( 'NONE',  ( -0.0000000000000000000, 1.000000000000000000, 0.0000000000000000000 ) ) ;
#316 = EDGE_LOOP ( 'NONE', ( #172, #114, #13 ) ) ;
#317 = AXIS2_PLACEMENT_3D ( 'NONE', #66, #37, #250 ) ;
#318 = CIRCLE ( 'NONE', #278, 12.50000000000001100 ) ;
#319 = DIRECTION ( 'NONE',  ( -1.000000000000000000, -0.0000000000000000000, -0.0000000000000000000 ) ) ;
#320 = CIRCLE ( 'NONE', #227, 12.50000000000004300 ) ;
#321 = CARTESIAN_POINT ( 'NONE',  ( 271.7209231888165800, 0.0000000000000000000, -7.774638227973457500E-022 ) ) ;
#322 = ADVANCED_FACE ( 'NONE', ( #218 ), #150, .T. ) ;
#323 = CARTESIAN_POINT ( 'NONE',  ( 225.6709231888165700, 0.0000000000000000000, -7.429932907911051200E-015 ) ) ;
#324 = AXIS2_PLACEMENT_3D ( 'NONE', #208, #244, #235 ) ;
#325 = SPHERICAL_SURFACE ( 'NONE', #344, 160.6900000000000000 ) ;
#326 = CARTESIAN_POINT ( 'NONE',  ( 232.7578455030243000, 0.0000000000000000000, 12.49999999999999800 ) ) ;
#327 = ADVANCED_FACE ( 'NONE', ( #213 ), #282, .F. ) ;
#328 =( NAMED_UNIT ( * ) SI_UNIT ( $, .STERADIAN. ) SOLID_ANGLE_UNIT ( ) );
#329 = DIRECTION ( 'NONE',  ( 0.0000000000000000000, 0.0000000000000000000, -1.000000000000000000 ) ) ;
#330 = APPLICATION_CONTEXT ( 'automotive_design' ) ;
#331 = CARTESIAN_POINT ( 'NONE',  ( 392.9609231888165900, 0.0000000000000000000, 0.0000000000000000000 ) ) ;
#332 = EDGE_LOOP ( 'NONE', ( #53, #207, #16 ) ) ;
#333 = ADVANCED_FACE ( 'NONE', ( #107 ), #325, .F. ) ;
#334 = ORIENTED_EDGE ( 'NONE', *, *, #171, .F. ) ;
#335 = SURFACE_STYLE_FILL_AREA ( #211 ) ;
#336 = CARTESIAN_POINT ( 'NONE',  ( 230.5256261271373100, 0.0000000000000000000, 12.50000000000000700 ) ) ;
#337 = ADVANCED_FACE ( 'NONE', ( #306 ), #115, .F. ) ;
#338 = PRODUCT_CONTEXT ( 'NONE', #52, 'mechanical' ) ;
#339 = SPHERICAL_SURFACE ( 'NONE', #27, 160.6900000000000000 ) ;
#340 = CIRCLE ( 'NONE', #44, 12.50000000000004300 ) ;
#341 = SURFACE_STYLE_USAGE ( .BOTH. , #89 ) ;
#342 = PRESENTATION_STYLE_ASSIGNMENT (( #119 ) ) ;
#343 = DIRECTION ( 'NONE',  ( 0.0000000000000000000, 0.0000000000000000000, 1.000000000000000000 ) ) ;
#344 = AXIS2_PLACEMENT_3D ( 'NONE', #300, #236, #133 ) ;
#345 = FILL_AREA_STYLE_COLOUR ( '', #146 ) ;
#346 = ORIENTED_EDGE ( 'NONE', *, *, #47, .T. ) ;
#347 = DIRECTION ( 'NONE',  ( -1.000000000000000000, -0.0000000000000000000, 1.836970198721029700E-016 ) ) ;
ENDSEC;
END-ISO-10303-21;
