ISO-10303-21;
HEADER;
FILE_DESCRIPTION (( 'STEP AP214' ),
    '1' );
FILE_NAME ('145198.STEP',
    '2019-06-13T07:21:44',
    ( 'user' ),
    ( 'Î¢ÈíÖÐ¹ú' ),
    'SwSTEP 2.0',
    'SolidWorks 2016',
    '' );
FILE_SCHEMA (( 'AUTOMOTIVE_DESIGN' ));
ENDSEC;

DATA;
#1 = ORIENTED_EDGE ( 'NONE', *, *, #84, .F. ) ;
#2 = CARTESIAN_POINT ( 'NONE',  ( 263.4514811909102100, 1.555301434917144500E-015, -12.70000000000009700 ) ) ;
#3 =( GEOMETRIC_REPRESENTATION_CONTEXT ( 3 ) GLOBAL_UNCERTAINTY_ASSIGNED_CONTEXT ( ( #11 ) ) GLOBAL_UNIT_ASSIGNED_CONTEXT ( ( #314, #152, #337 ) ) REPRESENTATION_CONTEXT ( 'NONE', 'WORKASPACE' ) );
#4 = ORIENTED_EDGE ( 'NONE', *, *, #253, .F. ) ;
#5 = ORIENTED_EDGE ( 'NONE', *, *, #330, .T. ) ;
#6 = AXIS2_PLACEMENT_3D ( 'NONE', #168, #220, #170 ) ;
#7 = VECTOR ( 'NONE', #301, 1000.000000000000000 ) ;
#8 = EDGE_CURVE ( 'NONE', #190, #162, #150, .T. ) ;
#9 = UNCERTAINTY_MEASURE_WITH_UNIT (LENGTH_MEASURE( 1.000000000000000100E-005 ), #212, 'distance_accuracy_value', 'NONE');
#10 = CIRCLE ( 'NONE', #106, 12.70000000000004700 ) ;
#11 = UNCERTAINTY_MEASURE_WITH_UNIT (LENGTH_MEASURE( 1.000000000000000100E-005 ), #314, 'distance_accuracy_value', 'NONE');
#12 = CIRCLE ( 'NONE', #141, 33.99999999999995700 ) ;
#13 = CIRCLE ( 'NONE', #288, 189.1999999999999900 ) ;
#14 = DIRECTION ( 'NONE',  ( 2.249639673992787000E-032, 1.000000000000000000, 1.224646799147353200E-016 ) ) ;
#15 = ORIENTED_EDGE ( 'NONE', *, *, #100, .F. ) ;
#16 = AXIS2_PLACEMENT_3D ( 'NONE', #155, #32, #44 ) ;
#17 = EDGE_CURVE ( 'NONE', #228, #296, #291, .T. ) ;
#18 = DIRECTION ( 'NONE',  ( -0.0000000000000000000, 1.000000000000000000, 1.224646799147353200E-016 ) ) ;
#19 = DIRECTION ( 'NONE',  ( 0.0000000000000000000, 0.0000000000000000000, 1.000000000000000000 ) ) ;
#20 = CARTESIAN_POINT ( 'NONE',  ( 260.8673632604732100, 0.0000000000000000000, 1.990050271128873000E-015 ) ) ;
#21 =( NAMED_UNIT ( * ) PLANE_ANGLE_UNIT ( ) SI_UNIT ( $, .RADIAN. ) );
#22 = EDGE_LOOP ( 'NONE', ( #201, #185, #28 ) ) ;
#23 = CIRCLE ( 'NONE', #207, 12.70000000000004500 ) ;
#24 = CARTESIAN_POINT ( 'NONE',  ( 256.4063867076251300, 0.0000000000000000000, 0.0000000000000000000 ) ) ;
#25 = AXIS2_PLACEMENT_3D ( 'NONE', #103, #294, #133 ) ;
#26 = EDGE_CURVE ( 'NONE', #177, #327, #286, .T. ) ;
#27 = PRESENTATION_STYLE_ASSIGNMENT (( #259 ) ) ;
#28 = ORIENTED_EDGE ( 'NONE', *, *, #304, .F. ) ;
#29 = ORIENTED_EDGE ( 'NONE', *, *, #62, .F. ) ;
#30 =( LENGTH_UNIT ( ) NAMED_UNIT ( * ) SI_UNIT ( .MILLI., .METRE. ) );
#31 = VECTOR ( 'NONE', #299, 1000.000000000000000 ) ;
#32 = DIRECTION ( 'NONE',  ( 0.0000000000000000000, -1.000000000000000000, 0.0000000000000000000 ) ) ;
#33 = MANIFOLD_SOLID_BREP ( 'Ðý×ª3', #216 ) ;
#34 = MECHANICAL_DESIGN_GEOMETRIC_PRESENTATION_REPRESENTATION (  '', ( #56 ), #176 ) ;
#35 = EDGE_CURVE ( 'NONE', #154, #228, #116, .T. ) ;
#36 = DIRECTION ( 'NONE',  ( 0.0000000000000000000, 0.0000000000000000000, -1.000000000000000000 ) ) ;
#37 = ORIENTED_EDGE ( 'NONE', *, *, #100, .T. ) ;
#38 = CIRCLE ( 'NONE', #217, 189.1999999999999900 ) ;
#39 = CARTESIAN_POINT ( 'NONE',  ( 293.3673632604732100, 0.0000000000000000000, -7.774855760114932200E-022 ) ) ;
#40 = CARTESIAN_POINT ( 'NONE',  ( 260.8673632604732100, 0.0000000000000000000, 3.980101319743321100E-015 ) ) ;
#41 = DIRECTION ( 'NONE',  ( -1.000000000000000000, -0.0000000000000000000, -0.0000000000000000000 ) ) ;
#42 = SPHERICAL_SURFACE ( 'NONE', #113, 32.49999999999998600 ) ;
#43 = ORIENTED_EDGE ( 'NONE', *, *, #330, .F. ) ;
#44 = DIRECTION ( 'NONE',  ( 0.0000000000000000000, 0.0000000000000000000, -1.000000000000000000 ) ) ;
#45 = CARTESIAN_POINT ( 'NONE',  ( 224.8673632604732100, 0.0000000000000000000, -7.774854966861718100E-022 ) ) ;
#46 = FILL_AREA_STYLE ('',( #264 ) ) ;
#47 = DIRECTION ( 'NONE',  ( 0.0000000000000000000, 1.000000000000000000, -0.0000000000000000000 ) ) ;
#48 = CARTESIAN_POINT ( 'NONE',  ( 224.8673632604732100, 0.0000000000000000000, -7.774854966861718100E-022 ) ) ;
#49 = SPHERICAL_SURFACE ( 'NONE', #227, 32.50000000000000000 ) ;
#50 = DIRECTION ( 'NONE',  ( -0.0000000000000000000, 1.000000000000000000, 0.0000000000000000000 ) ) ;
#51 = AXIS2_PLACEMENT_3D ( 'NONE', #45, #14, #99 ) ;
#52 = CARTESIAN_POINT ( 'NONE',  ( 256.4063867076251300, 0.0000000000000000000, 0.0000000000000000000 ) ) ;
#53 = FACE_OUTER_BOUND ( 'NONE', #290, .T. ) ;
#54 = DIRECTION ( 'NONE',  ( -1.000000000000000000, -0.0000000000000000000, 1.836970198721030200E-016 ) ) ;
#55 = CARTESIAN_POINT ( 'NONE',  ( -0.8160621761658015700, 0.0000000000000000000, 12.70000000000004700 ) ) ;
#56 = STYLED_ITEM ( 'NONE', ( #221 ), #151 ) ;
#57 = ORIENTED_EDGE ( 'NONE', *, *, #210, .F. ) ;
#58 = CIRCLE ( 'NONE', #200, 32.50000000000000000 ) ;
#59 = APPLICATION_PROTOCOL_DEFINITION ( 'draft international standard', 'automotive_design', 1998, #72 ) ;
#60 = DIRECTION ( 'NONE',  ( 0.0000000000000000000, 0.0000000000000000000, 1.000000000000000000 ) ) ;
#61 = SURFACE_STYLE_FILL_AREA ( #124 ) ;
#62 = EDGE_CURVE ( 'NONE', #256, #154, #297, .T. ) ;
#63 = DIRECTION ( 'NONE',  ( -0.0000000000000000000, -1.000000000000000000, -0.0000000000000000000 ) ) ;
#64 = COLOUR_RGB ( '',1.000000000000000000, 1.000000000000000000, 1.000000000000000000 ) ;
#65 = AXIS2_PLACEMENT_3D ( 'NONE', #117, #89, #344 ) ;
#66 = FACE_OUTER_BOUND ( 'NONE', #169, .T. ) ;
#67 = DIRECTION ( 'NONE',  ( 0.0000000000000000000, 0.0000000000000000000, 1.000000000000000000 ) ) ;
#68 = ORIENTED_EDGE ( 'NONE', *, *, #281, .T. ) ;
#69 = ADVANCED_FACE ( 'NONE', ( #191 ), #199, .T. ) ;
#70 = FILL_AREA_STYLE_COLOUR ( '', #218 ) ;
#71 = DIRECTION ( 'NONE',  ( -1.000000000000000000, -0.0000000000000000000, 1.836970198721030200E-016 ) ) ;
#72 = APPLICATION_CONTEXT ( 'automotive_design' ) ;
#73 = PRESENTATION_LAYER_ASSIGNMENT (  '', '', ( #56 ) ) ;
#74 = CARTESIAN_POINT ( 'NONE',  ( -0.8160621761658039000, 0.0000000000000000000, 0.0000000000000000000 ) ) ;
#75 = DIRECTION ( 'NONE',  ( 0.0000000000000000000, 1.000000000000000000, 0.0000000000000000000 ) ) ;
#76 = CARTESIAN_POINT ( 'NONE',  ( 256.4063867076251300, 1.555301434917143200E-015, -12.70000000000004500 ) ) ;
#77 = PRODUCT_CONTEXT ( 'NONE', #72, 'mechanical' ) ;
#78 = DIRECTION ( 'NONE',  ( 0.0000000000000000000, 0.0000000000000000000, 1.000000000000000000 ) ) ;
#79 = VERTEX_POINT ( 'NONE', #158 ) ;
#80 = DIRECTION ( 'NONE',  ( -1.000000000000000000, -0.0000000000000000000, -0.0000000000000000000 ) ) ;
#81 = PRODUCT_DEFINITION_SHAPE ( 'NONE', 'NONE',  #91 ) ;
#82 = CARTESIAN_POINT ( 'NONE',  ( 256.4063867076251300, 1.555301434917138400E-015, -12.69999999999999900 ) ) ;
#83 = DIRECTION ( 'NONE',  ( -0.0000000000000000000, 1.000000000000000000, 0.0000000000000000000 ) ) ;
#84 = EDGE_CURVE ( 'NONE', #177, #279, #10, .T. ) ;
#85 = VECTOR ( 'NONE', #306, 1000.000000000000000 ) ;
#86 = DIRECTION ( 'NONE',  ( 0.0000000000000000000, -1.000000000000000000, -1.224646799147353200E-016 ) ) ;
#87 = ORIENTED_EDGE ( 'NONE', *, *, #84, .T. ) ;
#88 = ADVANCED_BREP_SHAPE_REPRESENTATION ( '145198', ( #151, #33, #65 ), #130 ) ;
#89 = DIRECTION ( 'NONE',  ( 0.0000000000000000000, 0.0000000000000000000, 1.000000000000000000 ) ) ;
#90 = EDGE_LOOP ( 'NONE', ( #4, #240, #68, #43 ) ) ;
#91 = PRODUCT_DEFINITION ( 'Î´Öª', '', #157, #161 ) ;
#92 = EDGE_CURVE ( 'NONE', #256, #79, #38, .T. ) ;
#93 = ORIENTED_EDGE ( 'NONE', *, *, #235, .F. ) ;
#94 = AXIS2_PLACEMENT_3D ( 'NONE', #148, #83, #307 ) ;
#95 = ADVANCED_FACE ( 'NONE', ( #260 ), #277, .T. ) ;
#96 = ORIENTED_EDGE ( 'NONE', *, *, #208, .F. ) ;
#97 = DIRECTION ( 'NONE',  ( -2.249639673992787000E-032, -1.000000000000000000, -1.224646799147353200E-016 ) ) ;
#98 = ADVANCED_FACE ( 'NONE', ( #266 ), #49, .T. ) ;
#99 = DIRECTION ( 'NONE',  ( 0.0000000000000000000, -1.224646799147353200E-016, 1.000000000000000000 ) ) ;
#100 = EDGE_CURVE ( 'NONE', #279, #327, #122, .T. ) ;
#101 = ORIENTED_EDGE ( 'NONE', *, *, #164, .T. ) ;
#102 = DIRECTION ( 'NONE',  ( -1.000000000000000000, -0.0000000000000000000, -0.0000000000000000000 ) ) ;
#103 = CARTESIAN_POINT ( 'NONE',  ( 265.7940865500235600, 0.0000000000000000000, 0.0000000000000000000 ) ) ;
#104 = ORIENTED_EDGE ( 'NONE', *, *, #233, .F. ) ;
#105 = SPHERICAL_SURFACE ( 'NONE', #182, 189.1999999999999900 ) ;
#106 = AXIS2_PLACEMENT_3D ( 'NONE', #320, #159, #343 ) ;
#107 = CIRCLE ( 'NONE', #270, 12.70000000000004700 ) ;
#108 = DIRECTION ( 'NONE',  ( 0.0000000000000000000, 0.0000000000000000000, 1.000000000000000000 ) ) ;
#109 = COLOUR_RGB ( '',1.000000000000000000, 1.000000000000000000, 1.000000000000000000 ) ;
#110 = DIRECTION ( 'NONE',  ( -1.000000000000000000, -0.0000000000000000000, -0.0000000000000000000 ) ) ;
#111 = EDGE_CURVE ( 'NONE', #154, #256, #202, .T. ) ;
#112 = CARTESIAN_POINT ( 'NONE',  ( 263.4514811909102100, 0.0000000000000000000, -4.854516016545361600E-014 ) ) ;
#113 = AXIS2_PLACEMENT_3D ( 'NONE', #173, #334, #267 ) ;
#114 = EDGE_LOOP ( 'NONE', ( #57, #310, #308, #96 ) ) ;
#115 = FILL_AREA_STYLE ('',( #225 ) ) ;
#116 = LINE ( 'NONE', #229, #333 ) ;
#117 = CARTESIAN_POINT ( 'NONE',  ( 0.0000000000000000000, 0.0000000000000000000, 0.0000000000000000000 ) ) ;
#118 = ORIENTED_EDGE ( 'NONE', *, *, #233, .T. ) ;
#119 = ORIENTED_EDGE ( 'NONE', *, *, #164, .F. ) ;
#120 = DIRECTION ( 'NONE',  ( -0.0000000000000000000, 1.000000000000000000, 0.0000000000000000000 ) ) ;
#121 = ORIENTED_EDGE ( 'NONE', *, *, #275, .F. ) ;
#122 = CIRCLE ( 'NONE', #146, 32.49999999999998600 ) ;
#123 = DIRECTION ( 'NONE',  ( 0.0000000000000000000, 0.0000000000000000000, 1.000000000000000000 ) ) ;
#124 = FILL_AREA_STYLE ('',( #70 ) ) ;
#125 = SHAPE_DEFINITION_REPRESENTATION ( #81, #88 ) ;
#126 = ORIENTED_EDGE ( 'NONE', *, *, #92, .T. ) ;
#127 = SURFACE_SIDE_STYLE ('',( #254 ) ) ;
#128 = UNCERTAINTY_MEASURE_WITH_UNIT (LENGTH_MEASURE( 1.000000000000000100E-005 ), #192, 'distance_accuracy_value', 'NONE');
#129 = DIRECTION ( 'NONE',  ( -1.000000000000000000, -0.0000000000000000000, 1.836970198721030200E-016 ) ) ;
#130 =( GEOMETRIC_REPRESENTATION_CONTEXT ( 3 ) GLOBAL_UNCERTAINTY_ASSIGNED_CONTEXT ( ( #255 ) ) GLOBAL_UNIT_ASSIGNED_CONTEXT ( ( #30, #335, #145 ) ) REPRESENTATION_CONTEXT ( 'NONE', 'WORKASPACE' ) );
#131 = CARTESIAN_POINT ( 'NONE',  ( -0.8160621761658039000, 0.0000000000000000000, 0.0000000000000000000 ) ) ;
#132 = SURFACE_STYLE_FILL_AREA ( #46 ) ;
#133 = DIRECTION ( 'NONE',  ( 0.0000000000000000000, 0.0000000000000000000, 1.000000000000000000 ) ) ;
#134 = LINE ( 'NONE', #274, #7 ) ;
#135 = CARTESIAN_POINT ( 'NONE',  ( 224.8673632604732100, 0.0000000000000000000, -7.774854966861718100E-022 ) ) ;
#136 = CARTESIAN_POINT ( 'NONE',  ( 256.4063867076251300, 0.0000000000000000000, -4.725099730415674300E-014 ) ) ;
#137 = CIRCLE ( 'NONE', #258, 12.70000000000004500 ) ;
#138 = CARTESIAN_POINT ( 'NONE',  ( 258.8673632604731600, 0.0000000000000000000, -4.163799894586493700E-015 ) ) ;
#139 = ORIENTED_EDGE ( 'NONE', *, *, #281, .F. ) ;
#140 = DIRECTION ( 'NONE',  ( 0.0000000000000000000, 0.0000000000000000000, 1.000000000000000000 ) ) ;
#141 = AXIS2_PLACEMENT_3D ( 'NONE', #135, #324, #163 ) ;
#142 = EDGE_CURVE ( 'NONE', #296, #332, #58, .T. ) ;
#143 = DIRECTION ( 'NONE',  ( 0.0000000000000000000, 0.0000000000000000000, 1.000000000000000000 ) ) ;
#144 = CARTESIAN_POINT ( 'NONE',  ( 263.4514811909102100, 1.555301434917140400E-015, -12.70000000000001500 ) ) ;
#145 =( NAMED_UNIT ( * ) SI_UNIT ( $, .STERADIAN. ) SOLID_ANGLE_UNIT ( ) );
#146 = AXIS2_PLACEMENT_3D ( 'NONE', #213, #50, #239 ) ;
#147 = ORIENTED_EDGE ( 'NONE', *, *, #111, .F. ) ;
#148 = CARTESIAN_POINT ( 'NONE',  ( 224.8673632604732100, 0.0000000000000000000, -7.774854966861718100E-022 ) ) ;
#149 = STYLED_ITEM ( 'NONE', ( #27 ), #88 ) ;
#150 = CIRCLE ( 'NONE', #51, 33.99999999999995700 ) ;
#151 = MANIFOLD_SOLID_BREP ( 'Ðý×ª1', #206 ) ;
#152 =( NAMED_UNIT ( * ) PLANE_ANGLE_UNIT ( ) SI_UNIT ( $, .RADIAN. ) );
#153 = SURFACE_STYLE_USAGE ( .BOTH. , #284 ) ;
#154 = VERTEX_POINT ( 'NONE', #345 ) ;
#155 = CARTESIAN_POINT ( 'NONE',  ( 293.3673632604732100, 0.0000000000000000000, -7.774855760114932200E-022 ) ) ;
#156 = SPHERICAL_SURFACE ( 'NONE', #278, 33.99999999999995700 ) ;
#157 = PRODUCT_DEFINITION_FORMATION_WITH_SPECIFIED_SOURCE ( 'ÈÎºÎ', '', #178, .NOT_KNOWN. ) ;
#158 = CARTESIAN_POINT ( 'NONE',  ( 265.3673632604732100, 0.0000000000000000000, -1.158515871993396000E-014 ) ) ;
#159 = DIRECTION ( 'NONE',  ( -1.000000000000000000, -0.0000000000000000000, 1.836970198721030200E-016 ) ) ;
#160 = SURFACE_SIDE_STYLE ('',( #132 ) ) ;
#161 = PRODUCT_DEFINITION_CONTEXT ( 'detailed design', #172, 'design' ) ;
#162 = VERTEX_POINT ( 'NONE', #76 ) ;
#163 = DIRECTION ( 'NONE',  ( 0.0000000000000000000, 0.0000000000000000000, -1.000000000000000000 ) ) ;
#164 = EDGE_CURVE ( 'NONE', #190, #257, #12, .T. ) ;
#165 = FACE_OUTER_BOUND ( 'NONE', #174, .T. ) ;
#166 = CARTESIAN_POINT ( 'NONE',  ( 293.3673632604732100, 0.0000000000000000000, -7.774855760114932200E-022 ) ) ;
#167 = CARTESIAN_POINT ( 'NONE',  ( 265.7940865500235600, 1.555301434917138400E-015, -12.69999999999999900 ) ) ;
#168 = CARTESIAN_POINT ( 'NONE',  ( 293.3673632604732100, 0.0000000000000000000, -7.774855760114932200E-022 ) ) ;
#169 = EDGE_LOOP ( 'NONE', ( #1, #322, #15 ) ) ;
#170 = DIRECTION ( 'NONE',  ( 0.0000000000000000000, 0.0000000000000000000, 1.000000000000000000 ) ) ;
#171 = AXIS2_PLACEMENT_3D ( 'NONE', #249, #63, #36 ) ;
#172 = APPLICATION_CONTEXT ( 'automotive_design' ) ;
#173 = CARTESIAN_POINT ( 'NONE',  ( 293.3673632604732100, 0.0000000000000000000, -7.774855760114932200E-022 ) ) ;
#174 = EDGE_LOOP ( 'NONE', ( #147, #250, #224 ) ) ;
#175 = LINE ( 'NONE', #82, #31 ) ;
#176 =( GEOMETRIC_REPRESENTATION_CONTEXT ( 3 ) GLOBAL_UNCERTAINTY_ASSIGNED_CONTEXT ( ( #128 ) ) GLOBAL_UNIT_ASSIGNED_CONTEXT ( ( #192, #21, #214 ) ) REPRESENTATION_CONTEXT ( 'NONE', 'WORKASPACE' ) );
#177 = VERTEX_POINT ( 'NONE', #268 ) ;
#178 = PRODUCT ( '145198', '145198', '', ( #77 ) ) ;
#179 = EDGE_LOOP ( 'NONE', ( #186, #265, #285, #247 ) ) ;
#180 = ADVANCED_FACE ( 'NONE', ( #165 ), #105, .F. ) ;
#181 = FACE_OUTER_BOUND ( 'NONE', #179, .T. ) ;
#182 = AXIS2_PLACEMENT_3D ( 'NONE', #241, #295, #193 ) ;
#183 = LINE ( 'NONE', #55, #85 ) ;
#184 = ADVANCED_FACE ( 'NONE', ( #181 ), #298, .T. ) ;
#185 = ORIENTED_EDGE ( 'NONE', *, *, #142, .T. ) ;
#186 = ORIENTED_EDGE ( 'NONE', *, *, #111, .T. ) ;
#187 = CARTESIAN_POINT ( 'NONE',  ( 293.3673632604732100, 0.0000000000000000000, -7.774855760114932200E-022 ) ) ;
#188 = MECHANICAL_DESIGN_GEOMETRIC_PRESENTATION_REPRESENTATION (  '', ( #336 ), #3 ) ;
#189 = DIRECTION ( 'NONE',  ( 1.878145495644173900E-016, 0.0000000000000000000, 1.000000000000000000 ) ) ;
#190 = VERTEX_POINT ( 'NONE', #138 ) ;
#191 = FACE_OUTER_BOUND ( 'NONE', #90, .T. ) ;
#192 =( LENGTH_UNIT ( ) NAMED_UNIT ( * ) SI_UNIT ( .MILLI., .METRE. ) );
#193 = DIRECTION ( 'NONE',  ( 0.0000000000000000000, 0.0000000000000000000, -1.000000000000000000 ) ) ;
#194 = DIRECTION ( 'NONE',  ( 0.0000000000000000000, 0.0000000000000000000, -1.000000000000000000 ) ) ;
#195 = SPHERICAL_SURFACE ( 'NONE', #171, 189.1999999999999900 ) ;
#196 = AXIS2_PLACEMENT_3D ( 'NONE', #231, #41, #67 ) ;
#197 =( NAMED_UNIT ( * ) SI_UNIT ( $, .STERADIAN. ) SOLID_ANGLE_UNIT ( ) );
#198 = ORIENTED_EDGE ( 'NONE', *, *, #26, .F. ) ;
#199 = CYLINDRICAL_SURFACE ( 'NONE', #222, 12.70000000000004700 ) ;
#200 = AXIS2_PLACEMENT_3D ( 'NONE', #187, #18, #209 ) ;
#201 = ORIENTED_EDGE ( 'NONE', *, *, #17, .T. ) ;
#202 = CIRCLE ( 'NONE', #25, 12.69999999999999900 ) ;
#203 = ADVANCED_FACE ( 'NONE', ( #242 ), #251, .T. ) ;
#204 = DIRECTION ( 'NONE',  ( -1.000000000000000000, -0.0000000000000000000, -0.0000000000000000000 ) ) ;
#205 = ADVANCED_FACE ( 'NONE', ( #315 ), #232, .F. ) ;
#206 = CLOSED_SHELL ( 'NONE', ( #316, #95, #287, #313, #69, #205 ) ) ;
#207 = AXIS2_PLACEMENT_3D ( 'NONE', #219, #54, #244 ) ;
#208 = EDGE_CURVE ( 'NONE', #296, #228, #323, .T. ) ;
#209 = DIRECTION ( 'NONE',  ( 0.0000000000000000000, -1.224646799147353500E-016, 1.000000000000000000 ) ) ;
#210 = EDGE_CURVE ( 'NONE', #256, #296, #175, .T. ) ;
#211 = CARTESIAN_POINT ( 'NONE',  ( 454.5673632604732000, 0.0000000000000000000, 0.0000000000000000000 ) ) ;
#212 =( LENGTH_UNIT ( ) NAMED_UNIT ( * ) SI_UNIT ( .MILLI., .METRE. ) );
#213 = CARTESIAN_POINT ( 'NONE',  ( 293.3673632604732100, 0.0000000000000000000, -7.774855760114932200E-022 ) ) ;
#214 =( NAMED_UNIT ( * ) SI_UNIT ( $, .STERADIAN. ) SOLID_ANGLE_UNIT ( ) );
#215 = DIRECTION ( 'NONE',  ( -1.000000000000000000, -0.0000000000000000000, -0.0000000000000000000 ) ) ;
#216 = CLOSED_SHELL ( 'NONE', ( #180, #184, #98, #283, #203, #339 ) ) ;
#217 = AXIS2_PLACEMENT_3D ( 'NONE', #211, #47, #238 ) ;
#218 = COLOUR_RGB ( '',1.000000000000000000, 1.000000000000000000, 1.000000000000000000 ) ;
#219 = CARTESIAN_POINT ( 'NONE',  ( 256.4063867076251300, 0.0000000000000000000, -4.725099730415674300E-014 ) ) ;
#220 = DIRECTION ( 'NONE',  ( 0.0000000000000000000, 1.000000000000000000, 0.0000000000000000000 ) ) ;
#221 = PRESENTATION_STYLE_ASSIGNMENT (( #347 ) ) ;
#222 = AXIS2_PLACEMENT_3D ( 'NONE', #74, #71, #234 ) ;
#223 = APPLICATION_PROTOCOL_DEFINITION ( 'draft international standard', 'automotive_design', 1998, #172 ) ;
#224 = ORIENTED_EDGE ( 'NONE', *, *, #92, .F. ) ;
#225 = FILL_AREA_STYLE_COLOUR ( '', #109 ) ;
#226 = DIRECTION ( 'NONE',  ( -1.000000000000000000, -0.0000000000000000000, 1.836970198721030200E-016 ) ) ;
#227 = AXIS2_PLACEMENT_3D ( 'NONE', #293, #75, #19 ) ;
#228 = VERTEX_POINT ( 'NONE', #326 ) ;
#229 = CARTESIAN_POINT ( 'NONE',  ( 256.4063867076251300, 0.0000000000000000000, 12.69999999999999900 ) ) ;
#230 = ORIENTED_EDGE ( 'NONE', *, *, #8, .T. ) ;
#231 = CARTESIAN_POINT ( 'NONE',  ( 263.4514811909102100, 0.0000000000000000000, 0.0000000000000000000 ) ) ;
#232 = SPHERICAL_SURFACE ( 'NONE', #246, 32.49999999999998600 ) ;
#233 = EDGE_CURVE ( 'NONE', #257, #162, #23, .T. ) ;
#234 = DIRECTION ( 'NONE',  ( 1.878145495644173900E-016, 0.0000000000000000000, 1.000000000000000000 ) ) ;
#235 = EDGE_CURVE ( 'NONE', #279, #177, #107, .T. ) ;
#236 = ORIENTED_EDGE ( 'NONE', *, *, #253, .T. ) ;
#237 =( GEOMETRIC_REPRESENTATION_CONTEXT ( 3 ) GLOBAL_UNCERTAINTY_ASSIGNED_CONTEXT ( ( #9 ) ) GLOBAL_UNIT_ASSIGNED_CONTEXT ( ( #212, #342, #197 ) ) REPRESENTATION_CONTEXT ( 'NONE', 'WORKASPACE' ) );
#238 = DIRECTION ( 'NONE',  ( 0.0000000000000000000, 0.0000000000000000000, 1.000000000000000000 ) ) ;
#239 = DIRECTION ( 'NONE',  ( 0.0000000000000000000, 0.0000000000000000000, 1.000000000000000000 ) ) ;
#240 = ORIENTED_EDGE ( 'NONE', *, *, #235, .T. ) ;
#241 = CARTESIAN_POINT ( 'NONE',  ( 454.5673632604732000, 0.0000000000000000000, 0.0000000000000000000 ) ) ;
#242 = FACE_OUTER_BOUND ( 'NONE', #114, .T. ) ;
#243 = FACE_OUTER_BOUND ( 'NONE', #318, .T. ) ;
#244 = DIRECTION ( 'NONE',  ( 0.0000000000000000000, 0.0000000000000000000, 1.000000000000000000 ) ) ;
#245 = ORIENTED_EDGE ( 'NONE', *, *, #8, .F. ) ;
#246 = AXIS2_PLACEMENT_3D ( 'NONE', #166, #269, #194 ) ;
#247 = ORIENTED_EDGE ( 'NONE', *, *, #35, .F. ) ;
#248 = CARTESIAN_POINT ( 'NONE',  ( 454.5673632604732000, 0.0000000000000000000, 0.0000000000000000000 ) ) ;
#249 = CARTESIAN_POINT ( 'NONE',  ( 454.5673632604732000, 0.0000000000000000000, 0.0000000000000000000 ) ) ;
#250 = ORIENTED_EDGE ( 'NONE', *, *, #275, .T. ) ;
#251 = CYLINDRICAL_SURFACE ( 'NONE', #319, 12.69999999999999900 ) ;
#252 = AXIS2_PLACEMENT_3D ( 'NONE', #273, #110, #140 ) ;
#253 = EDGE_CURVE ( 'NONE', #279, #162, #134, .T. ) ;
#254 = SURFACE_STYLE_FILL_AREA ( #115 ) ;
#255 = UNCERTAINTY_MEASURE_WITH_UNIT (LENGTH_MEASURE( 1.000000000000000100E-005 ), #30, 'distance_accuracy_value', 'NONE');
#256 = VERTEX_POINT ( 'NONE', #167 ) ;
#257 = VERTEX_POINT ( 'NONE', #329 ) ;
#258 = AXIS2_PLACEMENT_3D ( 'NONE', #136, #226, #123 ) ;
#259 = SURFACE_STYLE_USAGE ( .BOTH. , #127 ) ;
#260 = FACE_OUTER_BOUND ( 'NONE', #328, .T. ) ;
#261 = DIRECTION ( 'NONE',  ( 0.0000000000000000000, 1.224646799147353200E-016, -1.000000000000000000 ) ) ;
#262 = CARTESIAN_POINT ( 'NONE',  ( 265.7940865500235600, 0.0000000000000000000, 0.0000000000000000000 ) ) ;
#263 = AXIS2_PLACEMENT_3D ( 'NONE', #131, #129, #189 ) ;
#264 = FILL_AREA_STYLE_COLOUR ( '', #64 ) ;
#265 = ORIENTED_EDGE ( 'NONE', *, *, #210, .T. ) ;
#266 = FACE_OUTER_BOUND ( 'NONE', #22, .T. ) ;
#267 = DIRECTION ( 'NONE',  ( 0.0000000000000000000, 0.0000000000000000000, -1.000000000000000000 ) ) ;
#268 = CARTESIAN_POINT ( 'NONE',  ( 263.4514811909102100, 0.0000000000000000000, 12.69999999999999900 ) ) ;
#269 = DIRECTION ( 'NONE',  ( -0.0000000000000000000, -1.000000000000000000, -0.0000000000000000000 ) ) ;
#270 = AXIS2_PLACEMENT_3D ( 'NONE', #112, #302, #143 ) ;
#271 = ORIENTED_EDGE ( 'NONE', *, *, #304, .T. ) ;
#272 = ORIENTED_EDGE ( 'NONE', *, *, #208, .T. ) ;
#273 = CARTESIAN_POINT ( 'NONE',  ( 263.4514811909102100, 0.0000000000000000000, 0.0000000000000000000 ) ) ;
#274 = CARTESIAN_POINT ( 'NONE',  ( -0.8160621761658063400, 1.555301434917144500E-015, -12.70000000000004700 ) ) ;
#275 = EDGE_CURVE ( 'NONE', #154, #79, #13, .T. ) ;
#276 = DIRECTION ( 'NONE',  ( 0.0000000000000000000, 1.224646799147353200E-016, -1.000000000000000000 ) ) ;
#277 = CYLINDRICAL_SURFACE ( 'NONE', #263, 12.70000000000004700 ) ;
#278 = AXIS2_PLACEMENT_3D ( 'NONE', #48, #120, #60 ) ;
#279 = VERTEX_POINT ( 'NONE', #2 ) ;
#280 = PRODUCT_RELATED_PRODUCT_CATEGORY ( 'part', '', ( #178 ) ) ;
#281 = EDGE_CURVE ( 'NONE', #177, #257, #183, .T. ) ;
#282 = PRESENTATION_STYLE_ASSIGNMENT (( #153 ) ) ;
#283 = ADVANCED_FACE ( 'NONE', ( #325 ), #317, .T. ) ;
#284 = SURFACE_SIDE_STYLE ('',( #61 ) ) ;
#285 = ORIENTED_EDGE ( 'NONE', *, *, #17, .F. ) ;
#286 = CIRCLE ( 'NONE', #303, 32.49999999999998600 ) ;
#287 = ADVANCED_FACE ( 'NONE', ( #243 ), #156, .F. ) ;
#288 = AXIS2_PLACEMENT_3D ( 'NONE', #248, #86, #276 ) ;
#289 = DIRECTION ( 'NONE',  ( 0.0000000000000000000, 0.0000000000000000000, 1.000000000000000000 ) ) ;
#290 = EDGE_LOOP ( 'NONE', ( #121, #29, #126 ) ) ;
#291 = CIRCLE ( 'NONE', #196, 12.69999999999999900 ) ;
#292 = AXIS2_PLACEMENT_3D ( 'NONE', #262, #102, #289 ) ;
#293 = CARTESIAN_POINT ( 'NONE',  ( 293.3673632604732100, 0.0000000000000000000, -7.774855760114932200E-022 ) ) ;
#294 = DIRECTION ( 'NONE',  ( -1.000000000000000000, -0.0000000000000000000, -0.0000000000000000000 ) ) ;
#295 = DIRECTION ( 'NONE',  ( -0.0000000000000000000, -1.000000000000000000, -0.0000000000000000000 ) ) ;
#296 = VERTEX_POINT ( 'NONE', #144 ) ;
#297 = CIRCLE ( 'NONE', #292, 12.69999999999999900 ) ;
#298 = CYLINDRICAL_SURFACE ( 'NONE', #340, 12.69999999999999900 ) ;
#299 = DIRECTION ( 'NONE',  ( -1.000000000000000000, -0.0000000000000000000, -0.0000000000000000000 ) ) ;
#300 = FACE_OUTER_BOUND ( 'NONE', #321, .T. ) ;
#301 = DIRECTION ( 'NONE',  ( -1.000000000000000000, -0.0000000000000000000, 1.836970198721030200E-016 ) ) ;
#302 = DIRECTION ( 'NONE',  ( -1.000000000000000000, -0.0000000000000000000, 1.836970198721030200E-016 ) ) ;
#303 = AXIS2_PLACEMENT_3D ( 'NONE', #39, #97, #261 ) ;
#304 = EDGE_CURVE ( 'NONE', #228, #332, #346, .T. ) ;
#305 = EDGE_LOOP ( 'NONE', ( #198, #93, #37 ) ) ;
#306 = DIRECTION ( 'NONE',  ( -1.000000000000000000, -0.0000000000000000000, 1.836970198721030200E-016 ) ) ;
#307 = DIRECTION ( 'NONE',  ( 0.0000000000000000000, 0.0000000000000000000, 1.000000000000000000 ) ) ;
#308 = ORIENTED_EDGE ( 'NONE', *, *, #35, .T. ) ;
#309 = PRESENTATION_LAYER_ASSIGNMENT (  '', '', ( #336 ) ) ;
#310 = ORIENTED_EDGE ( 'NONE', *, *, #62, .T. ) ;
#311 = PRESENTATION_LAYER_ASSIGNMENT (  '', '', ( #149 ) ) ;
#312 = ORIENTED_EDGE ( 'NONE', *, *, #142, .F. ) ;
#313 = ADVANCED_FACE ( 'NONE', ( #300 ), #338, .F. ) ;
#314 =( LENGTH_UNIT ( ) NAMED_UNIT ( * ) SI_UNIT ( .MILLI., .METRE. ) );
#315 = FACE_OUTER_BOUND ( 'NONE', #305, .T. ) ;
#316 = ADVANCED_FACE ( 'NONE', ( #66 ), #42, .F. ) ;
#317 = SPHERICAL_SURFACE ( 'NONE', #6, 32.50000000000000000 ) ;
#318 = EDGE_LOOP ( 'NONE', ( #119, #230, #5 ) ) ;
#319 = AXIS2_PLACEMENT_3D ( 'NONE', #52, #80, #108 ) ;
#320 = CARTESIAN_POINT ( 'NONE',  ( 263.4514811909102100, 0.0000000000000000000, -4.854516016545361600E-014 ) ) ;
#321 = EDGE_LOOP ( 'NONE', ( #245, #101, #118 ) ) ;
#322 = ORIENTED_EDGE ( 'NONE', *, *, #26, .T. ) ;
#323 = CIRCLE ( 'NONE', #252, 12.69999999999999900 ) ;
#324 = DIRECTION ( 'NONE',  ( 0.0000000000000000000, -1.000000000000000000, 0.0000000000000000000 ) ) ;
#325 = FACE_OUTER_BOUND ( 'NONE', #341, .T. ) ;
#326 = CARTESIAN_POINT ( 'NONE',  ( 263.4514811909102100, 0.0000000000000000000, 12.70000000000001500 ) ) ;
#327 = VERTEX_POINT ( 'NONE', #40 ) ;
#328 = EDGE_LOOP ( 'NONE', ( #87, #236, #104, #139 ) ) ;
#329 = CARTESIAN_POINT ( 'NONE',  ( 256.4063867076251300, 0.0000000000000000000, 12.69999999999998900 ) ) ;
#330 = EDGE_CURVE ( 'NONE', #162, #257, #137, .T. ) ;
#331 = MECHANICAL_DESIGN_GEOMETRIC_PRESENTATION_REPRESENTATION (  '', ( #149 ), #237 ) ;
#332 = VERTEX_POINT ( 'NONE', #20 ) ;
#333 = VECTOR ( 'NONE', #204, 1000.000000000000000 ) ;
#334 = DIRECTION ( 'NONE',  ( -0.0000000000000000000, -1.000000000000000000, -0.0000000000000000000 ) ) ;
#335 =( NAMED_UNIT ( * ) PLANE_ANGLE_UNIT ( ) SI_UNIT ( $, .RADIAN. ) );
#336 = STYLED_ITEM ( 'NONE', ( #282 ), #33 ) ;
#337 =( NAMED_UNIT ( * ) SI_UNIT ( $, .STERADIAN. ) SOLID_ANGLE_UNIT ( ) );
#338 = SPHERICAL_SURFACE ( 'NONE', #94, 33.99999999999995700 ) ;
#339 = ADVANCED_FACE ( 'NONE', ( #53 ), #195, .F. ) ;
#340 = AXIS2_PLACEMENT_3D ( 'NONE', #24, #215, #78 ) ;
#341 = EDGE_LOOP ( 'NONE', ( #312, #272, #271 ) ) ;
#342 =( NAMED_UNIT ( * ) PLANE_ANGLE_UNIT ( ) SI_UNIT ( $, .RADIAN. ) );
#343 = DIRECTION ( 'NONE',  ( 0.0000000000000000000, 0.0000000000000000000, 1.000000000000000000 ) ) ;
#344 = DIRECTION ( 'NONE',  ( 1.000000000000000000, 0.0000000000000000000, 0.0000000000000000000 ) ) ;
#345 = CARTESIAN_POINT ( 'NONE',  ( 265.7940865500235600, 0.0000000000000000000, 12.69999999999999900 ) ) ;
#346 = CIRCLE ( 'NONE', #16, 32.50000000000000000 ) ;
#347 = SURFACE_STYLE_USAGE ( .BOTH. , #160 ) ;
ENDSEC;
END-ISO-10303-21;
