ISO-10303-21;
HEADER;
FILE_DESCRIPTION (( 'STEP AP214' ),
    '1' );
FILE_NAME ('145202.STEP',
    '2019-06-13T07:58:34',
    ( 'user' ),
    ( 'Î¢ÈíÖÐ¹ú' ),
    'SwSTEP 2.0',
    'SolidWorks 2016',
    '' );
FILE_SCHEMA (( 'AUTOMOTIVE_DESIGN' ));
ENDSEC;

DATA;
#1 = ORIENTED_EDGE ( 'NONE', *, *, #232, .F. ) ;
#2 = DIRECTION ( 'NONE',  ( -1.000000000000000000, -0.0000000000000000000, -0.0000000000000000000 ) ) ;
#3 = EDGE_LOOP ( 'NONE', ( #310, #113, #133, #11 ) ) ;
#4 = MANIFOLD_SOLID_BREP ( 'Ðý×ª1', #195 ) ;
#5 = PRODUCT_DEFINITION_SHAPE ( 'NONE', 'NONE',  #107 ) ;
#6 = EDGE_CURVE ( 'NONE', #337, #67, #82, .T. ) ;
#7 = CARTESIAN_POINT ( 'NONE',  ( -0.8160621761658039000, 0.0000000000000000000, 0.0000000000000000000 ) ) ;
#8 = EDGE_CURVE ( 'NONE', #77, #156, #168, .T. ) ;
#9 = CARTESIAN_POINT ( 'NONE',  ( 410.0337732287766800, 0.0000000000000000000, 0.0000000000000000000 ) ) ;
#10 = COLOUR_RGB ( '',1.000000000000000000, 1.000000000000000000, 1.000000000000000000 ) ;
#11 = ORIENTED_EDGE ( 'NONE', *, *, #169, .F. ) ;
#12 = ORIENTED_EDGE ( 'NONE', *, *, #8, .F. ) ;
#13 = CYLINDRICAL_SURFACE ( 'NONE', #297, 19.99999999999998600 ) ;
#14 = AXIS2_PLACEMENT_3D ( 'NONE', #27, #181, #334 ) ;
#15 = DIRECTION ( 'NONE',  ( 0.0000000000000000000, 0.0000000000000000000, 1.000000000000000000 ) ) ;
#16 = EDGE_LOOP ( 'NONE', ( #91, #116, #175 ) ) ;
#17 = FACE_OUTER_BOUND ( 'NONE', #58, .T. ) ;
#18 = AXIS2_PLACEMENT_3D ( 'NONE', #64, #45, #260 ) ;
#19 = ORIENTED_EDGE ( 'NONE', *, *, #236, .T. ) ;
#20 = DIRECTION ( 'NONE',  ( 0.0000000000000000000, 0.0000000000000000000, 1.000000000000000000 ) ) ;
#21 = AXIS2_PLACEMENT_3D ( 'NONE', #302, #164, #15 ) ;
#22 = FACE_OUTER_BOUND ( 'NONE', #49, .T. ) ;
#23 =( NAMED_UNIT ( * ) SI_UNIT ( $, .STERADIAN. ) SOLID_ANGLE_UNIT ( ) );
#24 = ORIENTED_EDGE ( 'NONE', *, *, #26, .F. ) ;
#25 = CARTESIAN_POINT ( 'NONE',  ( 254.5337732287766800, 0.0000000000000000000, -2.958134293645126500E-015 ) ) ;
#26 = EDGE_CURVE ( 'NONE', #149, #287, #150, .T. ) ;
#27 = CARTESIAN_POINT ( 'NONE',  ( 302.8437732287766800, 0.0000000000000000000, 4.969530717202755100E-023 ) ) ;
#28 = ORIENTED_EDGE ( 'NONE', *, *, #50, .F. ) ;
#29 = DIRECTION ( 'NONE',  ( -2.249639673992786400E-032, -1.000000000000000000, -1.224646799147353200E-016 ) ) ;
#30 = DIRECTION ( 'NONE',  ( -1.000000000000000000, -0.0000000000000000000, 1.836970198721029700E-016 ) ) ;
#31 =( NAMED_UNIT ( * ) PLANE_ANGLE_UNIT ( ) SI_UNIT ( $, .RADIAN. ) );
#32 = AXIS2_PLACEMENT_3D ( 'NONE', #279, #66, #338 ) ;
#33 = FILL_AREA_STYLE_COLOUR ( '', #74 ) ;
#34 = DIRECTION ( 'NONE',  ( 0.0000000000000000000, 0.0000000000000000000, -1.000000000000000000 ) ) ;
#35 = CARTESIAN_POINT ( 'NONE',  ( 262.3821562379695800, 2.449293598294706100E-015, -19.99999999999999600 ) ) ;
#36 = MECHANICAL_DESIGN_GEOMETRIC_PRESENTATION_REPRESENTATION (  '', ( #216 ), #210 ) ;
#37 = DIRECTION ( 'NONE',  ( 0.0000000000000000000, 0.0000000000000000000, -1.000000000000000000 ) ) ;
#38 = ORIENTED_EDGE ( 'NONE', *, *, #146, .F. ) ;
#39 = DIRECTION ( 'NONE',  ( -0.0000000000000000000, -1.000000000000000000, -0.0000000000000000000 ) ) ;
#40 = LINE ( 'NONE', #224, #307 ) ;
#41 = SURFACE_STYLE_FILL_AREA ( #243 ) ;
#42 = ORIENTED_EDGE ( 'NONE', *, *, #253, .F. ) ;
#43 = CARTESIAN_POINT ( 'NONE',  ( 247.1144037289745900, 0.0000000000000000000, 0.0000000000000000000 ) ) ;
#44 =( GEOMETRIC_REPRESENTATION_CONTEXT ( 3 ) GLOBAL_UNCERTAINTY_ASSIGNED_CONTEXT ( ( #212 ) ) GLOBAL_UNIT_ASSIGNED_CONTEXT ( ( #184, #230, #219 ) ) REPRESENTATION_CONTEXT ( 'NONE', 'WORKASPACE' ) );
#45 = DIRECTION ( 'NONE',  ( -1.000000000000000000, -0.0000000000000000000, 1.836970198721029700E-016 ) ) ;
#46 = VERTEX_POINT ( 'NONE', #317 ) ;
#47 = FILL_AREA_STYLE_COLOUR ( '', #10 ) ;
#48 = CARTESIAN_POINT ( 'NONE',  ( 0.0000000000000000000, 0.0000000000000000000, 0.0000000000000000000 ) ) ;
#49 = EDGE_LOOP ( 'NONE', ( #24, #28, #220 ) ) ;
#50 = EDGE_CURVE ( 'NONE', #235, #149, #333, .T. ) ;
#51 = AXIS2_PLACEMENT_3D ( 'NONE', #189, #215, #263 ) ;
#52 = DIRECTION ( 'NONE',  ( -1.000000000000000000, -0.0000000000000000000, -0.0000000000000000000 ) ) ;
#53 = CIRCLE ( 'NONE', #65, 19.99999999999999600 ) ;
#54 = SPHERICAL_SURFACE ( 'NONE', #285, 48.31000000000002400 ) ;
#55 = DIRECTION ( 'NONE',  ( 0.0000000000000000000, 1.224646799147353200E-016, -1.000000000000000000 ) ) ;
#56 = AXIS2_PLACEMENT_3D ( 'NONE', #203, #174, #277 ) ;
#57 = APPLICATION_CONTEXT ( 'automotive_design' ) ;
#58 = EDGE_LOOP ( 'NONE', ( #185, #283, #217, #42 ) ) ;
#59 = CARTESIAN_POINT ( 'NONE',  ( 258.8681424771888300, 0.0000000000000000000, -19.99999999999999600 ) ) ;
#60 = CARTESIAN_POINT ( 'NONE',  ( 261.0337732287766200, 0.0000000000000000000, -9.123618653647781200E-015 ) ) ;
#61 = ORIENTED_EDGE ( 'NONE', *, *, #240, .T. ) ;
#62 = DIRECTION ( 'NONE',  ( -1.000000000000000000, -0.0000000000000000000, 1.836970198721029700E-016 ) ) ;
#63 = ORIENTED_EDGE ( 'NONE', *, *, #110, .F. ) ;
#64 = CARTESIAN_POINT ( 'NONE',  ( -0.8160621761658039000, 0.0000000000000000000, 0.0000000000000000000 ) ) ;
#65 = AXIS2_PLACEMENT_3D ( 'NONE', #124, #244, #266 ) ;
#66 = DIRECTION ( 'NONE',  ( -1.000000000000000000, -0.0000000000000000000, -0.0000000000000000000 ) ) ;
#67 = VERTEX_POINT ( 'NONE', #311 ) ;
#68 = MECHANICAL_DESIGN_GEOMETRIC_PRESENTATION_REPRESENTATION (  '', ( #71 ), #92 ) ;
#69 = PRODUCT_DEFINITION_CONTEXT ( 'detailed design', #202, 'design' ) ;
#70 = ORIENTED_EDGE ( 'NONE', *, *, #85, .F. ) ;
#71 = STYLED_ITEM ( 'NONE', ( #147 ), #262 ) ;
#72 = ADVANCED_FACE ( 'NONE', ( #159 ), #231, .F. ) ;
#73 = DIRECTION ( 'NONE',  ( 0.0000000000000000000, 0.0000000000000000000, 1.000000000000000000 ) ) ;
#74 = COLOUR_RGB ( '',1.000000000000000000, 1.000000000000000000, 1.000000000000000000 ) ;
#75 = EDGE_CURVE ( 'NONE', #246, #265, #186, .T. ) ;
#76 = CARTESIAN_POINT ( 'NONE',  ( 258.8681424771888300, 0.0000000000000000000, 0.0000000000000000000 ) ) ;
#77 = VERTEX_POINT ( 'NONE', #35 ) ;
#78 = PRESENTATION_LAYER_ASSIGNMENT (  '', '', ( #71 ) ) ;
#79 = CARTESIAN_POINT ( 'NONE',  ( 247.1144037289745900, 2.449293598294704900E-015, -19.99999999999998600 ) ) ;
#80 = CIRCLE ( 'NONE', #51, 20.00000000000004600 ) ;
#81 =( NAMED_UNIT ( * ) PLANE_ANGLE_UNIT ( ) SI_UNIT ( $, .RADIAN. ) );
#82 = CIRCLE ( 'NONE', #157, 60.20000000000001700 ) ;
#83 = SPHERICAL_SURFACE ( 'NONE', #304, 60.20000000000001700 ) ;
#84 = CARTESIAN_POINT ( 'NONE',  ( 258.8681424771888300, 0.0000000000000000000, -4.770321450267854200E-014 ) ) ;
#85 = EDGE_CURVE ( 'NONE', #337, #46, #326, .T. ) ;
#86 = CARTESIAN_POINT ( 'NONE',  ( 302.8437732287766800, 0.0000000000000000000, 4.969530717202755100E-023 ) ) ;
#87 = FACE_OUTER_BOUND ( 'NONE', #119, .T. ) ;
#88 = FILL_AREA_STYLE ('',( #33 ) ) ;
#89 = DIRECTION ( 'NONE',  ( -1.000000000000000000, -0.0000000000000000000, 1.836970198721029700E-016 ) ) ;
#90 = SURFACE_SIDE_STYLE ('',( #213 ) ) ;
#91 = ORIENTED_EDGE ( 'NONE', *, *, #200, .F. ) ;
#92 =( GEOMETRIC_REPRESENTATION_CONTEXT ( 3 ) GLOBAL_UNCERTAINTY_ASSIGNED_CONTEXT ( ( #128 ) ) GLOBAL_UNIT_ASSIGNED_CONTEXT ( ( #308, #298, #242 ) ) REPRESENTATION_CONTEXT ( 'NONE', 'WORKASPACE' ) );
#93 =( LENGTH_UNIT ( ) NAMED_UNIT ( * ) SI_UNIT ( .MILLI., .METRE. ) );
#94 = CIRCLE ( 'NONE', #123, 20.00000000000005000 ) ;
#95 = EDGE_LOOP ( 'NONE', ( #38, #286, #140 ) ) ;
#96 = ORIENTED_EDGE ( 'NONE', *, *, #160, .T. ) ;
#97 = DIRECTION ( 'NONE',  ( 0.0000000000000000000, 0.0000000000000000000, 1.000000000000000000 ) ) ;
#98 = PRODUCT_DEFINITION_FORMATION_WITH_SPECIFIED_SOURCE ( 'ÈÎºÎ', '', #177, .NOT_KNOWN. ) ;
#99 = PRODUCT_CONTEXT ( 'NONE', #57, 'mechanical' ) ;
#100 = CARTESIAN_POINT ( 'NONE',  ( 302.8437732287766800, 0.0000000000000000000, 4.969530717202755100E-023 ) ) ;
#101 = EDGE_LOOP ( 'NONE', ( #323, #340, #292 ) ) ;
#102 = CARTESIAN_POINT ( 'NONE',  ( 250.5337732287767400, 0.0000000000000000000, -7.372373681171951900E-015 ) ) ;
#103 = ORIENTED_EDGE ( 'NONE', *, *, #75, .F. ) ;
#104 = AXIS2_PLACEMENT_3D ( 'NONE', #48, #229, #114 ) ;
#105 = VERTEX_POINT ( 'NONE', #152 ) ;
#106 = CYLINDRICAL_SURFACE ( 'NONE', #278, 20.00000000000004600 ) ;
#107 = PRODUCT_DEFINITION ( 'Î´Öª', '', #98, #69 ) ;
#108 = CARTESIAN_POINT ( 'NONE',  ( 247.1144037289745900, 0.0000000000000000000, 19.99999999999998600 ) ) ;
#109 = APPLICATION_PROTOCOL_DEFINITION ( 'draft international standard', 'automotive_design', 1998, #202 ) ;
#110 = EDGE_CURVE ( 'NONE', #77, #246, #251, .T. ) ;
#111 = CARTESIAN_POINT ( 'NONE',  ( 247.1144037289745900, 0.0000000000000000000, -4.554408772227632100E-014 ) ) ;
#112 = FILL_AREA_STYLE ('',( #170 ) ) ;
#113 = ORIENTED_EDGE ( 'NONE', *, *, #344, .T. ) ;
#114 = DIRECTION ( 'NONE',  ( 1.000000000000000000, 0.0000000000000000000, 0.0000000000000000000 ) ) ;
#115 = FACE_OUTER_BOUND ( 'NONE', #95, .T. ) ;
#116 = ORIENTED_EDGE ( 'NONE', *, *, #26, .T. ) ;
#117 = AXIS2_PLACEMENT_3D ( 'NONE', #270, #306, #271 ) ;
#118 = DIRECTION ( 'NONE',  ( 0.0000000000000000000, 1.000000000000000000, -0.0000000000000000000 ) ) ;
#119 = EDGE_LOOP ( 'NONE', ( #214, #330, #162, #272 ) ) ;
#120 = CARTESIAN_POINT ( 'NONE',  ( 247.1144037289745900, 0.0000000000000000000, 0.0000000000000000000 ) ) ;
#121 = ORIENTED_EDGE ( 'NONE', *, *, #6, .T. ) ;
#122 = DIRECTION ( 'NONE',  ( -1.000000000000000000, -0.0000000000000000000, -0.0000000000000000000 ) ) ;
#123 = AXIS2_PLACEMENT_3D ( 'NONE', #314, #62, #97 ) ;
#124 = CARTESIAN_POINT ( 'NONE',  ( 262.3821562379695800, 0.0000000000000000000, 0.0000000000000000000 ) ) ;
#125 = FACE_OUTER_BOUND ( 'NONE', #205, .T. ) ;
#126 = DIRECTION ( 'NONE',  ( 0.0000000000000000000, 0.0000000000000000000, 1.000000000000000000 ) ) ;
#127 = ORIENTED_EDGE ( 'NONE', *, *, #85, .T. ) ;
#128 = UNCERTAINTY_MEASURE_WITH_UNIT (LENGTH_MEASURE( 1.000000000000000100E-005 ), #308, 'distance_accuracy_value', 'NONE');
#129 = CIRCLE ( 'NONE', #332, 48.31000000000003100 ) ;
#130 = AXIS2_PLACEMENT_3D ( 'NONE', #293, #122, #329 ) ;
#131 = ORIENTED_EDGE ( 'NONE', *, *, #6, .F. ) ;
#132 = DIRECTION ( 'NONE',  ( 0.0000000000000000000, 0.0000000000000000000, -1.000000000000000000 ) ) ;
#133 = ORIENTED_EDGE ( 'NONE', *, *, #178, .F. ) ;
#134 = CIRCLE ( 'NONE', #153, 149.0000000000000000 ) ;
#135 = CYLINDRICAL_SURFACE ( 'NONE', #18, 20.00000000000004600 ) ;
#136 = AXIS2_PLACEMENT_3D ( 'NONE', #241, #29, #252 ) ;
#137 = CIRCLE ( 'NONE', #196, 19.99999999999997500 ) ;
#138 =( NAMED_UNIT ( * ) SI_UNIT ( $, .STERADIAN. ) SOLID_ANGLE_UNIT ( ) );
#139 = SHAPE_DEFINITION_REPRESENTATION ( #5, #262 ) ;
#140 = ORIENTED_EDGE ( 'NONE', *, *, #8, .T. ) ;
#141 = AXIS2_PLACEMENT_3D ( 'NONE', #299, #199, #37 ) ;
#142 = EDGE_LOOP ( 'NONE', ( #255, #198, #19 ) ) ;
#143 = CARTESIAN_POINT ( 'NONE',  ( 254.5337732287766800, 0.0000000000000000000, 5.916268736376173000E-015 ) ) ;
#144 = AXIS2_PLACEMENT_3D ( 'NONE', #84, #30, #254 ) ;
#145 = DIRECTION ( 'NONE',  ( -0.0000000000000000000, 1.000000000000000000, 0.0000000000000000000 ) ) ;
#146 = EDGE_CURVE ( 'NONE', #105, #156, #134, .T. ) ;
#147 = PRESENTATION_STYLE_ASSIGNMENT (( #207 ) ) ;
#148 = DIRECTION ( 'NONE',  ( -1.000000000000000000, -0.0000000000000000000, -0.0000000000000000000 ) ) ;
#149 = VERTEX_POINT ( 'NONE', #336 ) ;
#150 = CIRCLE ( 'NONE', #136, 48.31000000000002400 ) ;
#151 = SURFACE_STYLE_FILL_AREA ( #112 ) ;
#152 = CARTESIAN_POINT ( 'NONE',  ( 262.3821562379695800, 0.0000000000000000000, 19.99999999999999600 ) ) ;
#153 = AXIS2_PLACEMENT_3D ( 'NONE', #322, #291, #55 ) ;
#154 = CIRCLE ( 'NONE', #221, 20.00000000000004600 ) ;
#155 = SPHERICAL_SURFACE ( 'NONE', #245, 48.31000000000002400 ) ;
#156 = VERTEX_POINT ( 'NONE', #60 ) ;
#157 = AXIS2_PLACEMENT_3D ( 'NONE', #305, #233, #34 ) ;
#158 = EDGE_CURVE ( 'NONE', #265, #257, #129, .T. ) ;
#159 = FACE_OUTER_BOUND ( 'NONE', #342, .T. ) ;
#160 = EDGE_CURVE ( 'NONE', #77, #105, #208, .T. ) ;
#161 = EDGE_CURVE ( 'NONE', #235, #287, #301, .T. ) ;
#162 = ORIENTED_EDGE ( 'NONE', *, *, #187, .F. ) ;
#163 = FACE_OUTER_BOUND ( 'NONE', #275, .T. ) ;
#164 = DIRECTION ( 'NONE',  ( -0.0000000000000000000, 1.000000000000000000, 0.0000000000000000000 ) ) ;
#165 = DIRECTION ( 'NONE',  ( 0.0000000000000000000, 0.0000000000000000000, 1.000000000000000000 ) ) ;
#166 = PRODUCT_RELATED_PRODUCT_CATEGORY ( 'part', '', ( #177 ) ) ;
#167 = CARTESIAN_POINT ( 'NONE',  ( 302.8437732287766800, 0.0000000000000000000, 4.969530717202755100E-023 ) ) ;
#168 = CIRCLE ( 'NONE', #228, 149.0000000000000000 ) ;
#169 = EDGE_CURVE ( 'NONE', #149, #67, #40, .T. ) ;
#170 = FILL_AREA_STYLE_COLOUR ( '', #268 ) ;
#171 = UNCERTAINTY_MEASURE_WITH_UNIT (LENGTH_MEASURE( 1.000000000000000100E-005 ), #300, 'distance_accuracy_value', 'NONE');
#172 = DIRECTION ( 'NONE',  ( 1.843143693225353300E-016, 0.0000000000000000000, 1.000000000000000000 ) ) ;
#173 = CYLINDRICAL_SURFACE ( 'NONE', #309, 19.99999999999998600 ) ;
#174 = DIRECTION ( 'NONE',  ( 2.249639673992786400E-032, 1.000000000000000000, 1.224646799147353200E-016 ) ) ;
#175 = ORIENTED_EDGE ( 'NONE', *, *, #161, .F. ) ;
#176 = DIRECTION ( 'NONE',  ( 0.0000000000000000000, 0.0000000000000000000, 1.000000000000000000 ) ) ;
#177 = PRODUCT ( '145202', '145202', '', ( #99 ) ) ;
#178 = EDGE_CURVE ( 'NONE', #67, #46, #154, .T. ) ;
#179 = ADVANCED_FACE ( 'NONE', ( #87 ), #173, .T. ) ;
#180 = ORIENTED_EDGE ( 'NONE', *, *, #146, .T. ) ;
#181 = DIRECTION ( 'NONE',  ( -0.0000000000000000000, 1.000000000000000000, 0.0000000000000000000 ) ) ;
#182 = SPHERICAL_SURFACE ( 'NONE', #117, 149.0000000000000000 ) ;
#183 = SPHERICAL_SURFACE ( 'NONE', #21, 60.20000000000001700 ) ;
#184 =( LENGTH_UNIT ( ) NAMED_UNIT ( * ) SI_UNIT ( .MILLI., .METRE. ) );
#185 = ORIENTED_EDGE ( 'NONE', *, *, #344, .F. ) ;
#186 = CIRCLE ( 'NONE', #32, 19.99999999999997500 ) ;
#187 = EDGE_CURVE ( 'NONE', #265, #246, #137, .T. ) ;
#188 = CARTESIAN_POINT ( 'NONE',  ( 258.8681424771888300, -2.449293598294705700E-015, 19.99999999999999600 ) ) ;
#189 = CARTESIAN_POINT ( 'NONE',  ( 247.1144037289745900, 0.0000000000000000000, -4.554408772227632100E-014 ) ) ;
#190 = CLOSED_SHELL ( 'NONE', ( #72, #179, #197, #276, #256, #226 ) ) ;
#191 = SURFACE_STYLE_USAGE ( .BOTH. , #90 ) ;
#192 = DIRECTION ( 'NONE',  ( 0.0000000000000000000, 1.224646799147353200E-016, -1.000000000000000000 ) ) ;
#193 = SPHERICAL_SURFACE ( 'NONE', #201, 48.31000000000003100 ) ;
#194 = SURFACE_SIDE_STYLE ('',( #151 ) ) ;
#195 = CLOSED_SHELL ( 'NONE', ( #288, #211, #239, #237, #261, #318 ) ) ;
#196 = AXIS2_PLACEMENT_3D ( 'NONE', #76, #209, #165 ) ;
#197 = ADVANCED_FACE ( 'NONE', ( #294 ), #193, .T. ) ;
#198 = ORIENTED_EDGE ( 'NONE', *, *, #187, .T. ) ;
#199 = DIRECTION ( 'NONE',  ( -0.0000000000000000000, -1.000000000000000000, -0.0000000000000000000 ) ) ;
#200 = EDGE_CURVE ( 'NONE', #149, #235, #94, .T. ) ;
#201 = AXIS2_PLACEMENT_3D ( 'NONE', #327, #249, #132 ) ;
#202 = APPLICATION_CONTEXT ( 'automotive_design' ) ;
#203 = CARTESIAN_POINT ( 'NONE',  ( 190.3337732287766900, 0.0000000000000000000, 4.969511586685587600E-023 ) ) ;
#204 = APPLICATION_PROTOCOL_DEFINITION ( 'draft international standard', 'automotive_design', 1998, #57 ) ;
#205 = EDGE_LOOP ( 'NONE', ( #63, #96, #61, #103 ) ) ;
#206 = DIRECTION ( 'NONE',  ( 0.0000000000000000000, 0.0000000000000000000, 1.000000000000000000 ) ) ;
#207 = SURFACE_STYLE_USAGE ( .BOTH. , #194 ) ;
#208 = CIRCLE ( 'NONE', #130, 19.99999999999999600 ) ;
#209 = DIRECTION ( 'NONE',  ( -1.000000000000000000, -0.0000000000000000000, -0.0000000000000000000 ) ) ;
#210 =( GEOMETRIC_REPRESENTATION_CONTEXT ( 3 ) GLOBAL_UNCERTAINTY_ASSIGNED_CONTEXT ( ( #171 ) ) GLOBAL_UNIT_ASSIGNED_CONTEXT ( ( #300, #31, #138 ) ) REPRESENTATION_CONTEXT ( 'NONE', 'WORKASPACE' ) );
#211 = ADVANCED_FACE ( 'NONE', ( #282 ), #135, .T. ) ;
#212 = UNCERTAINTY_MEASURE_WITH_UNIT (LENGTH_MEASURE( 1.000000000000000100E-005 ), #184, 'distance_accuracy_value', 'NONE');
#213 = SURFACE_STYLE_FILL_AREA ( #88 ) ;
#214 = ORIENTED_EDGE ( 'NONE', *, *, #232, .T. ) ;
#215 = DIRECTION ( 'NONE',  ( -1.000000000000000000, -0.0000000000000000000, 1.836970198721029700E-016 ) ) ;
#216 = STYLED_ITEM ( 'NONE', ( #313 ), #4 ) ;
#217 = ORIENTED_EDGE ( 'NONE', *, *, #169, .T. ) ;
#218 = DIRECTION ( 'NONE',  ( -0.0000000000000000000, -1.000000000000000000, -0.0000000000000000000 ) ) ;
#219 =( NAMED_UNIT ( * ) SI_UNIT ( $, .STERADIAN. ) SOLID_ANGLE_UNIT ( ) );
#220 = ORIENTED_EDGE ( 'NONE', *, *, #161, .T. ) ;
#221 = AXIS2_PLACEMENT_3D ( 'NONE', #111, #325, #206 ) ;
#222 = FACE_OUTER_BOUND ( 'NONE', #16, .T. ) ;
#223 = DIRECTION ( 'NONE',  ( 0.0000000000000000000, -1.000000000000000000, -1.224646799147353200E-016 ) ) ;
#224 = CARTESIAN_POINT ( 'NONE',  ( -0.8160621761658002300, 0.0000000000000000000, 20.00000000000004600 ) ) ;
#225 = VECTOR ( 'NONE', #312, 1000.000000000000000 ) ;
#226 = ADVANCED_FACE ( 'NONE', ( #115 ), #182, .F. ) ;
#227 = CARTESIAN_POINT ( 'NONE',  ( 190.3337732287766900, 0.0000000000000000000, 4.969511586685587600E-023 ) ) ;
#228 = AXIS2_PLACEMENT_3D ( 'NONE', #9, #118, #281 ) ;
#229 = DIRECTION ( 'NONE',  ( 0.0000000000000000000, 0.0000000000000000000, 1.000000000000000000 ) ) ;
#230 =( NAMED_UNIT ( * ) PLANE_ANGLE_UNIT ( ) SI_UNIT ( $, .RADIAN. ) );
#231 = SPHERICAL_SURFACE ( 'NONE', #141, 149.0000000000000000 ) ;
#232 = EDGE_CURVE ( 'NONE', #105, #77, #53, .T. ) ;
#233 = DIRECTION ( 'NONE',  ( 0.0000000000000000000, -1.000000000000000000, 0.0000000000000000000 ) ) ;
#234 = CARTESIAN_POINT ( 'NONE',  ( 302.8437732287766800, 0.0000000000000000000, 4.969530717202755100E-023 ) ) ;
#235 = VERTEX_POINT ( 'NONE', #341 ) ;
#236 = EDGE_CURVE ( 'NONE', #246, #257, #264, .T. ) ;
#237 = ADVANCED_FACE ( 'NONE', ( #258 ), #183, .F. ) ;
#238 = AXIS2_PLACEMENT_3D ( 'NONE', #100, #247, #20 ) ;
#239 = ADVANCED_FACE ( 'NONE', ( #163 ), #83, .F. ) ;
#240 = EDGE_CURVE ( 'NONE', #105, #265, #328, .T. ) ;
#241 = CARTESIAN_POINT ( 'NONE',  ( 302.8437732287766800, 0.0000000000000000000, 4.969530717202755100E-023 ) ) ;
#242 =( NAMED_UNIT ( * ) SI_UNIT ( $, .STERADIAN. ) SOLID_ANGLE_UNIT ( ) );
#243 = FILL_AREA_STYLE ('',( #47 ) ) ;
#244 = DIRECTION ( 'NONE',  ( -1.000000000000000000, -0.0000000000000000000, -0.0000000000000000000 ) ) ;
#245 = AXIS2_PLACEMENT_3D ( 'NONE', #234, #218, #339 ) ;
#246 = VERTEX_POINT ( 'NONE', #59 ) ;
#247 = DIRECTION ( 'NONE',  ( 0.0000000000000000000, 1.000000000000000000, -0.0000000000000000000 ) ) ;
#248 = CARTESIAN_POINT ( 'NONE',  ( -0.8160621761658076700, 2.449293598294712000E-015, -20.00000000000004600 ) ) ;
#249 = DIRECTION ( 'NONE',  ( -0.0000000000000000000, -1.000000000000000000, -0.0000000000000000000 ) ) ;
#250 =( GEOMETRIC_REPRESENTATION_CONTEXT ( 3 ) GLOBAL_UNCERTAINTY_ASSIGNED_CONTEXT ( ( #315 ) ) GLOBAL_UNIT_ASSIGNED_CONTEXT ( ( #93, #81, #23 ) ) REPRESENTATION_CONTEXT ( 'NONE', 'WORKASPACE' ) );
#251 = LINE ( 'NONE', #79, #319 ) ;
#252 = DIRECTION ( 'NONE',  ( 0.0000000000000000000, 1.224646799147353200E-016, -1.000000000000000000 ) ) ;
#253 = EDGE_CURVE ( 'NONE', #46, #67, #80, .T. ) ;
#254 = DIRECTION ( 'NONE',  ( 0.0000000000000000000, 0.0000000000000000000, 1.000000000000000000 ) ) ;
#255 = ORIENTED_EDGE ( 'NONE', *, *, #158, .F. ) ;
#256 = ADVANCED_FACE ( 'NONE', ( #125 ), #13, .T. ) ;
#257 = VERTEX_POINT ( 'NONE', #25 ) ;
#258 = FACE_OUTER_BOUND ( 'NONE', #343, .T. ) ;
#259 = PRESENTATION_LAYER_ASSIGNMENT (  '', '', ( #267 ) ) ;
#260 = DIRECTION ( 'NONE',  ( 1.843143693225353300E-016, 0.0000000000000000000, 1.000000000000000000 ) ) ;
#261 = ADVANCED_FACE ( 'NONE', ( #17 ), #106, .T. ) ;
#262 = ADVANCED_BREP_SHAPE_REPRESENTATION ( '145202', ( #4, #296, #104 ), #44 ) ;
#263 = DIRECTION ( 'NONE',  ( 0.0000000000000000000, 0.0000000000000000000, 1.000000000000000000 ) ) ;
#264 = CIRCLE ( 'NONE', #238, 48.31000000000003100 ) ;
#265 = VERTEX_POINT ( 'NONE', #188 ) ;
#266 = DIRECTION ( 'NONE',  ( 0.0000000000000000000, 0.0000000000000000000, 1.000000000000000000 ) ) ;
#267 = STYLED_ITEM ( 'NONE', ( #345 ), #296 ) ;
#268 = COLOUR_RGB ( '',1.000000000000000000, 1.000000000000000000, 1.000000000000000000 ) ;
#269 = SURFACE_SIDE_STYLE ('',( #41 ) ) ;
#270 = CARTESIAN_POINT ( 'NONE',  ( 410.0337732287766800, 0.0000000000000000000, 0.0000000000000000000 ) ) ;
#271 = DIRECTION ( 'NONE',  ( 0.0000000000000000000, 0.0000000000000000000, -1.000000000000000000 ) ) ;
#272 = ORIENTED_EDGE ( 'NONE', *, *, #240, .F. ) ;
#273 = MECHANICAL_DESIGN_GEOMETRIC_PRESENTATION_REPRESENTATION (  '', ( #267 ), #250 ) ;
#274 = CARTESIAN_POINT ( 'NONE',  ( 302.8437732287766800, 0.0000000000000000000, 4.969530717202755100E-023 ) ) ;
#275 = EDGE_LOOP ( 'NONE', ( #131, #127, #280 ) ) ;
#276 = ADVANCED_FACE ( 'NONE', ( #346 ), #303, .T. ) ;
#277 = DIRECTION ( 'NONE',  ( 0.0000000000000000000, -1.224646799147353200E-016, 1.000000000000000000 ) ) ;
#278 = AXIS2_PLACEMENT_3D ( 'NONE', #7, #284, #172 ) ;
#279 = CARTESIAN_POINT ( 'NONE',  ( 258.8681424771888300, 0.0000000000000000000, 0.0000000000000000000 ) ) ;
#280 = ORIENTED_EDGE ( 'NONE', *, *, #253, .T. ) ;
#281 = DIRECTION ( 'NONE',  ( 0.0000000000000000000, 0.0000000000000000000, 1.000000000000000000 ) ) ;
#282 = FACE_OUTER_BOUND ( 'NONE', #3, .T. ) ;
#283 = ORIENTED_EDGE ( 'NONE', *, *, #50, .T. ) ;
#284 = DIRECTION ( 'NONE',  ( -1.000000000000000000, -0.0000000000000000000, 1.836970198721029700E-016 ) ) ;
#285 = AXIS2_PLACEMENT_3D ( 'NONE', #86, #39, #321 ) ;
#286 = ORIENTED_EDGE ( 'NONE', *, *, #160, .F. ) ;
#287 = VERTEX_POINT ( 'NONE', #143 ) ;
#288 = ADVANCED_FACE ( 'NONE', ( #222 ), #54, .F. ) ;
#289 = VECTOR ( 'NONE', #148, 1000.000000000000000 ) ;
#290 = AXIS2_PLACEMENT_3D ( 'NONE', #167, #347, #331 ) ;
#291 = DIRECTION ( 'NONE',  ( 0.0000000000000000000, -1.000000000000000000, -1.224646799147353200E-016 ) ) ;
#292 = ORIENTED_EDGE ( 'NONE', *, *, #236, .F. ) ;
#293 = CARTESIAN_POINT ( 'NONE',  ( 262.3821562379695800, 0.0000000000000000000, 0.0000000000000000000 ) ) ;
#294 = FACE_OUTER_BOUND ( 'NONE', #101, .T. ) ;
#295 = SURFACE_STYLE_USAGE ( .BOTH. , #269 ) ;
#296 = MANIFOLD_SOLID_BREP ( 'Ðý×ª3', #190 ) ;
#297 = AXIS2_PLACEMENT_3D ( 'NONE', #120, #52, #176 ) ;
#298 =( NAMED_UNIT ( * ) PLANE_ANGLE_UNIT ( ) SI_UNIT ( $, .RADIAN. ) );
#299 = CARTESIAN_POINT ( 'NONE',  ( 410.0337732287766800, 0.0000000000000000000, 0.0000000000000000000 ) ) ;
#300 =( LENGTH_UNIT ( ) NAMED_UNIT ( * ) SI_UNIT ( .MILLI., .METRE. ) );
#301 = CIRCLE ( 'NONE', #14, 48.31000000000002400 ) ;
#302 = CARTESIAN_POINT ( 'NONE',  ( 190.3337732287766900, 0.0000000000000000000, 4.969511586685587600E-023 ) ) ;
#303 = SPHERICAL_SURFACE ( 'NONE', #290, 48.31000000000003100 ) ;
#304 = AXIS2_PLACEMENT_3D ( 'NONE', #227, #145, #73 ) ;
#305 = CARTESIAN_POINT ( 'NONE',  ( 190.3337732287766900, 0.0000000000000000000, 4.969511586685587600E-023 ) ) ;
#306 = DIRECTION ( 'NONE',  ( -0.0000000000000000000, -1.000000000000000000, -0.0000000000000000000 ) ) ;
#307 = VECTOR ( 'NONE', #89, 1000.000000000000000 ) ;
#308 =( LENGTH_UNIT ( ) NAMED_UNIT ( * ) SI_UNIT ( .MILLI., .METRE. ) );
#309 = AXIS2_PLACEMENT_3D ( 'NONE', #43, #320, #126 ) ;
#310 = ORIENTED_EDGE ( 'NONE', *, *, #200, .T. ) ;
#311 = CARTESIAN_POINT ( 'NONE',  ( 247.1144037289745900, 0.0000000000000000000, 19.99999999999999600 ) ) ;
#312 = DIRECTION ( 'NONE',  ( -1.000000000000000000, -0.0000000000000000000, 1.836970198721029700E-016 ) ) ;
#313 = PRESENTATION_STYLE_ASSIGNMENT (( #191 ) ) ;
#314 = CARTESIAN_POINT ( 'NONE',  ( 258.8681424771888300, 0.0000000000000000000, -4.770321450267854200E-014 ) ) ;
#315 = UNCERTAINTY_MEASURE_WITH_UNIT (LENGTH_MEASURE( 1.000000000000000100E-005 ), #93, 'distance_accuracy_value', 'NONE');
#316 = ORIENTED_EDGE ( 'NONE', *, *, #178, .T. ) ;
#317 = CARTESIAN_POINT ( 'NONE',  ( 247.1144037289745900, 2.449293598294711600E-015, -20.00000000000005300 ) ) ;
#318 = ADVANCED_FACE ( 'NONE', ( #22 ), #155, .F. ) ;
#319 = VECTOR ( 'NONE', #2, 1000.000000000000000 ) ;
#320 = DIRECTION ( 'NONE',  ( -1.000000000000000000, -0.0000000000000000000, -0.0000000000000000000 ) ) ;
#321 = DIRECTION ( 'NONE',  ( 0.0000000000000000000, 0.0000000000000000000, -1.000000000000000000 ) ) ;
#322 = CARTESIAN_POINT ( 'NONE',  ( 410.0337732287766800, 0.0000000000000000000, 0.0000000000000000000 ) ) ;
#323 = ORIENTED_EDGE ( 'NONE', *, *, #75, .T. ) ;
#324 = PRESENTATION_LAYER_ASSIGNMENT (  '', '', ( #216 ) ) ;
#325 = DIRECTION ( 'NONE',  ( -1.000000000000000000, -0.0000000000000000000, 1.836970198721029700E-016 ) ) ;
#326 = CIRCLE ( 'NONE', #56, 60.20000000000001700 ) ;
#327 = CARTESIAN_POINT ( 'NONE',  ( 302.8437732287766800, 0.0000000000000000000, 4.969530717202755100E-023 ) ) ;
#328 = LINE ( 'NONE', #108, #289 ) ;
#329 = DIRECTION ( 'NONE',  ( 0.0000000000000000000, 0.0000000000000000000, 1.000000000000000000 ) ) ;
#330 = ORIENTED_EDGE ( 'NONE', *, *, #110, .T. ) ;
#331 = DIRECTION ( 'NONE',  ( 0.0000000000000000000, 0.0000000000000000000, -1.000000000000000000 ) ) ;
#332 = AXIS2_PLACEMENT_3D ( 'NONE', #274, #223, #192 ) ;
#333 = CIRCLE ( 'NONE', #144, 20.00000000000005000 ) ;
#334 = DIRECTION ( 'NONE',  ( 0.0000000000000000000, 0.0000000000000000000, 1.000000000000000000 ) ) ;
#335 = LINE ( 'NONE', #248, #225 ) ;
#336 = CARTESIAN_POINT ( 'NONE',  ( 258.8681424771888300, 0.0000000000000000000, 20.00000000000000000 ) ) ;
#337 = VERTEX_POINT ( 'NONE', #102 ) ;
#338 = DIRECTION ( 'NONE',  ( 0.0000000000000000000, 0.0000000000000000000, 1.000000000000000000 ) ) ;
#339 = DIRECTION ( 'NONE',  ( 0.0000000000000000000, 0.0000000000000000000, -1.000000000000000000 ) ) ;
#340 = ORIENTED_EDGE ( 'NONE', *, *, #158, .T. ) ;
#341 = CARTESIAN_POINT ( 'NONE',  ( 258.8681424771888300, 2.449293598294712400E-015, -20.00000000000009600 ) ) ;
#342 = EDGE_LOOP ( 'NONE', ( #1, #180, #12 ) ) ;
#343 = EDGE_LOOP ( 'NONE', ( #70, #121, #316 ) ) ;
#344 = EDGE_CURVE ( 'NONE', #235, #46, #335, .T. ) ;
#345 = PRESENTATION_STYLE_ASSIGNMENT (( #295 ) ) ;
#346 = FACE_OUTER_BOUND ( 'NONE', #142, .T. ) ;
#347 = DIRECTION ( 'NONE',  ( -0.0000000000000000000, -1.000000000000000000, -0.0000000000000000000 ) ) ;
ENDSEC;
END-ISO-10303-21;
