ISO-10303-21;
HEADER;
FILE_DESCRIPTION (( 'STEP AP214' ),
    '1' );
FILE_NAME ('145204.STEP',
    '2019-06-13T08:18:07',
    ( 'user' ),
    ( 'Î¢ÈíÖÐ¹ú' ),
    'SwSTEP 2.0',
    'SolidWorks 2016',
    '' );
FILE_SCHEMA (( 'AUTOMOTIVE_DESIGN' ));
ENDSEC;

DATA;
#1 = EDGE_CURVE ( 'NONE', #330, #228, #208, .T. ) ;
#2 = CARTESIAN_POINT ( 'NONE',  ( -185.2744740506581700, 0.0000000000000000000, 2.052032605930108700E-014 ) ) ;
#3 = DIRECTION ( 'NONE',  ( 0.0000000000000000000, 0.0000000000000000000, 1.000000000000000000 ) ) ;
#4 = DIRECTION ( 'NONE',  ( 0.0000000000000000000, 0.0000000000000000000, 1.000000000000000000 ) ) ;
#5 = COLOUR_RGB ( '',1.000000000000000000, 1.000000000000000000, 1.000000000000000000 ) ;
#6 = EDGE_LOOP ( 'NONE', ( #112, #119, #149 ) ) ;
#7 = FACE_OUTER_BOUND ( 'NONE', #21, .T. ) ;
#8 = LINE ( 'NONE', #45, #298 ) ;
#9 = PRODUCT_DEFINITION_FORMATION_WITH_SPECIFIED_SOURCE ( 'ÈÎºÎ', '', #104, .NOT_KNOWN. ) ;
#10 = DIRECTION ( 'NONE',  ( -1.000000000000000000, -0.0000000000000000000, -0.0000000000000000000 ) ) ;
#11 = SPHERICAL_SURFACE ( 'NONE', #40, 90.50000000000005700 ) ;
#12 = STYLED_ITEM ( 'NONE', ( #183 ), #199 ) ;
#13 = CIRCLE ( 'NONE', #124, 19.99999999999998600 ) ;
#14 = FACE_OUTER_BOUND ( 'NONE', #56, .T. ) ;
#15 = ADVANCED_FACE ( 'NONE', ( #164 ), #300, .T. ) ;
#16 = EDGE_CURVE ( 'NONE', #36, #329, #245, .T. ) ;
#17 = ORIENTED_EDGE ( 'NONE', *, *, #26, .F. ) ;
#18 = EDGE_LOOP ( 'NONE', ( #331, #107, #17 ) ) ;
#19 = ADVANCED_FACE ( 'NONE', ( #297 ), #68, .F. ) ;
#20 = CARTESIAN_POINT ( 'NONE',  ( 83.35101745066101800, 0.0000000000000000000, -6.657476272910658600E-014 ) ) ;
#21 = EDGE_LOOP ( 'NONE', ( #138, #252, #315, #282 ) ) ;
#22 = DIRECTION ( 'NONE',  ( 0.0000000000000000000, 0.0000000000000000000, -1.000000000000000000 ) ) ;
#23 = APPLICATION_CONTEXT ( 'automotive_design' ) ;
#24 = CARTESIAN_POINT ( 'NONE',  ( -37.86898254933897300, 0.0000000000000000000, -6.139750099331126500E-014 ) ) ;
#25 = DIRECTION ( 'NONE',  ( -1.000000000000000000, -0.0000000000000000000, 1.039419731515214900E-016 ) ) ;
#26 = EDGE_CURVE ( 'NONE', #312, #78, #93, .T. ) ;
#27 = ORIENTED_EDGE ( 'NONE', *, *, #95, .F. ) ;
#28 = PRODUCT_DEFINITION_CONTEXT ( 'detailed design', #23, 'design' ) ;
#29 = VERTEX_POINT ( 'NONE', #20 ) ;
#30 = DIRECTION ( 'NONE',  ( 0.0000000000000000000, 0.0000000000000000000, -1.000000000000000000 ) ) ;
#31 = CYLINDRICAL_SURFACE ( 'NONE', #225, 19.99999999999995400 ) ;
#32 = ADVANCED_FACE ( 'NONE', ( #67 ), #11, .F. ) ;
#33 =( GEOMETRIC_REPRESENTATION_CONTEXT ( 3 ) GLOBAL_UNCERTAINTY_ASSIGNED_CONTEXT ( ( #120 ) ) GLOBAL_UNIT_ASSIGNED_CONTEXT ( ( #190, #241, #105 ) ) REPRESENTATION_CONTEXT ( 'NONE', 'WORKASPACE' ) );
#34 = DIRECTION ( 'NONE',  ( 0.0000000000000000000, 0.0000000000000000000, 1.000000000000000000 ) ) ;
#35 = PRODUCT_RELATED_PRODUCT_CATEGORY ( 'part', '', ( #104 ) ) ;
#36 = VERTEX_POINT ( 'NONE', #154 ) ;
#37 = MANIFOLD_SOLID_BREP ( 'Ðý×ª1', #321 ) ;
#38 = CARTESIAN_POINT ( 'NONE',  ( 88.03862455311944800, 0.0000000000000000000, 19.99999999999997900 ) ) ;
#39 = CIRCLE ( 'NONE', #236, 19.99999999999991500 ) ;
#40 = AXIS2_PLACEMENT_3D ( 'NONE', #347, #254, #313 ) ;
#41 = DIRECTION ( 'NONE',  ( 0.0000000000000000000, 0.0000000000000000000, -1.000000000000000000 ) ) ;
#42 = FILL_AREA_STYLE_COLOUR ( '', #239 ) ;
#43 = DIRECTION ( 'NONE',  ( 0.0000000000000000000, 0.0000000000000000000, 1.000000000000000000 ) ) ;
#44 = SPHERICAL_SURFACE ( 'NONE', #253, 275.3729999999999900 ) ;
#45 = CARTESIAN_POINT ( 'NONE',  ( -185.2744740506581700, 0.0000000000000000000, 19.99999999999997500 ) ) ;
#46 = DIRECTION ( 'NONE',  ( 0.0000000000000000000, -1.224646799147353200E-016, 1.000000000000000000 ) ) ;
#47 = AXIS2_PLACEMENT_3D ( 'NONE', #144, #269, #146 ) ;
#48 = MECHANICAL_DESIGN_GEOMETRIC_PRESENTATION_REPRESENTATION (  '', ( #12 ), #197 ) ;
#49 = AXIS2_PLACEMENT_3D ( 'NONE', #161, #103, #336 ) ;
#50 = MANIFOLD_SOLID_BREP ( 'Ðý×ª3', #186 ) ;
#51 = EDGE_CURVE ( 'NONE', #224, #228, #198, .T. ) ;
#52 = ORIENTED_EDGE ( 'NONE', *, *, #134, .F. ) ;
#53 = EDGE_LOOP ( 'NONE', ( #181, #72, #251, #203 ) ) ;
#54 = FACE_OUTER_BOUND ( 'NONE', #263, .T. ) ;
#55 = CARTESIAN_POINT ( 'NONE',  ( -37.86898254933897300, 0.0000000000000000000, -6.139750099331126500E-014 ) ) ;
#56 = EDGE_LOOP ( 'NONE', ( #305, #118, #185 ) ) ;
#57 = DIRECTION ( 'NONE',  ( -1.000000000000000000, -0.0000000000000000000, 1.039419731515214900E-016 ) ) ;
#58 = ADVANCED_FACE ( 'NONE', ( #276 ), #153, .T. ) ;
#59 = DIRECTION ( 'NONE',  ( 0.0000000000000000000, 1.000000000000000000, 0.0000000000000000000 ) ) ;
#60 = AXIS2_PLACEMENT_3D ( 'NONE', #126, #121, #226 ) ;
#61 = APPLICATION_PROTOCOL_DEFINITION ( 'draft international standard', 'automotive_design', 1998, #343 ) ;
#62 = DIRECTION ( 'NONE',  ( 0.0000000000000000000, 0.0000000000000000000, 1.000000000000000000 ) ) ;
#63 = DIRECTION ( 'NONE',  ( -1.000000000000000000, -0.0000000000000000000, 1.039419731515214900E-016 ) ) ;
#64 = DIRECTION ( 'NONE',  ( -1.000000000000000000, -0.0000000000000000000, -0.0000000000000000000 ) ) ;
#65 = CARTESIAN_POINT ( 'NONE',  ( 88.03862455311941900, 0.0000000000000000000, 0.0000000000000000000 ) ) ;
#66 = AXIS2_PLACEMENT_3D ( 'NONE', #147, #111, #338 ) ;
#67 = FACE_OUTER_BOUND ( 'NONE', #6, .T. ) ;
#68 = SPHERICAL_SURFACE ( 'NONE', #174, 121.2200000000000000 ) ;
#69 = CARTESIAN_POINT ( 'NONE',  ( 364.6740174506609800, 0.0000000000000000000, 0.0000000000000000000 ) ) ;
#70 = SPHERICAL_SURFACE ( 'NONE', #49, 275.3729999999999900 ) ;
#71 = AXIS2_PLACEMENT_3D ( 'NONE', #179, #266, #278 ) ;
#72 = ORIENTED_EDGE ( 'NONE', *, *, #281, .T. ) ;
#73 = ORIENTED_EDGE ( 'NONE', *, *, #16, .F. ) ;
#74 = FACE_OUTER_BOUND ( 'NONE', #168, .T. ) ;
#75 = STYLED_ITEM ( 'NONE', ( #162 ), #37 ) ;
#76 = DIRECTION ( 'NONE',  ( -1.000000000000000000, -0.0000000000000000000, -0.0000000000000000000 ) ) ;
#77 = CARTESIAN_POINT ( 'NONE',  ( 85.80101745066102100, 0.0000000000000000000, -1.497879929315810300E-014 ) ) ;
#78 = VERTEX_POINT ( 'NONE', #77 ) ;
#79 = AXIS2_PLACEMENT_3D ( 'NONE', #65, #117, #143 ) ;
#80 = SPHERICAL_SURFACE ( 'NONE', #60, 90.50000000000005700 ) ;
#81 = DIRECTION ( 'NONE',  ( 1.272922047170709200E-032, 1.000000000000000000, 1.224646799147353200E-016 ) ) ;
#82 = ORIENTED_EDGE ( 'NONE', *, *, #230, .F. ) ;
#83 = PRESENTATION_LAYER_ASSIGNMENT (  '', '', ( #267 ) ) ;
#84 = FACE_OUTER_BOUND ( 'NONE', #94, .T. ) ;
#85 = CARTESIAN_POINT ( 'NONE',  ( 364.6740174506609800, 0.0000000000000000000, 0.0000000000000000000 ) ) ;
#86 = CARTESIAN_POINT ( 'NONE',  ( -185.2744740506581700, 0.0000000000000000000, 2.052032605930108700E-014 ) ) ;
#87 = DIRECTION ( 'NONE',  ( 0.0000000000000000000, 0.0000000000000000000, 1.000000000000000000 ) ) ;
#88 = ORIENTED_EDGE ( 'NONE', *, *, #139, .T. ) ;
#89 = ORIENTED_EDGE ( 'NONE', *, *, #281, .F. ) ;
#90 = CIRCLE ( 'NONE', #318, 121.2200000000000000 ) ;
#91 = DIRECTION ( 'NONE',  ( 0.0000000000000000000, 0.0000000000000000000, 1.000000000000000000 ) ) ;
#92 = AXIS2_PLACEMENT_3D ( 'NONE', #292, #233, #182 ) ;
#93 = CIRCLE ( 'NONE', #47, 90.50000000000005700 ) ;
#94 = EDGE_LOOP ( 'NONE', ( #320, #89, #270 ) ) ;
#95 = EDGE_CURVE ( 'NONE', #261, #78, #286, .T. ) ;
#96 = CIRCLE ( 'NONE', #79, 19.99999999999997500 ) ;
#97 = EDGE_CURVE ( 'NONE', #127, #98, #210, .T. ) ;
#98 = VERTEX_POINT ( 'NONE', #38 ) ;
#99 = CARTESIAN_POINT ( 'NONE',  ( 88.03862455311941900, 0.0000000000000000000, 0.0000000000000000000 ) ) ;
#100 = ADVANCED_FACE ( 'NONE', ( #265 ), #44, .F. ) ;
#101 = PRESENTATION_LAYER_ASSIGNMENT (  '', '', ( #75 ) ) ;
#102 = CARTESIAN_POINT ( 'NONE',  ( -185.2744740506581700, 2.449293598294701000E-015, -19.99999999999993600 ) ) ;
#103 = DIRECTION ( 'NONE',  ( -0.0000000000000000000, -1.000000000000000000, -0.0000000000000000000 ) ) ;
#104 = PRODUCT ( '145204', '145204', '', ( #250 ) ) ;
#105 =( NAMED_UNIT ( * ) SI_UNIT ( $, .STERADIAN. ) SOLID_ANGLE_UNIT ( ) );
#106 = DIRECTION ( 'NONE',  ( 0.0000000000000000000, -1.000000000000000000, 0.0000000000000000000 ) ) ;
#107 = ORIENTED_EDGE ( 'NONE', *, *, #95, .T. ) ;
#108 = EDGE_LOOP ( 'NONE', ( #167, #156, #314, #192 ) ) ;
#109 = MECHANICAL_DESIGN_GEOMETRIC_PRESENTATION_REPRESENTATION (  '', ( #267 ), #33 ) ;
#110 = CARTESIAN_POINT ( 'NONE',  ( 81.68974109724396700, 0.0000000000000000000, -7.228461224019164800E-015 ) ) ;
#111 = DIRECTION ( 'NONE',  ( -1.000000000000000000, -0.0000000000000000000, 1.039419731515214900E-016 ) ) ;
#112 = ORIENTED_EDGE ( 'NONE', *, *, #97, .F. ) ;
#113 = DIRECTION ( 'NONE',  ( -1.000000000000000000, -0.0000000000000000000, 1.039419731515214900E-016 ) ) ;
#114 = DIRECTION ( 'NONE',  ( 0.0000000000000000000, 0.0000000000000000000, 1.000000000000000000 ) ) ;
#115 = CIRCLE ( 'NONE', #158, 121.2200000000000000 ) ;
#116 = FILL_AREA_STYLE_COLOUR ( '', #173 ) ;
#117 = DIRECTION ( 'NONE',  ( -1.000000000000000000, -0.0000000000000000000, -0.0000000000000000000 ) ) ;
#118 = ORIENTED_EDGE ( 'NONE', *, *, #304, .F. ) ;
#119 = ORIENTED_EDGE ( 'NONE', *, *, #308, .T. ) ;
#120 = UNCERTAINTY_MEASURE_WITH_UNIT (LENGTH_MEASURE( 1.000000000000000100E-005 ), #190, 'distance_accuracy_value', 'NONE');
#121 = DIRECTION ( 'NONE',  ( -0.0000000000000000000, 1.000000000000000000, 0.0000000000000000000 ) ) ;
#122 = AXIS2_PLACEMENT_3D ( 'NONE', #110, #63, #3 ) ;
#123 = APPLICATION_PROTOCOL_DEFINITION ( 'draft international standard', 'automotive_design', 1998, #23 ) ;
#124 = AXIS2_PLACEMENT_3D ( 'NONE', #160, #25, #87 ) ;
#125 = DIRECTION ( 'NONE',  ( 0.0000000000000000000, 0.0000000000000000000, 1.000000000000000000 ) ) ;
#126 = CARTESIAN_POINT ( 'NONE',  ( 176.3010174506610800, 0.0000000000000000000, -2.052032605929987800E-014 ) ) ;
#127 = VERTEX_POINT ( 'NONE', #209 ) ;
#128 = SURFACE_STYLE_FILL_AREA ( #159 ) ;
#129 = SURFACE_SIDE_STYLE ('',( #128 ) ) ;
#130 = ADVANCED_FACE ( 'NONE', ( #135 ), #193, .T. ) ;
#131 = ORIENTED_EDGE ( 'NONE', *, *, #304, .T. ) ;
#132 = DIRECTION ( 'NONE',  ( 0.0000000000000000000, 1.000000000000000000, -0.0000000000000000000 ) ) ;
#133 = CIRCLE ( 'NONE', #222, 90.50000000000005700 ) ;
#134 = EDGE_CURVE ( 'NONE', #98, #36, #8, .T. ) ;
#135 = FACE_OUTER_BOUND ( 'NONE', #53, .T. ) ;
#136 = SURFACE_STYLE_USAGE ( .BOTH. , #155 ) ;
#137 = DIRECTION ( 'NONE',  ( -0.0000000000000000000, 1.000000000000000000, 1.224646799147353200E-016 ) ) ;
#138 = ORIENTED_EDGE ( 'NONE', *, *, #223, .F. ) ;
#139 = EDGE_CURVE ( 'NONE', #261, #312, #96, .T. ) ;
#140 = CARTESIAN_POINT ( 'NONE',  ( 90.02826538265613000, 2.449293598294698200E-015, -19.99999999999991500 ) ) ;
#141 = EDGE_CURVE ( 'NONE', #329, #36, #332, .T. ) ;
#142 = ORIENTED_EDGE ( 'NONE', *, *, #51, .F. ) ;
#143 = DIRECTION ( 'NONE',  ( 0.0000000000000000000, 0.0000000000000000000, 1.000000000000000000 ) ) ;
#144 = CARTESIAN_POINT ( 'NONE',  ( 176.3010174506610800, 0.0000000000000000000, -2.052032605929987800E-014 ) ) ;
#145 = DIRECTION ( 'NONE',  ( 0.0000000000000000000, 0.0000000000000000000, 1.000000000000000000 ) ) ;
#146 = DIRECTION ( 'NONE',  ( 0.0000000000000000000, 0.0000000000000000000, -1.000000000000000000 ) ) ;
#147 = CARTESIAN_POINT ( 'NONE',  ( 81.68974109724396700, 0.0000000000000000000, -7.228461224019164800E-015 ) ) ;
#148 = AXIS2_PLACEMENT_3D ( 'NONE', #274, #59, #43 ) ;
#149 = ORIENTED_EDGE ( 'NONE', *, *, #327, .F. ) ;
#150 = ADVANCED_FACE ( 'NONE', ( #14 ), #80, .F. ) ;
#151 = EDGE_LOOP ( 'NONE', ( #324, #309, #293 ) ) ;
#152 = PRESENTATION_STYLE_ASSIGNMENT (( #341 ) ) ;
#153 = SPHERICAL_SURFACE ( 'NONE', #148, 90.50000000000005700 ) ;
#154 = CARTESIAN_POINT ( 'NONE',  ( 81.68974109724396700, 0.0000000000000000000, 20.00000000000000000 ) ) ;
#155 = SURFACE_SIDE_STYLE ('',( #275 ) ) ;
#156 = ORIENTED_EDGE ( 'NONE', *, *, #187, .T. ) ;
#157 = FILL_AREA_STYLE_COLOUR ( '', #5 ) ;
#158 = AXIS2_PLACEMENT_3D ( 'NONE', #55, #328, #30 ) ;
#159 = FILL_AREA_STYLE ('',( #116 ) ) ;
#160 = CARTESIAN_POINT ( 'NONE',  ( 88.03862455311944800, 0.0000000000000000000, -7.888376697731910100E-015 ) ) ;
#161 = CARTESIAN_POINT ( 'NONE',  ( 364.6740174506609800, 0.0000000000000000000, 0.0000000000000000000 ) ) ;
#162 = PRESENTATION_STYLE_ASSIGNMENT (( #136 ) ) ;
#163 = AXIS2_PLACEMENT_3D ( 'NONE', #272, #216, #145 ) ;
#164 = FACE_OUTER_BOUND ( 'NONE', #108, .T. ) ;
#165 = CARTESIAN_POINT ( 'NONE',  ( -37.86898254933897300, 0.0000000000000000000, -6.139750099331126500E-014 ) ) ;
#166 = PRODUCT_DEFINITION ( 'Î´Öª', '', #9, #28 ) ;
#167 = ORIENTED_EDGE ( 'NONE', *, *, #230, .T. ) ;
#168 = EDGE_LOOP ( 'NONE', ( #131, #244, #73, #52 ) ) ;
#169 = AXIS2_PLACEMENT_3D ( 'NONE', #337, #64, #62 ) ;
#170 = DIRECTION ( 'NONE',  ( -0.0000000000000000000, -1.000000000000000000, -0.0000000000000000000 ) ) ;
#171 = EDGE_LOOP ( 'NONE', ( #82, #175, #142 ) ) ;
#172 = CARTESIAN_POINT ( 'NONE',  ( 176.3010174506610800, 0.0000000000000000000, -2.052032605929987800E-014 ) ) ;
#173 = COLOUR_RGB ( '',1.000000000000000000, 1.000000000000000000, 1.000000000000000000 ) ;
#174 = AXIS2_PLACEMENT_3D ( 'NONE', #24, #195, #194 ) ;
#175 = ORIENTED_EDGE ( 'NONE', *, *, #1, .T. ) ;
#176 = LINE ( 'NONE', #227, #234 ) ;
#177 = EDGE_CURVE ( 'NONE', #330, #312, #176, .T. ) ;
#178 = ORIENTED_EDGE ( 'NONE', *, *, #26, .T. ) ;
#179 = CARTESIAN_POINT ( 'NONE',  ( 176.3010174506610800, 0.0000000000000000000, -2.052032605929987800E-014 ) ) ;
#180 = EDGE_CURVE ( 'NONE', #312, #261, #279, .T. ) ;
#181 = ORIENTED_EDGE ( 'NONE', *, *, #187, .F. ) ;
#182 = DIRECTION ( 'NONE',  ( 1.144843079344535300E-016, 0.0000000000000000000, 1.000000000000000000 ) ) ;
#183 = PRESENTATION_STYLE_ASSIGNMENT (( #249 ) ) ;
#184 = AXIS2_PLACEMENT_3D ( 'NONE', #86, #287, #125 ) ;
#185 = ORIENTED_EDGE ( 'NONE', *, *, #327, .T. ) ;
#186 = CLOSED_SHELL ( 'NONE', ( #100, #15, #58, #243, #130, #218 ) ) ;
#187 = EDGE_CURVE ( 'NONE', #224, #261, #215, .T. ) ;
#188 = EDGE_CURVE ( 'NONE', #29, #36, #115, .T. ) ;
#189 = CARTESIAN_POINT ( 'NONE',  ( 88.03862455311941900, 2.449293598294704100E-015, -20.00000000000000000 ) ) ;
#190 =( LENGTH_UNIT ( ) NAMED_UNIT ( * ) SI_UNIT ( .MILLI., .METRE. ) );
#191 = UNCERTAINTY_MEASURE_WITH_UNIT (LENGTH_MEASURE( 1.000000000000000100E-005 ), #291, 'distance_accuracy_value', 'NONE');
#192 = ORIENTED_EDGE ( 'NONE', *, *, #177, .F. ) ;
#193 = CYLINDRICAL_SURFACE ( 'NONE', #163, 19.99999999999994300 ) ;
#194 = DIRECTION ( 'NONE',  ( 1.144843079344535300E-016, 0.0000000000000000000, 1.000000000000000000 ) ) ;
#195 = DIRECTION ( 'NONE',  ( -0.0000000000000000000, 1.000000000000000000, 0.0000000000000000000 ) ) ;
#196 = CYLINDRICAL_SURFACE ( 'NONE', #184, 19.99999999999995400 ) ;
#197 =( GEOMETRIC_REPRESENTATION_CONTEXT ( 3 ) GLOBAL_UNCERTAINTY_ASSIGNED_CONTEXT ( ( #204 ) ) GLOBAL_UNIT_ASSIGNED_CONTEXT ( ( #238, #207, #220 ) ) REPRESENTATION_CONTEXT ( 'NONE', 'WORKASPACE' ) );
#198 = CIRCLE ( 'NONE', #284, 275.3729999999999900 ) ;
#199 = ADVANCED_BREP_SHAPE_REPRESENTATION ( '145204', ( #37, #50, #323 ), #306 ) ;
#200 =( GEOMETRIC_REPRESENTATION_CONTEXT ( 3 ) GLOBAL_UNCERTAINTY_ASSIGNED_CONTEXT ( ( #262 ) ) GLOBAL_UNIT_ASSIGNED_CONTEXT ( ( #255, #235, #307 ) ) REPRESENTATION_CONTEXT ( 'NONE', 'WORKASPACE' ) );
#201 = ADVANCED_FACE ( 'NONE', ( #54 ), #294, .F. ) ;
#202 = DIRECTION ( 'NONE',  ( -1.000000000000000000, -0.0000000000000000000, -0.0000000000000000000 ) ) ;
#203 = ORIENTED_EDGE ( 'NONE', *, *, #139, .F. ) ;
#204 = UNCERTAINTY_MEASURE_WITH_UNIT (LENGTH_MEASURE( 1.000000000000000100E-005 ), #238, 'distance_accuracy_value', 'NONE');
#205 = AXIS2_PLACEMENT_3D ( 'NONE', #295, #311, #34 ) ;
#206 =( NAMED_UNIT ( * ) PLANE_ANGLE_UNIT ( ) SI_UNIT ( $, .RADIAN. ) );
#207 =( NAMED_UNIT ( * ) PLANE_ANGLE_UNIT ( ) SI_UNIT ( $, .RADIAN. ) );
#208 = CIRCLE ( 'NONE', #258, 275.3729999999999900 ) ;
#209 = CARTESIAN_POINT ( 'NONE',  ( 88.03862455311944800, 2.449293598294704900E-015, -19.99999999999999300 ) ) ;
#210 = CIRCLE ( 'NONE', #296, 19.99999999999998600 ) ;
#211 = PRODUCT_DEFINITION_SHAPE ( 'NONE', 'NONE',  #166 ) ;
#212 = ORIENTED_EDGE ( 'NONE', *, *, #141, .T. ) ;
#213 = DIRECTION ( 'NONE',  ( -1.000000000000000000, -0.0000000000000000000, -0.0000000000000000000 ) ) ;
#214 = CIRCLE ( 'NONE', #71, 90.50000000000005700 ) ;
#215 = LINE ( 'NONE', #237, #317 ) ;
#216 = DIRECTION ( 'NONE',  ( -1.000000000000000000, -0.0000000000000000000, -0.0000000000000000000 ) ) ;
#217 = DIRECTION ( 'NONE',  ( 1.000000000000000000, 0.0000000000000000000, 0.0000000000000000000 ) ) ;
#218 = ADVANCED_FACE ( 'NONE', ( #84 ), #70, .F. ) ;
#219 = FILL_AREA_STYLE ('',( #157 ) ) ;
#220 =( NAMED_UNIT ( * ) SI_UNIT ( $, .STERADIAN. ) SOLID_ANGLE_UNIT ( ) );
#221 = DIRECTION ( 'NONE',  ( 0.0000000000000000000, -1.000000000000000000, -1.224646799147353200E-016 ) ) ;
#222 = AXIS2_PLACEMENT_3D ( 'NONE', #301, #106, #41 ) ;
#223 = EDGE_CURVE ( 'NONE', #127, #329, #326, .T. ) ;
#224 = VERTEX_POINT ( 'NONE', #140 ) ;
#225 = AXIS2_PLACEMENT_3D ( 'NONE', #2, #264, #91 ) ;
#226 = DIRECTION ( 'NONE',  ( 0.0000000000000000000, 0.0000000000000000000, 1.000000000000000000 ) ) ;
#227 = CARTESIAN_POINT ( 'NONE',  ( 81.68974109724396700, 0.0000000000000000000, 19.99999999999994300 ) ) ;
#228 = VERTEX_POINT ( 'NONE', #257 ) ;
#229 = CARTESIAN_POINT ( 'NONE',  ( 88.03862455311944800, 0.0000000000000000000, -7.888376697731910100E-015 ) ) ;
#230 = EDGE_CURVE ( 'NONE', #330, #224, #39, .T. ) ;
#231 = DIRECTION ( 'NONE',  ( 0.0000000000000000000, 0.0000000000000000000, 1.000000000000000000 ) ) ;
#232 = ORIENTED_EDGE ( 'NONE', *, *, #188, .F. ) ;
#233 = DIRECTION ( 'NONE',  ( -0.0000000000000000000, 1.000000000000000000, 0.0000000000000000000 ) ) ;
#234 = VECTOR ( 'NONE', #213, 1000.000000000000000 ) ;
#235 =( NAMED_UNIT ( * ) PLANE_ANGLE_UNIT ( ) SI_UNIT ( $, .RADIAN. ) );
#236 = AXIS2_PLACEMENT_3D ( 'NONE', #259, #76, #4 ) ;
#237 = CARTESIAN_POINT ( 'NONE',  ( 81.68974109724396700, 2.449293598294699800E-015, -19.99999999999994300 ) ) ;
#238 =( LENGTH_UNIT ( ) NAMED_UNIT ( * ) SI_UNIT ( .MILLI., .METRE. ) );
#239 = COLOUR_RGB ( '',1.000000000000000000, 1.000000000000000000, 1.000000000000000000 ) ;
#240 = DIRECTION ( 'NONE',  ( -1.000000000000000000, -0.0000000000000000000, 1.039419731515214900E-016 ) ) ;
#241 =( NAMED_UNIT ( * ) PLANE_ANGLE_UNIT ( ) SI_UNIT ( $, .RADIAN. ) );
#242 = CARTESIAN_POINT ( 'NONE',  ( 85.80101745066102100, 0.0000000000000000000, -5.572050722945402500E-015 ) ) ;
#243 = ADVANCED_FACE ( 'NONE', ( #302 ), #310, .T. ) ;
#244 = ORIENTED_EDGE ( 'NONE', *, *, #223, .T. ) ;
#245 = CIRCLE ( 'NONE', #66, 19.99999999999992500 ) ;
#246 = CIRCLE ( 'NONE', #169, 19.99999999999991500 ) ;
#247 = CARTESIAN_POINT ( 'NONE',  ( 81.68974109724396700, 2.449293598294707300E-015, -20.00000000000008200 ) ) ;
#248 = AXIS2_PLACEMENT_3D ( 'NONE', #99, #202, #333 ) ;
#249 = SURFACE_STYLE_USAGE ( .BOTH. , #129 ) ;
#250 = PRODUCT_CONTEXT ( 'NONE', #343, 'mechanical' ) ;
#251 = ORIENTED_EDGE ( 'NONE', *, *, #177, .T. ) ;
#252 = ORIENTED_EDGE ( 'NONE', *, *, #97, .T. ) ;
#253 = AXIS2_PLACEMENT_3D ( 'NONE', #85, #170, #22 ) ;
#254 = DIRECTION ( 'NONE',  ( -0.0000000000000000000, 1.000000000000000000, 0.0000000000000000000 ) ) ;
#255 =( LENGTH_UNIT ( ) NAMED_UNIT ( * ) SI_UNIT ( .MILLI., .METRE. ) );
#256 = ADVANCED_FACE ( 'NONE', ( #74 ), #196, .T. ) ;
#257 = CARTESIAN_POINT ( 'NONE',  ( 89.30101745066099300, 0.0000000000000000000, -1.686173315108020500E-014 ) ) ;
#258 = AXIS2_PLACEMENT_3D ( 'NONE', #316, #221, #271 ) ;
#259 = CARTESIAN_POINT ( 'NONE',  ( 90.02826538265613000, 0.0000000000000000000, 0.0000000000000000000 ) ) ;
#260 = EDGE_CURVE ( 'NONE', #29, #329, #90, .T. ) ;
#261 = VERTEX_POINT ( 'NONE', #189 ) ;
#262 = UNCERTAINTY_MEASURE_WITH_UNIT (LENGTH_MEASURE( 1.000000000000000100E-005 ), #255, 'distance_accuracy_value', 'NONE');
#263 = EDGE_LOOP ( 'NONE', ( #232, #289, #212 ) ) ;
#264 = DIRECTION ( 'NONE',  ( -1.000000000000000000, -0.0000000000000000000, 1.039419731515214900E-016 ) ) ;
#265 = FACE_OUTER_BOUND ( 'NONE', #171, .T. ) ;
#266 = DIRECTION ( 'NONE',  ( 1.272922047170709200E-032, 1.000000000000000000, 1.224646799147353200E-016 ) ) ;
#267 = STYLED_ITEM ( 'NONE', ( #152 ), #50 ) ;
#268 = CARTESIAN_POINT ( 'NONE',  ( 0.0000000000000000000, 0.0000000000000000000, 0.0000000000000000000 ) ) ;
#269 = DIRECTION ( 'NONE',  ( 0.0000000000000000000, -1.000000000000000000, 0.0000000000000000000 ) ) ;
#270 = ORIENTED_EDGE ( 'NONE', *, *, #51, .T. ) ;
#271 = DIRECTION ( 'NONE',  ( 0.0000000000000000000, 1.224646799147353200E-016, -1.000000000000000000 ) ) ;
#272 = CARTESIAN_POINT ( 'NONE',  ( 81.68974109724396700, 0.0000000000000000000, 0.0000000000000000000 ) ) ;
#273 = CARTESIAN_POINT ( 'NONE',  ( 90.02826538265613000, 0.0000000000000000000, 19.99999999999991500 ) ) ;
#274 = CARTESIAN_POINT ( 'NONE',  ( 176.3010174506610800, 0.0000000000000000000, -2.052032605929987800E-014 ) ) ;
#275 = SURFACE_STYLE_FILL_AREA ( #335 ) ;
#276 = FACE_OUTER_BOUND ( 'NONE', #18, .T. ) ;
#277 = SHAPE_DEFINITION_REPRESENTATION ( #211, #199 ) ;
#278 = DIRECTION ( 'NONE',  ( 0.0000000000000000000, -1.224646799147353200E-016, 1.000000000000000000 ) ) ;
#279 = CIRCLE ( 'NONE', #248, 19.99999999999997500 ) ;
#280 = MECHANICAL_DESIGN_GEOMETRIC_PRESENTATION_REPRESENTATION (  '', ( #75 ), #200 ) ;
#281 = EDGE_CURVE ( 'NONE', #224, #330, #246, .T. ) ;
#282 = ORIENTED_EDGE ( 'NONE', *, *, #141, .F. ) ;
#283 = VECTOR ( 'NONE', #240, 1000.000000000000000 ) ;
#284 = AXIS2_PLACEMENT_3D ( 'NONE', #69, #132, #231 ) ;
#285 = SURFACE_STYLE_FILL_AREA ( #219 ) ;
#286 = CIRCLE ( 'NONE', #325, 90.50000000000005700 ) ;
#287 = DIRECTION ( 'NONE',  ( -1.000000000000000000, -0.0000000000000000000, 1.039419731515214900E-016 ) ) ;
#288 = AXIS2_PLACEMENT_3D ( 'NONE', #303, #299, #114 ) ;
#289 = ORIENTED_EDGE ( 'NONE', *, *, #260, .T. ) ;
#290 = ADVANCED_FACE ( 'NONE', ( #7 ), #31, .T. ) ;
#291 =( LENGTH_UNIT ( ) NAMED_UNIT ( * ) SI_UNIT ( .MILLI., .METRE. ) );
#292 = CARTESIAN_POINT ( 'NONE',  ( -37.86898254933897300, 0.0000000000000000000, -6.139750099331126500E-014 ) ) ;
#293 = ORIENTED_EDGE ( 'NONE', *, *, #16, .T. ) ;
#294 = SPHERICAL_SURFACE ( 'NONE', #92, 121.2200000000000000 ) ;
#295 = CARTESIAN_POINT ( 'NONE',  ( 81.68974109724396700, 0.0000000000000000000, 0.0000000000000000000 ) ) ;
#296 = AXIS2_PLACEMENT_3D ( 'NONE', #229, #57, #322 ) ;
#297 = FACE_OUTER_BOUND ( 'NONE', #151, .T. ) ;
#298 = VECTOR ( 'NONE', #113, 1000.000000000000000 ) ;
#299 = DIRECTION ( 'NONE',  ( 0.0000000000000000000, 1.000000000000000000, 0.0000000000000000000 ) ) ;
#300 = CYLINDRICAL_SURFACE ( 'NONE', #205, 19.99999999999994300 ) ;
#301 = CARTESIAN_POINT ( 'NONE',  ( 176.3010174506610800, 0.0000000000000000000, -2.052032605929987800E-014 ) ) ;
#302 = FACE_OUTER_BOUND ( 'NONE', #345, .T. ) ;
#303 = CARTESIAN_POINT ( 'NONE',  ( 176.3010174506610800, 0.0000000000000000000, -2.052032605929987800E-014 ) ) ;
#304 = EDGE_CURVE ( 'NONE', #98, #127, #13, .T. ) ;
#305 = ORIENTED_EDGE ( 'NONE', *, *, #308, .F. ) ;
#306 =( GEOMETRIC_REPRESENTATION_CONTEXT ( 3 ) GLOBAL_UNCERTAINTY_ASSIGNED_CONTEXT ( ( #191 ) ) GLOBAL_UNIT_ASSIGNED_CONTEXT ( ( #291, #206, #346 ) ) REPRESENTATION_CONTEXT ( 'NONE', 'WORKASPACE' ) );
#307 =( NAMED_UNIT ( * ) SI_UNIT ( $, .STERADIAN. ) SOLID_ANGLE_UNIT ( ) );
#308 = EDGE_CURVE ( 'NONE', #127, #339, #214, .T. ) ;
#309 = ORIENTED_EDGE ( 'NONE', *, *, #188, .T. ) ;
#310 = SPHERICAL_SURFACE ( 'NONE', #288, 90.50000000000005700 ) ;
#311 = DIRECTION ( 'NONE',  ( -1.000000000000000000, -0.0000000000000000000, -0.0000000000000000000 ) ) ;
#312 = VERTEX_POINT ( 'NONE', #344 ) ;
#313 = DIRECTION ( 'NONE',  ( 0.0000000000000000000, 0.0000000000000000000, 1.000000000000000000 ) ) ;
#314 = ORIENTED_EDGE ( 'NONE', *, *, #180, .F. ) ;
#315 = ORIENTED_EDGE ( 'NONE', *, *, #134, .T. ) ;
#316 = CARTESIAN_POINT ( 'NONE',  ( 364.6740174506609800, 0.0000000000000000000, 0.0000000000000000000 ) ) ;
#317 = VECTOR ( 'NONE', #10, 1000.000000000000000 ) ;
#318 = AXIS2_PLACEMENT_3D ( 'NONE', #165, #81, #319 ) ;
#319 = DIRECTION ( 'NONE',  ( 0.0000000000000000000, -1.224646799147353000E-016, 1.000000000000000000 ) ) ;
#320 = ORIENTED_EDGE ( 'NONE', *, *, #1, .F. ) ;
#321 = CLOSED_SHELL ( 'NONE', ( #32, #256, #201, #19, #290, #150 ) ) ;
#322 = DIRECTION ( 'NONE',  ( 0.0000000000000000000, 0.0000000000000000000, 1.000000000000000000 ) ) ;
#323 = AXIS2_PLACEMENT_3D ( 'NONE', #268, #340, #217 ) ;
#324 = ORIENTED_EDGE ( 'NONE', *, *, #260, .F. ) ;
#325 = AXIS2_PLACEMENT_3D ( 'NONE', #172, #137, #46 ) ;
#326 = LINE ( 'NONE', #102, #283 ) ;
#327 = EDGE_CURVE ( 'NONE', #98, #339, #133, .T. ) ;
#328 = DIRECTION ( 'NONE',  ( 0.0000000000000000000, -1.000000000000000000, 0.0000000000000000000 ) ) ;
#329 = VERTEX_POINT ( 'NONE', #247 ) ;
#330 = VERTEX_POINT ( 'NONE', #273 ) ;
#331 = ORIENTED_EDGE ( 'NONE', *, *, #180, .T. ) ;
#332 = CIRCLE ( 'NONE', #122, 19.99999999999992500 ) ;
#333 = DIRECTION ( 'NONE',  ( 0.0000000000000000000, 0.0000000000000000000, 1.000000000000000000 ) ) ;
#334 = PRESENTATION_LAYER_ASSIGNMENT (  '', '', ( #12 ) ) ;
#335 = FILL_AREA_STYLE ('',( #42 ) ) ;
#336 = DIRECTION ( 'NONE',  ( 0.0000000000000000000, 0.0000000000000000000, -1.000000000000000000 ) ) ;
#337 = CARTESIAN_POINT ( 'NONE',  ( 90.02826538265613000, 0.0000000000000000000, 0.0000000000000000000 ) ) ;
#338 = DIRECTION ( 'NONE',  ( 0.0000000000000000000, 0.0000000000000000000, 1.000000000000000000 ) ) ;
#339 = VERTEX_POINT ( 'NONE', #242 ) ;
#340 = DIRECTION ( 'NONE',  ( 0.0000000000000000000, 0.0000000000000000000, 1.000000000000000000 ) ) ;
#341 = SURFACE_STYLE_USAGE ( .BOTH. , #342 ) ;
#342 = SURFACE_SIDE_STYLE ('',( #285 ) ) ;
#343 = APPLICATION_CONTEXT ( 'automotive_design' ) ;
#344 = CARTESIAN_POINT ( 'NONE',  ( 88.03862455311941900, 0.0000000000000000000, 19.99999999999997900 ) ) ;
#345 = EDGE_LOOP ( 'NONE', ( #27, #88, #178 ) ) ;
#346 =( NAMED_UNIT ( * ) SI_UNIT ( $, .STERADIAN. ) SOLID_ANGLE_UNIT ( ) );
#347 = CARTESIAN_POINT ( 'NONE',  ( 176.3010174506610800, 0.0000000000000000000, -2.052032605929987800E-014 ) ) ;
ENDSEC;
END-ISO-10303-21;
