ISO-10303-21;
HEADER;
FILE_DESCRIPTION (( 'STEP AP214' ),
    '1' );
FILE_NAME ('145206.STEP',
    '2019-06-13T08:51:24',
    ( 'user' ),
    ( 'Î¢ÈíÖÐ¹ú' ),
    'SwSTEP 2.0',
    'SolidWorks 2016',
    '' );
FILE_SCHEMA (( 'AUTOMOTIVE_DESIGN' ));
ENDSEC;

DATA;
#1 = DIRECTION ( 'NONE',  ( 0.0000000000000000000, 0.0000000000000000000, 1.000000000000000000 ) ) ;
#2 =( LENGTH_UNIT ( ) NAMED_UNIT ( * ) SI_UNIT ( .MILLI., .METRE. ) );
#3 = EDGE_LOOP ( 'NONE', ( #302, #171, #300 ) ) ;
#4 = AXIS2_PLACEMENT_3D ( 'NONE', #92, #319, #258 ) ;
#5 = DIRECTION ( 'NONE',  ( 0.0000000000000000000, 0.0000000000000000000, 1.000000000000000000 ) ) ;
#6 = ORIENTED_EDGE ( 'NONE', *, *, #25, .T. ) ;
#7 = FACE_OUTER_BOUND ( 'NONE', #175, .T. ) ;
#8 = PRODUCT_CONTEXT ( 'NONE', #91, 'mechanical' ) ;
#9 = SPHERICAL_SURFACE ( 'NONE', #17, 13.59999999999999800 ) ;
#10 = DIRECTION ( 'NONE',  ( 0.0000000000000000000, 0.0000000000000000000, 1.000000000000000000 ) ) ;
#11 = AXIS2_PLACEMENT_3D ( 'NONE', #331, #12, #308 ) ;
#12 = DIRECTION ( 'NONE',  ( 0.0000000000000000000, -1.000000000000000000, 0.0000000000000000000 ) ) ;
#13 = EDGE_LOOP ( 'NONE', ( #276, #52, #67, #24 ) ) ;
#14 = CIRCLE ( 'NONE', #168, 6.349999999999937500 ) ;
#15 = AXIS2_PLACEMENT_3D ( 'NONE', #111, #339, #121 ) ;
#16 = DIRECTION ( 'NONE',  ( -1.000000000000000000, -0.0000000000000000000, 2.146984579388475100E-016 ) ) ;
#17 = AXIS2_PLACEMENT_3D ( 'NONE', #239, #119, #10 ) ;
#18 = DIRECTION ( 'NONE',  ( 0.0000000000000000000, 0.0000000000000000000, 1.000000000000000000 ) ) ;
#19 = VERTEX_POINT ( 'NONE', #283 ) ;
#20 = FACE_OUTER_BOUND ( 'NONE', #3, .T. ) ;
#21 = ORIENTED_EDGE ( 'NONE', *, *, #241, .T. ) ;
#22 = DIRECTION ( 'NONE',  ( -1.000000000000000000, -0.0000000000000000000, 2.146984579388475100E-016 ) ) ;
#23 = DIRECTION ( 'NONE',  ( -1.000000000000000000, -0.0000000000000000000, -0.0000000000000000000 ) ) ;
#24 = ORIENTED_EDGE ( 'NONE', *, *, #307, .F. ) ;
#25 = EDGE_CURVE ( 'NONE', #55, #87, #322, .T. ) ;
#26 = ORIENTED_EDGE ( 'NONE', *, *, #51, .T. ) ;
#27 = APPLICATION_PROTOCOL_DEFINITION ( 'draft international standard', 'automotive_design', 1998, #91 ) ;
#28 = SPHERICAL_SURFACE ( 'NONE', #178, 17.09999999999999400 ) ;
#29 = CIRCLE ( 'NONE', #335, 6.349999999999968600 ) ;
#30 = ADVANCED_FACE ( 'NONE', ( #199 ), #217, .T. ) ;
#31 = AXIS2_PLACEMENT_3D ( 'NONE', #292, #207, #94 ) ;
#32 = AXIS2_PLACEMENT_3D ( 'NONE', #99, #45, #18 ) ;
#33 = AXIS2_PLACEMENT_3D ( 'NONE', #65, #120, #179 ) ;
#34 = EDGE_CURVE ( 'NONE', #55, #19, #204, .T. ) ;
#35 = CYLINDRICAL_SURFACE ( 'NONE', #138, 6.349999999999952600 ) ;
#36 = FACE_OUTER_BOUND ( 'NONE', #208, .T. ) ;
#37 = EDGE_CURVE ( 'NONE', #55, #274, #103, .T. ) ;
#38 = SURFACE_STYLE_USAGE ( .BOTH. , #129 ) ;
#39 = DIRECTION ( 'NONE',  ( 0.0000000000000000000, -1.000000000000000000, 0.0000000000000000000 ) ) ;
#40 = ORIENTED_EDGE ( 'NONE', *, *, #148, .F. ) ;
#41 = DIRECTION ( 'NONE',  ( 2.629297792966822700E-032, 1.000000000000000000, 1.224646799147353200E-016 ) ) ;
#42 = DIRECTION ( 'NONE',  ( 2.629297792966822700E-032, 1.000000000000000000, 1.224646799147353200E-016 ) ) ;
#43 =( LENGTH_UNIT ( ) NAMED_UNIT ( * ) SI_UNIT ( .MILLI., .METRE. ) );
#44 = ORIENTED_EDGE ( 'NONE', *, *, #34, .F. ) ;
#45 = DIRECTION ( 'NONE',  ( 0.0000000000000000000, 1.000000000000000000, 0.0000000000000000000 ) ) ;
#46 = DIRECTION ( 'NONE',  ( 0.0000000000000000000, -1.224646799147353200E-016, 1.000000000000000000 ) ) ;
#47 = CLOSED_SHELL ( 'NONE', ( #317, #228, #159, #110, #193, #219 ) ) ;
#48 = AXIS2_PLACEMENT_3D ( 'NONE', #316, #116, #329 ) ;
#49 = DIRECTION ( 'NONE',  ( 0.0000000000000000000, 0.0000000000000000000, 1.000000000000000000 ) ) ;
#50 = DIRECTION ( 'NONE',  ( 0.0000000000000000000, 0.0000000000000000000, -1.000000000000000000 ) ) ;
#51 = EDGE_CURVE ( 'NONE', #274, #336, #143, .T. ) ;
#52 = ORIENTED_EDGE ( 'NONE', *, *, #37, .T. ) ;
#53 = ORIENTED_EDGE ( 'NONE', *, *, #241, .F. ) ;
#54 = CYLINDRICAL_SURFACE ( 'NONE', #4, 6.349999999999992500 ) ;
#55 = VERTEX_POINT ( 'NONE', #284 ) ;
#56 = CARTESIAN_POINT ( 'NONE',  ( -185.2744740506581700, 0.0000000000000000000, 6.350000000000013900 ) ) ;
#57 = APPLICATION_PROTOCOL_DEFINITION ( 'draft international standard', 'automotive_design', 1998, #229 ) ;
#58 = EDGE_CURVE ( 'NONE', #191, #233, #29, .T. ) ;
#59 = ORIENTED_EDGE ( 'NONE', *, *, #51, .F. ) ;
#60 = VECTOR ( 'NONE', #77, 1000.000000000000000 ) ;
#61 = CIRCLE ( 'NONE', #290, 13.59999999999999800 ) ;
#62 = SPHERICAL_SURFACE ( 'NONE', #197, 13.59999999999999800 ) ;
#63 = DIRECTION ( 'NONE',  ( 0.0000000000000000000, 0.0000000000000000000, 1.000000000000000000 ) ) ;
#64 = UNCERTAINTY_MEASURE_WITH_UNIT (LENGTH_MEASURE( 1.000000000000000100E-005 ), #43, 'distance_accuracy_value', 'NONE');
#65 = CARTESIAN_POINT ( 'NONE',  ( 162.0059104106503300, 0.0000000000000000000, -5.404023695695194000E-014 ) ) ;
#66 = ORIENTED_EDGE ( 'NONE', *, *, #347, .T. ) ;
#67 = ORIENTED_EDGE ( 'NONE', *, *, #86, .F. ) ;
#68 = DIRECTION ( 'NONE',  ( 0.0000000000000000000, 0.0000000000000000000, 1.000000000000000000 ) ) ;
#69 = DIRECTION ( 'NONE',  ( 0.0000000000000000000, 1.000000000000000000, 0.0000000000000000000 ) ) ;
#70 =( LENGTH_UNIT ( ) NAMED_UNIT ( * ) SI_UNIT ( .MILLI., .METRE. ) );
#71 = FILL_AREA_STYLE_COLOUR ( '', #136 ) ;
#72 = ORIENTED_EDGE ( 'NONE', *, *, #311, .T. ) ;
#73 = LINE ( 'NONE', #154, #282 ) ;
#74 = CARTESIAN_POINT ( 'NONE',  ( 162.0059104106503300, 0.0000000000000000000, 6.349999999999966800 ) ) ;
#75 = CARTESIAN_POINT ( 'NONE',  ( 177.8831740287930600, 0.0000000000000000000, -6.053013926203932400E-014 ) ) ;
#76 = CARTESIAN_POINT ( 'NONE',  ( 163.5831740287932000, 0.0000000000000000000, 5.259858002337882200E-014 ) ) ;
#77 = DIRECTION ( 'NONE',  ( -1.000000000000000000, -0.0000000000000000000, -0.0000000000000000000 ) ) ;
#78 = VERTEX_POINT ( 'NONE', #244 ) ;
#79 = DIRECTION ( 'NONE',  ( -1.000000000000000000, -0.0000000000000000000, 2.146984579388475100E-016 ) ) ;
#80 = AXIS2_PLACEMENT_3D ( 'NONE', #145, #340, #172 ) ;
#81 = VECTOR ( 'NONE', #212, 1000.000000000000000 ) ;
#82 = DIRECTION ( 'NONE',  ( 0.0000000000000000000, 0.0000000000000000000, 1.000000000000000000 ) ) ;
#83 = ADVANCED_FACE ( 'NONE', ( #166 ), #135, .T. ) ;
#84 = ORIENTED_EDGE ( 'NONE', *, *, #58, .T. ) ;
#85 = EDGE_CURVE ( 'NONE', #233, #191, #251, .T. ) ;
#86 = EDGE_CURVE ( 'NONE', #336, #274, #196, .T. ) ;
#87 = VERTEX_POINT ( 'NONE', #127 ) ;
#88 = CIRCLE ( 'NONE', #48, 17.09999999999997700 ) ;
#89 = DIRECTION ( 'NONE',  ( -0.0000000000000000000, 1.000000000000000000, 0.0000000000000000000 ) ) ;
#90 = FILL_AREA_STYLE_COLOUR ( '', #117 ) ;
#91 = APPLICATION_CONTEXT ( 'automotive_design' ) ;
#92 = CARTESIAN_POINT ( 'NONE',  ( -185.2744740506581700, 0.0000000000000000000, 2.052032605930108700E-014 ) ) ;
#93 = CIRCLE ( 'NONE', #227, 6.349999999999992500 ) ;
#94 = DIRECTION ( 'NONE',  ( 0.0000000000000000000, -1.224646799147353200E-016, 1.000000000000000000 ) ) ;
#95 = UNCERTAINTY_MEASURE_WITH_UNIT (LENGTH_MEASURE( 1.000000000000000100E-005 ), #70, 'distance_accuracy_value', 'NONE');
#96 = CARTESIAN_POINT ( 'NONE',  ( 162.0059104106503300, 0.0000000000000000000, 0.0000000000000000000 ) ) ;
#97 = DIRECTION ( 'NONE',  ( 0.0000000000000000000, 0.0000000000000000000, 1.000000000000000000 ) ) ;
#98 = VERTEX_POINT ( 'NONE', #234 ) ;
#99 = CARTESIAN_POINT ( 'NONE',  ( 177.8831740287930600, 0.0000000000000000000, -6.053013926203932400E-014 ) ) ;
#100 = CARTESIAN_POINT ( 'NONE',  ( 162.0059104106503300, 0.0000000000000000000, -5.404023695695194000E-014 ) ) ;
#101 = EDGE_LOOP ( 'NONE', ( #66, #287, #346, #230 ) ) ;
#102 = CIRCLE ( 'NONE', #210, 6.349999999999937500 ) ;
#103 = LINE ( 'NONE', #256, #81 ) ;
#104 = DIRECTION ( 'NONE',  ( 0.0000000000000000000, 0.0000000000000000000, -1.000000000000000000 ) ) ;
#105 = CARTESIAN_POINT ( 'NONE',  ( 162.0059104106503300, 7.776507174585649800E-016, -6.350000000000027200 ) ) ;
#106 =( NAMED_UNIT ( * ) SI_UNIT ( $, .STERADIAN. ) SOLID_ANGLE_UNIT ( ) );
#107 = ORIENTED_EDGE ( 'NONE', *, *, #34, .T. ) ;
#108 = EDGE_CURVE ( 'NONE', #147, #233, #225, .T. ) ;
#109 = EDGE_CURVE ( 'NONE', #19, #87, #173, .T. ) ;
#110 = ADVANCED_FACE ( 'NONE', ( #338 ), #62, .F. ) ;
#111 = CARTESIAN_POINT ( 'NONE',  ( 157.7097071950883000, 0.0000000000000000000, -5.311784875157886000E-014 ) ) ;
#112 = CIRCLE ( 'NONE', #31, 859.0000000000000000 ) ;
#113 = AXIS2_PLACEMENT_3D ( 'NONE', #150, #263, #281 ) ;
#114 = ORIENTED_EDGE ( 'NONE', *, *, #148, .T. ) ;
#115 = CARTESIAN_POINT ( 'NONE',  ( 157.7097071950883000, 7.776507174585683300E-016, -6.350000000000054700 ) ) ;
#116 = DIRECTION ( 'NONE',  ( -0.0000000000000000000, 1.000000000000000000, 1.224646799147353200E-016 ) ) ;
#117 = COLOUR_RGB ( '',1.000000000000000000, 1.000000000000000000, 1.000000000000000000 ) ;
#118 = EDGE_LOOP ( 'NONE', ( #259, #114, #293 ) ) ;
#119 = DIRECTION ( 'NONE',  ( -0.0000000000000000000, 1.000000000000000000, 0.0000000000000000000 ) ) ;
#120 = DIRECTION ( 'NONE',  ( -1.000000000000000000, -0.0000000000000000000, 2.146984579388475100E-016 ) ) ;
#121 = DIRECTION ( 'NONE',  ( 0.0000000000000000000, 0.0000000000000000000, 1.000000000000000000 ) ) ;
#122 = LINE ( 'NONE', #56, #224 ) ;
#123 = FACE_OUTER_BOUND ( 'NONE', #101, .T. ) ;
#124 = CARTESIAN_POINT ( 'NONE',  ( 159.2831740287930400, 0.0000000000000000000, -6.261727846658732000E-014 ) ) ;
#125 =( GEOMETRIC_REPRESENTATION_CONTEXT ( 3 ) GLOBAL_UNCERTAINTY_ASSIGNED_CONTEXT ( ( #64 ) ) GLOBAL_UNIT_ASSIGNED_CONTEXT ( ( #43, #158, #337 ) ) REPRESENTATION_CONTEXT ( 'NONE', 'WORKASPACE' ) );
#126 = ORIENTED_EDGE ( 'NONE', *, *, #86, .T. ) ;
#127 = CARTESIAN_POINT ( 'NONE',  ( 160.7831740287930400, 0.0000000000000000000, -5.581172261801404600E-014 ) ) ;
#128 = PRESENTATION_LAYER_ASSIGNMENT (  '', '', ( #237 ) ) ;
#129 = SURFACE_SIDE_STYLE ('',( #299 ) ) ;
#130 = SURFACE_SIDE_STYLE ('',( #185 ) ) ;
#131 = DIRECTION ( 'NONE',  ( -0.0000000000000000000, 1.000000000000000000, 0.0000000000000000000 ) ) ;
#132 = CARTESIAN_POINT ( 'NONE',  ( 0.0000000000000000000, 0.0000000000000000000, 0.0000000000000000000 ) ) ;
#133 = PRODUCT_RELATED_PRODUCT_CATEGORY ( 'part', '', ( #205 ) ) ;
#134 = PRESENTATION_STYLE_ASSIGNMENT (( #38 ) ) ;
#135 = SPHERICAL_SURFACE ( 'NONE', #32, 17.09999999999997700 ) ;
#136 = COLOUR_RGB ( '',1.000000000000000000, 1.000000000000000000, 1.000000000000000000 ) ;
#137 = EDGE_LOOP ( 'NONE', ( #342, #21, #26 ) ) ;
#138 = AXIS2_PLACEMENT_3D ( 'NONE', #252, #180, #63 ) ;
#139 = CARTESIAN_POINT ( 'NONE',  ( 163.5597031027836600, 0.0000000000000000000, 0.0000000000000000000 ) ) ;
#140 = ORIENTED_EDGE ( 'NONE', *, *, #330, .F. ) ;
#141 = ADVANCED_FACE ( 'NONE', ( #36 ), #277, .T. ) ;
#142 = CARTESIAN_POINT ( 'NONE',  ( 163.5597031027836600, 0.0000000000000000000, 0.0000000000000000000 ) ) ;
#143 = CIRCLE ( 'NONE', #15, 6.349999999999991700 ) ;
#144 = PRESENTATION_LAYER_ASSIGNMENT (  '', '', ( #232 ) ) ;
#145 = CARTESIAN_POINT ( 'NONE',  ( -695.4168259712067800, 0.0000000000000000000, 0.0000000000000000000 ) ) ;
#146 = CARTESIAN_POINT ( 'NONE',  ( 145.6831740287930500, 0.0000000000000000000, -6.053013926203919800E-014 ) ) ;
#147 = VERTEX_POINT ( 'NONE', #157 ) ;
#148 = EDGE_CURVE ( 'NONE', #198, #147, #112, .T. ) ;
#149 = DIRECTION ( 'NONE',  ( 0.0000000000000000000, -1.224646799147353200E-016, 1.000000000000000000 ) ) ;
#150 = CARTESIAN_POINT ( 'NONE',  ( 157.7097071950883000, 0.0000000000000000000, 0.0000000000000000000 ) ) ;
#151 = ORIENTED_EDGE ( 'NONE', *, *, #165, .T. ) ;
#152 = SURFACE_STYLE_USAGE ( .BOTH. , #130 ) ;
#153 = CIRCLE ( 'NONE', #80, 859.0000000000000000 ) ;
#154 = CARTESIAN_POINT ( 'NONE',  ( 157.7097071950883000, 0.0000000000000000000, 6.349999999999952600 ) ) ;
#155 = MECHANICAL_DESIGN_GEOMETRIC_PRESENTATION_REPRESENTATION (  '', ( #232 ), #213 ) ;
#156 = FACE_OUTER_BOUND ( 'NONE', #161, .T. ) ;
#157 = CARTESIAN_POINT ( 'NONE',  ( 163.5597031027836600, 7.776507174585625100E-016, -6.349999999999937500 ) ) ;
#158 =( NAMED_UNIT ( * ) PLANE_ANGLE_UNIT ( ) SI_UNIT ( $, .RADIAN. ) );
#159 = ADVANCED_FACE ( 'NONE', ( #344 ), #9, .F. ) ;
#160 = AXIS2_PLACEMENT_3D ( 'NONE', #332, #22, #260 ) ;
#161 = EDGE_LOOP ( 'NONE', ( #84, #169, #328 ) ) ;
#162 = DIRECTION ( 'NONE',  ( 0.0000000000000000000, 1.000000000000000000, 0.0000000000000000000 ) ) ;
#163 = CARTESIAN_POINT ( 'NONE',  ( 157.7097071950883000, 0.0000000000000000000, -5.311784875157886000E-014 ) ) ;
#164 = ADVANCED_FACE ( 'NONE', ( #201 ), #315, .T. ) ;
#165 = EDGE_CURVE ( 'NONE', #78, #191, #73, .T. ) ;
#166 = FACE_OUTER_BOUND ( 'NONE', #309, .T. ) ;
#167 = ADVANCED_FACE ( 'NONE', ( #123 ), #35, .T. ) ;
#168 = AXIS2_PLACEMENT_3D ( 'NONE', #142, #23, #304 ) ;
#169 = ORIENTED_EDGE ( 'NONE', *, *, #330, .T. ) ;
#170 = AXIS2_PLACEMENT_3D ( 'NONE', #96, #242, #82 ) ;
#171 = ORIENTED_EDGE ( 'NONE', *, *, #184, .F. ) ;
#172 = DIRECTION ( 'NONE',  ( 0.0000000000000000000, 0.0000000000000000000, -1.000000000000000000 ) ) ;
#173 = CIRCLE ( 'NONE', #202, 17.09999999999999400 ) ;
#174 = DIRECTION ( 'NONE',  ( 0.0000000000000000000, -1.000000000000000000, 0.0000000000000000000 ) ) ;
#175 = EDGE_LOOP ( 'NONE', ( #195, #107, #305, #59 ) ) ;
#176 = SHAPE_DEFINITION_REPRESENTATION ( #253, #291 ) ;
#177 = EDGE_LOOP ( 'NONE', ( #44, #6, #296 ) ) ;
#178 = AXIS2_PLACEMENT_3D ( 'NONE', #266, #262, #334 ) ;
#179 = DIRECTION ( 'NONE',  ( 0.0000000000000000000, 0.0000000000000000000, 1.000000000000000000 ) ) ;
#180 = DIRECTION ( 'NONE',  ( -1.000000000000000000, -0.0000000000000000000, -0.0000000000000000000 ) ) ;
#181 = DIRECTION ( 'NONE',  ( 0.0000000000000000000, 0.0000000000000000000, 1.000000000000000000 ) ) ;
#182 = DIRECTION ( 'NONE',  ( -1.000000000000000000, -0.0000000000000000000, -0.0000000000000000000 ) ) ;
#183 = MANIFOLD_SOLID_BREP ( 'Ðý×ª3', #268 ) ;
#184 = EDGE_CURVE ( 'NONE', #19, #55, #93, .T. ) ;
#185 = SURFACE_STYLE_FILL_AREA ( #189 ) ;
#186 = CIRCLE ( 'NONE', #218, 13.59999999999999800 ) ;
#187 = ORIENTED_EDGE ( 'NONE', *, *, #85, .T. ) ;
#188 = CARTESIAN_POINT ( 'NONE',  ( -695.4168259712067800, 0.0000000000000000000, 0.0000000000000000000 ) ) ;
#189 = FILL_AREA_STYLE ('',( #285 ) ) ;
#190 = AXIS2_PLACEMENT_3D ( 'NONE', #243, #41, #46 ) ;
#191 = VERTEX_POINT ( 'NONE', #74 ) ;
#192 = PRESENTATION_STYLE_ASSIGNMENT (( #152 ) ) ;
#193 = ADVANCED_FACE ( 'NONE', ( #7 ), #54, .T. ) ;
#194 = PRODUCT_DEFINITION_FORMATION_WITH_SPECIFIED_SOURCE ( 'ÈÎºÎ', '', #205, .NOT_KNOWN. ) ;
#195 = ORIENTED_EDGE ( 'NONE', *, *, #37, .F. ) ;
#196 = CIRCLE ( 'NONE', #280, 6.349999999999991700 ) ;
#197 = AXIS2_PLACEMENT_3D ( 'NONE', #289, #131, #49 ) ;
#198 = VERTEX_POINT ( 'NONE', #76 ) ;
#199 = FACE_OUTER_BOUND ( 'NONE', #220, .T. ) ;
#200 =( NAMED_UNIT ( * ) SI_UNIT ( $, .STERADIAN. ) SOLID_ANGLE_UNIT ( ) );
#201 = FACE_OUTER_BOUND ( 'NONE', #118, .T. ) ;
#202 = AXIS2_PLACEMENT_3D ( 'NONE', #238, #39, #50 ) ;
#203 = FILL_AREA_STYLE ('',( #71 ) ) ;
#204 = CIRCLE ( 'NONE', #33, 6.349999999999992500 ) ;
#205 = PRODUCT ( '145206', '145206', '', ( #8 ) ) ;
#206 = DIRECTION ( 'NONE',  ( -1.000000000000000000, -0.0000000000000000000, 2.146984579388475100E-016 ) ) ;
#207 = DIRECTION ( 'NONE',  ( -0.0000000000000000000, 1.000000000000000000, 1.224646799147353200E-016 ) ) ;
#208 = EDGE_LOOP ( 'NONE', ( #40, #72, #321 ) ) ;
#209 = FACE_OUTER_BOUND ( 'NONE', #13, .T. ) ;
#210 = AXIS2_PLACEMENT_3D ( 'NONE', #139, #254, #278 ) ;
#211 = CARTESIAN_POINT ( 'NONE',  ( 162.0059104106503300, 0.0000000000000000000, 0.0000000000000000000 ) ) ;
#212 = DIRECTION ( 'NONE',  ( -1.000000000000000000, -0.0000000000000000000, 2.146984579388475100E-016 ) ) ;
#213 =( GEOMETRIC_REPRESENTATION_CONTEXT ( 3 ) GLOBAL_UNCERTAINTY_ASSIGNED_CONTEXT ( ( #249 ) ) GLOBAL_UNIT_ASSIGNED_CONTEXT ( ( #264, #333, #200 ) ) REPRESENTATION_CONTEXT ( 'NONE', 'WORKASPACE' ) );
#214 = EDGE_LOOP ( 'NONE', ( #53, #288, #126 ) ) ;
#215 = CARTESIAN_POINT ( 'NONE',  ( 177.8831740287930600, 0.0000000000000000000, -6.053013926203932400E-014 ) ) ;
#216 = SURFACE_STYLE_FILL_AREA ( #247 ) ;
#217 = CYLINDRICAL_SURFACE ( 'NONE', #113, 6.349999999999952600 ) ;
#218 = AXIS2_PLACEMENT_3D ( 'NONE', #314, #174, #104 ) ;
#219 = ADVANCED_FACE ( 'NONE', ( #20 ), #28, .F. ) ;
#220 = EDGE_LOOP ( 'NONE', ( #265, #236, #151, #326 ) ) ;
#221 = FACE_OUTER_BOUND ( 'NONE', #177, .T. ) ;
#222 = PRODUCT_DEFINITION_CONTEXT ( 'detailed design', #229, 'design' ) ;
#223 = ORIENTED_EDGE ( 'NONE', *, *, #246, .T. ) ;
#224 = VECTOR ( 'NONE', #79, 1000.000000000000000 ) ;
#225 = LINE ( 'NONE', #240, #60 ) ;
#226 = SURFACE_SIDE_STYLE ('',( #216 ) ) ;
#227 = AXIS2_PLACEMENT_3D ( 'NONE', #100, #206, #68 ) ;
#228 = ADVANCED_FACE ( 'NONE', ( #209 ), #261, .T. ) ;
#229 = APPLICATION_CONTEXT ( 'automotive_design' ) ;
#230 = ORIENTED_EDGE ( 'NONE', *, *, #165, .F. ) ;
#231 = SURFACE_STYLE_USAGE ( .BOTH. , #226 ) ;
#232 = STYLED_ITEM ( 'NONE', ( #294 ), #291 ) ;
#233 = VERTEX_POINT ( 'NONE', #105 ) ;
#234 = CARTESIAN_POINT ( 'NONE',  ( 160.7831740287930700, 0.0000000000000000000, -5.948306624876834000E-014 ) ) ;
#235 = DIRECTION ( 'NONE',  ( 0.0000000000000000000, 1.000000000000000000, 0.0000000000000000000 ) ) ;
#236 = ORIENTED_EDGE ( 'NONE', *, *, #275, .T. ) ;
#237 = STYLED_ITEM ( 'NONE', ( #134 ), #271 ) ;
#238 = CARTESIAN_POINT ( 'NONE',  ( 177.8831740287930600, 0.0000000000000000000, -6.053013926203932400E-014 ) ) ;
#239 = CARTESIAN_POINT ( 'NONE',  ( 145.6831740287930500, 0.0000000000000000000, -6.053013926203919800E-014 ) ) ;
#240 = CARTESIAN_POINT ( 'NONE',  ( 157.7097071950883000, 7.776507174585635000E-016, -6.349999999999952600 ) ) ;
#241 = EDGE_CURVE ( 'NONE', #298, #274, #61, .T. ) ;
#242 = DIRECTION ( 'NONE',  ( -1.000000000000000000, -0.0000000000000000000, -0.0000000000000000000 ) ) ;
#243 = CARTESIAN_POINT ( 'NONE',  ( 177.8831740287930600, 0.0000000000000000000, -6.053013926203932400E-014 ) ) ;
#244 = CARTESIAN_POINT ( 'NONE',  ( 163.5597031027836600, 0.0000000000000000000, 6.349999999999937500 ) ) ;
#245 = EDGE_CURVE ( 'NONE', #298, #336, #186, .T. ) ;
#246 = EDGE_CURVE ( 'NONE', #191, #98, #324, .T. ) ;
#247 = FILL_AREA_STYLE ('',( #90 ) ) ;
#248 =( NAMED_UNIT ( * ) SI_UNIT ( $, .STERADIAN. ) SOLID_ANGLE_UNIT ( ) );
#249 = UNCERTAINTY_MEASURE_WITH_UNIT (LENGTH_MEASURE( 1.000000000000000100E-005 ), #264, 'distance_accuracy_value', 'NONE');
#250 =( NAMED_UNIT ( * ) PLANE_ANGLE_UNIT ( ) SI_UNIT ( $, .RADIAN. ) );
#251 = CIRCLE ( 'NONE', #170, 6.349999999999968600 ) ;
#252 = CARTESIAN_POINT ( 'NONE',  ( 157.7097071950883000, 0.0000000000000000000, 0.0000000000000000000 ) ) ;
#253 = PRODUCT_DEFINITION_SHAPE ( 'NONE', 'NONE',  #312 ) ;
#254 = DIRECTION ( 'NONE',  ( -1.000000000000000000, -0.0000000000000000000, -0.0000000000000000000 ) ) ;
#255 = AXIS2_PLACEMENT_3D ( 'NONE', #75, #89, #5 ) ;
#256 = CARTESIAN_POINT ( 'NONE',  ( -185.2744740506581700, 7.776507174585684300E-016, -6.349999999999972100 ) ) ;
#257 = COLOUR_RGB ( '',1.000000000000000000, 1.000000000000000000, 1.000000000000000000 ) ;
#258 = DIRECTION ( 'NONE',  ( 0.0000000000000000000, 0.0000000000000000000, 1.000000000000000000 ) ) ;
#259 = ORIENTED_EDGE ( 'NONE', *, *, #311, .F. ) ;
#260 = DIRECTION ( 'NONE',  ( 0.0000000000000000000, 0.0000000000000000000, 1.000000000000000000 ) ) ;
#261 = CYLINDRICAL_SURFACE ( 'NONE', #160, 6.349999999999992500 ) ;
#262 = DIRECTION ( 'NONE',  ( -0.0000000000000000000, 1.000000000000000000, 0.0000000000000000000 ) ) ;
#263 = DIRECTION ( 'NONE',  ( -1.000000000000000000, -0.0000000000000000000, -0.0000000000000000000 ) ) ;
#264 =( LENGTH_UNIT ( ) NAMED_UNIT ( * ) SI_UNIT ( .MILLI., .METRE. ) );
#265 = ORIENTED_EDGE ( 'NONE', *, *, #108, .F. ) ;
#266 = CARTESIAN_POINT ( 'NONE',  ( 177.8831740287930600, 0.0000000000000000000, -6.053013926203932400E-014 ) ) ;
#267 = MECHANICAL_DESIGN_GEOMETRIC_PRESENTATION_REPRESENTATION (  '', ( #303 ), #125 ) ;
#268 = CLOSED_SHELL ( 'NONE', ( #164, #167, #273, #83, #30, #141 ) ) ;
#269 = DIRECTION ( 'NONE',  ( -1.000000000000000000, -0.0000000000000000000, -0.0000000000000000000 ) ) ;
#270 = SPHERICAL_SURFACE ( 'NONE', #255, 17.09999999999999400 ) ;
#271 = MANIFOLD_SOLID_BREP ( 'Ðý×ª1', #47 ) ;
#272 =( NAMED_UNIT ( * ) PLANE_ANGLE_UNIT ( ) SI_UNIT ( $, .RADIAN. ) );
#273 = ADVANCED_FACE ( 'NONE', ( #156 ), #306, .T. ) ;
#274 = VERTEX_POINT ( 'NONE', #115 ) ;
#275 = EDGE_CURVE ( 'NONE', #147, #78, #102, .T. ) ;
#276 = ORIENTED_EDGE ( 'NONE', *, *, #184, .T. ) ;
#277 = SPHERICAL_SURFACE ( 'NONE', #323, 859.0000000000000000 ) ;
#278 = DIRECTION ( 'NONE',  ( 0.0000000000000000000, 0.0000000000000000000, 1.000000000000000000 ) ) ;
#279 = CARTESIAN_POINT ( 'NONE',  ( -695.4168259712067800, 0.0000000000000000000, 0.0000000000000000000 ) ) ;
#280 = AXIS2_PLACEMENT_3D ( 'NONE', #163, #16, #341 ) ;
#281 = DIRECTION ( 'NONE',  ( 0.0000000000000000000, 0.0000000000000000000, 1.000000000000000000 ) ) ;
#282 = VECTOR ( 'NONE', #269, 1000.000000000000000 ) ;
#283 = CARTESIAN_POINT ( 'NONE',  ( 162.0059104106503300, 0.0000000000000000000, 6.349999999999939200 ) ) ;
#284 = CARTESIAN_POINT ( 'NONE',  ( 162.0059104106503300, 7.776507174585684300E-016, -6.350000000000046700 ) ) ;
#285 = FILL_AREA_STYLE_COLOUR ( '', #257 ) ;
#286 = DIRECTION ( 'NONE',  ( 0.0000000000000000000, 0.0000000000000000000, 1.000000000000000000 ) ) ;
#287 = ORIENTED_EDGE ( 'NONE', *, *, #108, .T. ) ;
#288 = ORIENTED_EDGE ( 'NONE', *, *, #245, .T. ) ;
#289 = CARTESIAN_POINT ( 'NONE',  ( 145.6831740287930500, 0.0000000000000000000, -6.053013926203919800E-014 ) ) ;
#290 = AXIS2_PLACEMENT_3D ( 'NONE', #146, #42, #149 ) ;
#291 = ADVANCED_BREP_SHAPE_REPRESENTATION ( '145206', ( #271, #183, #318 ), #327 ) ;
#292 = CARTESIAN_POINT ( 'NONE',  ( -695.4168259712067800, 0.0000000000000000000, 0.0000000000000000000 ) ) ;
#293 = ORIENTED_EDGE ( 'NONE', *, *, #347, .F. ) ;
#294 = PRESENTATION_STYLE_ASSIGNMENT (( #231 ) ) ;
#295 = DIRECTION ( 'NONE',  ( 1.000000000000000000, 0.0000000000000000000, 0.0000000000000000000 ) ) ;
#296 = ORIENTED_EDGE ( 'NONE', *, *, #109, .F. ) ;
#297 = AXIS2_PLACEMENT_3D ( 'NONE', #188, #162, #310 ) ;
#298 = VERTEX_POINT ( 'NONE', #124 ) ;
#299 = SURFACE_STYLE_FILL_AREA ( #203 ) ;
#300 = ORIENTED_EDGE ( 'NONE', *, *, #109, .T. ) ;
#301 = CARTESIAN_POINT ( 'NONE',  ( 157.7097071950883000, 0.0000000000000000000, 6.349999999999937500 ) ) ;
#302 = ORIENTED_EDGE ( 'NONE', *, *, #25, .F. ) ;
#303 = STYLED_ITEM ( 'NONE', ( #192 ), #183 ) ;
#304 = DIRECTION ( 'NONE',  ( 0.0000000000000000000, 0.0000000000000000000, 1.000000000000000000 ) ) ;
#305 = ORIENTED_EDGE ( 'NONE', *, *, #307, .T. ) ;
#306 = SPHERICAL_SURFACE ( 'NONE', #325, 17.09999999999997700 ) ;
#307 = EDGE_CURVE ( 'NONE', #19, #336, #122, .T. ) ;
#308 = DIRECTION ( 'NONE',  ( 0.0000000000000000000, 0.0000000000000000000, -1.000000000000000000 ) ) ;
#309 = EDGE_LOOP ( 'NONE', ( #140, #187, #223 ) ) ;
#310 = DIRECTION ( 'NONE',  ( 0.0000000000000000000, 0.0000000000000000000, 1.000000000000000000 ) ) ;
#311 = EDGE_CURVE ( 'NONE', #198, #78, #153, .T. ) ;
#312 = PRODUCT_DEFINITION ( 'Î´Öª', '', #194, #222 ) ;
#313 = PRESENTATION_LAYER_ASSIGNMENT (  '', '', ( #303 ) ) ;
#314 = CARTESIAN_POINT ( 'NONE',  ( 145.6831740287930500, 0.0000000000000000000, -6.053013926203919800E-014 ) ) ;
#315 = SPHERICAL_SURFACE ( 'NONE', #297, 859.0000000000000000 ) ;
#316 = CARTESIAN_POINT ( 'NONE',  ( 177.8831740287930600, 0.0000000000000000000, -6.053013926203932400E-014 ) ) ;
#317 = ADVANCED_FACE ( 'NONE', ( #221 ), #270, .F. ) ;
#318 = AXIS2_PLACEMENT_3D ( 'NONE', #132, #1, #295 ) ;
#319 = DIRECTION ( 'NONE',  ( -1.000000000000000000, -0.0000000000000000000, 2.146984579388475100E-016 ) ) ;
#320 = UNCERTAINTY_MEASURE_WITH_UNIT (LENGTH_MEASURE( 1.000000000000000100E-005 ), #2, 'distance_accuracy_value', 'NONE');
#321 = ORIENTED_EDGE ( 'NONE', *, *, #275, .F. ) ;
#322 = CIRCLE ( 'NONE', #190, 17.09999999999999400 ) ;
#323 = AXIS2_PLACEMENT_3D ( 'NONE', #279, #235, #97 ) ;
#324 = CIRCLE ( 'NONE', #11, 17.09999999999997700 ) ;
#325 = AXIS2_PLACEMENT_3D ( 'NONE', #215, #69, #286 ) ;
#326 = ORIENTED_EDGE ( 'NONE', *, *, #85, .F. ) ;
#327 =( GEOMETRIC_REPRESENTATION_CONTEXT ( 3 ) GLOBAL_UNCERTAINTY_ASSIGNED_CONTEXT ( ( #320 ) ) GLOBAL_UNIT_ASSIGNED_CONTEXT ( ( #2, #272, #106 ) ) REPRESENTATION_CONTEXT ( 'NONE', 'WORKASPACE' ) );
#328 = ORIENTED_EDGE ( 'NONE', *, *, #246, .F. ) ;
#329 = DIRECTION ( 'NONE',  ( 0.0000000000000000000, -1.224646799147353000E-016, 1.000000000000000000 ) ) ;
#330 = EDGE_CURVE ( 'NONE', #233, #98, #88, .T. ) ;
#331 = CARTESIAN_POINT ( 'NONE',  ( 177.8831740287930600, 0.0000000000000000000, -6.053013926203932400E-014 ) ) ;
#332 = CARTESIAN_POINT ( 'NONE',  ( -185.2744740506581700, 0.0000000000000000000, 2.052032605930108700E-014 ) ) ;
#333 =( NAMED_UNIT ( * ) PLANE_ANGLE_UNIT ( ) SI_UNIT ( $, .RADIAN. ) );
#334 = DIRECTION ( 'NONE',  ( 0.0000000000000000000, 0.0000000000000000000, 1.000000000000000000 ) ) ;
#335 = AXIS2_PLACEMENT_3D ( 'NONE', #211, #182, #181 ) ;
#336 = VERTEX_POINT ( 'NONE', #301 ) ;
#337 =( NAMED_UNIT ( * ) SI_UNIT ( $, .STERADIAN. ) SOLID_ANGLE_UNIT ( ) );
#338 = FACE_OUTER_BOUND ( 'NONE', #214, .T. ) ;
#339 = DIRECTION ( 'NONE',  ( -1.000000000000000000, -0.0000000000000000000, 2.146984579388475100E-016 ) ) ;
#340 = DIRECTION ( 'NONE',  ( 0.0000000000000000000, -1.000000000000000000, 0.0000000000000000000 ) ) ;
#341 = DIRECTION ( 'NONE',  ( 0.0000000000000000000, 0.0000000000000000000, 1.000000000000000000 ) ) ;
#342 = ORIENTED_EDGE ( 'NONE', *, *, #245, .F. ) ;
#343 = MECHANICAL_DESIGN_GEOMETRIC_PRESENTATION_REPRESENTATION (  '', ( #237 ), #345 ) ;
#344 = FACE_OUTER_BOUND ( 'NONE', #137, .T. ) ;
#345 =( GEOMETRIC_REPRESENTATION_CONTEXT ( 3 ) GLOBAL_UNCERTAINTY_ASSIGNED_CONTEXT ( ( #95 ) ) GLOBAL_UNIT_ASSIGNED_CONTEXT ( ( #70, #250, #248 ) ) REPRESENTATION_CONTEXT ( 'NONE', 'WORKASPACE' ) );
#346 = ORIENTED_EDGE ( 'NONE', *, *, #58, .F. ) ;
#347 = EDGE_CURVE ( 'NONE', #78, #147, #14, .T. ) ;
ENDSEC;
END-ISO-10303-21;
