ISO-10303-21;
HEADER;
FILE_DESCRIPTION (( 'STEP AP214' ),
    '1' );
FILE_NAME ('145212.STEP',
    '2019-06-14T01:51:54',
    ( 'user' ),
    ( 'Î¢ÈíÖÐ¹ú' ),
    'SwSTEP 2.0',
    'SolidWorks 2016',
    '' );
FILE_SCHEMA (( 'AUTOMOTIVE_DESIGN' ));
ENDSEC;

DATA;
#1 = AXIS2_PLACEMENT_3D ( 'NONE', #215, #36, #205 ) ;
#2 = CARTESIAN_POINT ( 'NONE',  ( 148.0498862606474100, 0.0000000000000000000, 12.69999999999993700 ) ) ;
#3 = ORIENTED_EDGE ( 'NONE', *, *, #138, .T. ) ;
#4 = AXIS2_PLACEMENT_3D ( 'NONE', #42, #286, #149 ) ;
#5 = EDGE_LOOP ( 'NONE', ( #94, #107, #3 ) ) ;
#6 = CARTESIAN_POINT ( 'NONE',  ( -432.6112455537697200, 0.0000000000000000000, 0.0000000000000000000 ) ) ;
#7 = EDGE_LOOP ( 'NONE', ( #337, #40, #268 ) ) ;
#8 = FACE_OUTER_BOUND ( 'NONE', #28, .T. ) ;
#9 =( GEOMETRIC_REPRESENTATION_CONTEXT ( 3 ) GLOBAL_UNCERTAINTY_ASSIGNED_CONTEXT ( ( #243 ) ) GLOBAL_UNIT_ASSIGNED_CONTEXT ( ( #112, #192, #173 ) ) REPRESENTATION_CONTEXT ( 'NONE', 'WORKASPACE' ) );
#10 = CARTESIAN_POINT ( 'NONE',  ( 142.7887544462303400, 0.0000000000000000000, -6.829933322178400000E-014 ) ) ;
#11 = DIRECTION ( 'NONE',  ( 0.0000000000000000000, 0.0000000000000000000, -1.000000000000000000 ) ) ;
#12 = ADVANCED_FACE ( 'NONE', ( #184 ), #126, .T. ) ;
#13 = EDGE_LOOP ( 'NONE', ( #153, #315, #344, #128 ) ) ;
#14 = ADVANCED_FACE ( 'NONE', ( #250 ), #228, .T. ) ;
#15 =( GEOMETRIC_REPRESENTATION_CONTEXT ( 3 ) GLOBAL_UNCERTAINTY_ASSIGNED_CONTEXT ( ( #299 ) ) GLOBAL_UNIT_ASSIGNED_CONTEXT ( ( #341, #197, #293 ) ) REPRESENTATION_CONTEXT ( 'NONE', 'WORKASPACE' ) );
#16 = DIRECTION ( 'NONE',  ( 0.0000000000000000000, 1.000000000000000000, 0.0000000000000000000 ) ) ;
#17 = ORIENTED_EDGE ( 'NONE', *, *, #248, .F. ) ;
#18 = PRESENTATION_STYLE_ASSIGNMENT (( #61 ) ) ;
#19 = MANIFOLD_SOLID_BREP ( 'Ðý×ª3', #186 ) ;
#20 = DIRECTION ( 'NONE',  ( 0.0000000000000000000, 0.0000000000000000000, 1.000000000000000000 ) ) ;
#21 = ADVANCED_FACE ( 'NONE', ( #291 ), #302, .F. ) ;
#22 = ORIENTED_EDGE ( 'NONE', *, *, #294, .F. ) ;
#23 = DIRECTION ( 'NONE',  ( 0.0000000000000000000, 0.0000000000000000000, 1.000000000000000000 ) ) ;
#24 = CIRCLE ( 'NONE', #283, 59.00000000000000700 ) ;
#25 = CARTESIAN_POINT ( 'NONE',  ( 203.7887544462303100, 0.0000000000000000000, -6.053013934020630200E-014 ) ) ;
#26 = DIRECTION ( 'NONE',  ( -1.000000000000000000, -0.0000000000000000000, 2.204371345118822200E-016 ) ) ;
#27 = ORIENTED_EDGE ( 'NONE', *, *, #154, .F. ) ;
#28 = EDGE_LOOP ( 'NONE', ( #167, #76, #178, #189 ) ) ;
#29 = FACE_OUTER_BOUND ( 'NONE', #5, .T. ) ;
#30 = AXIS2_PLACEMENT_3D ( 'NONE', #75, #145, #23 ) ;
#31 = DIRECTION ( 'NONE',  ( 0.0000000000000000000, 1.000000000000000000, 0.0000000000000000000 ) ) ;
#32 = SPHERICAL_SURFACE ( 'NONE', #121, 580.7999999999998400 ) ;
#33 = DIRECTION ( 'NONE',  ( -1.000000000000000000, -0.0000000000000000000, 2.204371345118822200E-016 ) ) ;
#34 = PRODUCT ( '145212', '145212', '', ( #249 ) ) ;
#35 = FILL_AREA_STYLE_COLOUR ( '', #63 ) ;
#36 = DIRECTION ( 'NONE',  ( 0.0000000000000000000, 1.000000000000000000, 0.0000000000000000000 ) ) ;
#37 = VERTEX_POINT ( 'NONE', #82 ) ;
#38 = ADVANCED_FACE ( 'NONE', ( #211 ), #132, .F. ) ;
#39 = CARTESIAN_POINT ( 'NONE',  ( 146.1718298493725000, 1.555301434917137400E-015, -12.70000000000004400 ) ) ;
#40 = ORIENTED_EDGE ( 'NONE', *, *, #62, .T. ) ;
#41 = DIRECTION ( 'NONE',  ( 0.0000000000000000000, 0.0000000000000000000, 1.000000000000000000 ) ) ;
#42 = CARTESIAN_POINT ( 'NONE',  ( 0.0000000000000000000, 0.0000000000000000000, 0.0000000000000000000 ) ) ;
#43 = SPHERICAL_SURFACE ( 'NONE', #91, 59.00000000000000700 ) ;
#44 = CARTESIAN_POINT ( 'NONE',  ( 141.1072221632518300, 0.0000000000000000000, 12.69999999999993700 ) ) ;
#45 = DIRECTION ( 'NONE',  ( 2.843808977011158800E-016, 0.0000000000000000000, 1.000000000000000000 ) ) ;
#46 = AXIS2_PLACEMENT_3D ( 'NONE', #181, #229, #210 ) ;
#47 = VERTEX_POINT ( 'NONE', #39 ) ;
#48 = DIRECTION ( 'NONE',  ( 0.0000000000000000000, 0.0000000000000000000, 1.000000000000000000 ) ) ;
#49 = CARTESIAN_POINT ( 'NONE',  ( -432.6112455537697200, 0.0000000000000000000, 0.0000000000000000000 ) ) ;
#50 = CARTESIAN_POINT ( 'NONE',  ( 93.98875444623033100, 0.0000000000000000000, -6.053013924752369000E-014 ) ) ;
#51 = ORIENTED_EDGE ( 'NONE', *, *, #326, .T. ) ;
#52 = DIRECTION ( 'NONE',  ( -1.000000000000000000, -0.0000000000000000000, -0.0000000000000000000 ) ) ;
#53 = CARTESIAN_POINT ( 'NONE',  ( -432.6112455537697200, 0.0000000000000000000, 0.0000000000000000000 ) ) ;
#54 = VERTEX_POINT ( 'NONE', #10 ) ;
#55 = UNCERTAINTY_MEASURE_WITH_UNIT (LENGTH_MEASURE( 1.000000000000000100E-005 ), #221, 'distance_accuracy_value', 'NONE');
#56 = DIRECTION ( 'NONE',  ( -0.0000000000000000000, 1.000000000000000000, 0.0000000000000000000 ) ) ;
#57 = DIRECTION ( 'NONE',  ( -2.699576311931910800E-032, -1.000000000000000000, -1.224646799147353200E-016 ) ) ;
#58 = VERTEX_POINT ( 'NONE', #168 ) ;
#59 = LINE ( 'NONE', #274, #160 ) ;
#60 = DIRECTION ( 'NONE',  ( 0.0000000000000000000, -1.224646799147353000E-016, 1.000000000000000000 ) ) ;
#61 = SURFACE_STYLE_USAGE ( .BOTH. , #72 ) ;
#62 = EDGE_CURVE ( 'NONE', #139, #136, #125, .T. ) ;
#63 = COLOUR_RGB ( '',1.000000000000000000, 1.000000000000000000, 1.000000000000000000 ) ;
#64 = FILL_AREA_STYLE ('',( #35 ) ) ;
#65 = CIRCLE ( 'NONE', #343, 12.69999999999999000 ) ;
#66 = CARTESIAN_POINT ( 'NONE',  ( 148.1887544462301500, 0.0000000000000000000, 3.556374304723912700E-014 ) ) ;
#67 = ADVANCED_FACE ( 'NONE', ( #271 ), #282, .F. ) ;
#68 = DIRECTION ( 'NONE',  ( -0.0000000000000000000, -1.000000000000000000, -0.0000000000000000000 ) ) ;
#69 = CARTESIAN_POINT ( 'NONE',  ( 203.7887544462303100, 0.0000000000000000000, -6.053013934020630200E-014 ) ) ;
#70 = ORIENTED_EDGE ( 'NONE', *, *, #305, .F. ) ;
#71 = EDGE_LOOP ( 'NONE', ( #322, #179, #234 ) ) ;
#72 = SURFACE_SIDE_STYLE ('',( #256 ) ) ;
#73 = CARTESIAN_POINT ( 'NONE',  ( 141.1072221632518300, 0.0000000000000000000, 12.69999999999999400 ) ) ;
#74 = PRESENTATION_LAYER_ASSIGNMENT (  '', '', ( #239 ) ) ;
#75 = CARTESIAN_POINT ( 'NONE',  ( -185.2744740506581700, 0.0000000000000000000, 2.052032605930108700E-014 ) ) ;
#76 = ORIENTED_EDGE ( 'NONE', *, *, #90, .T. ) ;
#77 = DIRECTION ( 'NONE',  ( 0.0000000000000000000, 0.0000000000000000000, 1.000000000000000000 ) ) ;
#78 = DIRECTION ( 'NONE',  ( 0.0000000000000000000, 0.0000000000000000000, -1.000000000000000000 ) ) ;
#79 = CARTESIAN_POINT ( 'NONE',  ( 146.1718298493725000, 0.0000000000000000000, 0.0000000000000000000 ) ) ;
#80 = CIRCLE ( 'NONE', #111, 12.69999999999993700 ) ;
#81 = DIRECTION ( 'NONE',  ( -1.000000000000000000, -0.0000000000000000000, -0.0000000000000000000 ) ) ;
#82 = CARTESIAN_POINT ( 'NONE',  ( 141.1072221632518300, 1.555301434917144300E-015, -12.70000000000011800 ) ) ;
#83 = CLOSED_SHELL ( 'NONE', ( #38, #14, #21, #67, #284, #142 ) ) ;
#84 = CIRCLE ( 'NONE', #204, 12.69999999999993700 ) ;
#85 = MECHANICAL_DESIGN_GEOMETRIC_PRESENTATION_REPRESENTATION (  '', ( #328 ), #9 ) ;
#86 = PRODUCT_DEFINITION_CONTEXT ( 'detailed design', #266, 'design' ) ;
#87 = CARTESIAN_POINT ( 'NONE',  ( 148.0498862606474100, 1.555301434917130700E-015, -12.69999999999993700 ) ) ;
#88 = ORIENTED_EDGE ( 'NONE', *, *, #110, .F. ) ;
#89 = CYLINDRICAL_SURFACE ( 'NONE', #295, 12.69999999999999000 ) ;
#90 = EDGE_CURVE ( 'NONE', #202, #109, #140, .T. ) ;
#91 = AXIS2_PLACEMENT_3D ( 'NONE', #279, #146, #105 ) ;
#92 = PRESENTATION_STYLE_ASSIGNMENT (( #147 ) ) ;
#93 = DIRECTION ( 'NONE',  ( 2.699576311931910800E-032, 1.000000000000000000, 1.224646799147353200E-016 ) ) ;
#94 = ORIENTED_EDGE ( 'NONE', *, *, #113, .F. ) ;
#95 = CIRCLE ( 'NONE', #185, 12.69999999999999000 ) ;
#96 =( GEOMETRIC_REPRESENTATION_CONTEXT ( 3 ) GLOBAL_UNCERTAINTY_ASSIGNED_CONTEXT ( ( #340 ) ) GLOBAL_UNIT_ASSIGNED_CONTEXT ( ( #232, #246, #141 ) ) REPRESENTATION_CONTEXT ( 'NONE', 'WORKASPACE' ) );
#97 = FILL_AREA_STYLE ('',( #261 ) ) ;
#98 = DIRECTION ( 'NONE',  ( -1.000000000000000000, -0.0000000000000000000, 2.204371345118822200E-016 ) ) ;
#99 = FILL_AREA_STYLE ('',( #254 ) ) ;
#100 = AXIS2_PLACEMENT_3D ( 'NONE', #50, #188, #150 ) ;
#101 = DIRECTION ( 'NONE',  ( 0.0000000000000000000, -1.224646799147353200E-016, 1.000000000000000000 ) ) ;
#102 = ORIENTED_EDGE ( 'NONE', *, *, #285, .F. ) ;
#103 = DIRECTION ( 'NONE',  ( -0.0000000000000000000, 1.000000000000000000, 1.224646799147353200E-016 ) ) ;
#104 = FACE_OUTER_BOUND ( 'NONE', #329, .T. ) ;
#105 = DIRECTION ( 'NONE',  ( 0.0000000000000000000, 0.0000000000000000000, -1.000000000000000000 ) ) ;
#106 = EDGE_LOOP ( 'NONE', ( #346, #308, #70, #102 ) ) ;
#107 = ORIENTED_EDGE ( 'NONE', *, *, #244, .T. ) ;
#108 = PRESENTATION_LAYER_ASSIGNMENT (  '', '', ( #328 ) ) ;
#109 = VERTEX_POINT ( 'NONE', #131 ) ;
#110 = EDGE_CURVE ( 'NONE', #136, #202, #323, .T. ) ;
#111 = AXIS2_PLACEMENT_3D ( 'NONE', #263, #301, #325 ) ;
#112 =( LENGTH_UNIT ( ) NAMED_UNIT ( * ) SI_UNIT ( .MILLI., .METRE. ) );
#113 = EDGE_CURVE ( 'NONE', #109, #58, #264, .T. ) ;
#114 = AXIS2_PLACEMENT_3D ( 'NONE', #255, #247, #20 ) ;
#115 = DIRECTION ( 'NONE',  ( 0.0000000000000000000, 0.0000000000000000000, -1.000000000000000000 ) ) ;
#116 = MANIFOLD_SOLID_BREP ( 'Ðý×ª1', #83 ) ;
#117 = SURFACE_STYLE_FILL_AREA ( #64 ) ;
#118 = DIRECTION ( 'NONE',  ( -1.000000000000000000, -0.0000000000000000000, 2.204371345118822200E-016 ) ) ;
#119 = ORIENTED_EDGE ( 'NONE', *, *, #208, .T. ) ;
#120 = VERTEX_POINT ( 'NONE', #259 ) ;
#121 = AXIS2_PLACEMENT_3D ( 'NONE', #6, #31, #307 ) ;
#122 = DIRECTION ( 'NONE',  ( 0.0000000000000000000, 0.0000000000000000000, 1.000000000000000000 ) ) ;
#123 = CARTESIAN_POINT ( 'NONE',  ( -185.2744740506581700, 0.0000000000000000000, 2.052032605930108700E-014 ) ) ;
#124 = DIRECTION ( 'NONE',  ( 0.0000000000000000000, -1.000000000000000000, 0.0000000000000000000 ) ) ;
#125 = CIRCLE ( 'NONE', #288, 580.7999999999998400 ) ;
#126 = SPHERICAL_SURFACE ( 'NONE', #193, 59.00000000000001400 ) ;
#127 = CARTESIAN_POINT ( 'NONE',  ( 146.1718298493725000, 0.0000000000000000000, 12.69999999999995800 ) ) ;
#128 = ORIENTED_EDGE ( 'NONE', *, *, #244, .F. ) ;
#129 = PRODUCT_DEFINITION ( 'Î´Öª', '', #182, #86 ) ;
#130 = CARTESIAN_POINT ( 'NONE',  ( 146.1718298493725000, 0.0000000000000000000, 12.69999999999993900 ) ) ;
#131 = CARTESIAN_POINT ( 'NONE',  ( 146.1718298493725000, 1.555301434917133500E-015, -12.70000000000001700 ) ) ;
#132 = SPHERICAL_SURFACE ( 'NONE', #265, 59.00000000000000700 ) ;
#133 = VECTOR ( 'NONE', #318, 1000.000000000000000 ) ;
#134 = AXIS2_PLACEMENT_3D ( 'NONE', #135, #81, #183 ) ;
#135 = CARTESIAN_POINT ( 'NONE',  ( 146.1718298493725000, 0.0000000000000000000, 0.0000000000000000000 ) ) ;
#136 = VERTEX_POINT ( 'NONE', #2 ) ;
#137 = CARTESIAN_POINT ( 'NONE',  ( 146.1718298493725000, 0.0000000000000000000, -5.254274741697616100E-014 ) ) ;
#138 = EDGE_CURVE ( 'NONE', #338, #58, #251, .T. ) ;
#139 = VERTEX_POINT ( 'NONE', #66 ) ;
#140 = LINE ( 'NONE', #214, #177 ) ;
#141 =( NAMED_UNIT ( * ) SI_UNIT ( $, .STERADIAN. ) SOLID_ANGLE_UNIT ( ) );
#142 = ADVANCED_FACE ( 'NONE', ( #314 ), #43, .F. ) ;
#143 = ADVANCED_FACE ( 'NONE', ( #309 ), #32, .T. ) ;
#144 = DIRECTION ( 'NONE',  ( 0.0000000000000000000, 0.0000000000000000000, 1.000000000000000000 ) ) ;
#145 = DIRECTION ( 'NONE',  ( -1.000000000000000000, -0.0000000000000000000, 2.204371345118822200E-016 ) ) ;
#146 = DIRECTION ( 'NONE',  ( -0.0000000000000000000, -1.000000000000000000, -0.0000000000000000000 ) ) ;
#147 = SURFACE_STYLE_USAGE ( .BOTH. , #317 ) ;
#148 = SPHERICAL_SURFACE ( 'NONE', #156, 580.7999999999998400 ) ;
#149 = DIRECTION ( 'NONE',  ( 1.000000000000000000, 0.0000000000000000000, 0.0000000000000000000 ) ) ;
#150 = DIRECTION ( 'NONE',  ( 0.0000000000000000000, 0.0000000000000000000, -1.000000000000000000 ) ) ;
#151 = EDGE_CURVE ( 'NONE', #136, #338, #277, .T. ) ;
#152 = DIRECTION ( 'NONE',  ( 0.0000000000000000000, -1.000000000000000000, 0.0000000000000000000 ) ) ;
#153 = ORIENTED_EDGE ( 'NONE', *, *, #90, .F. ) ;
#154 = EDGE_CURVE ( 'NONE', #54, #37, #222, .T. ) ;
#155 = ADVANCED_FACE ( 'NONE', ( #104 ), #148, .T. ) ;
#156 = AXIS2_PLACEMENT_3D ( 'NONE', #198, #321, #310 ) ;
#157 = EDGE_LOOP ( 'NONE', ( #289, #345, #207 ) ) ;
#158 = SHAPE_DEFINITION_REPRESENTATION ( #270, #176 ) ;
#159 = DIRECTION ( 'NONE',  ( -0.0000000000000000000, 1.000000000000000000, 1.224646799147353200E-016 ) ) ;
#160 = VECTOR ( 'NONE', #118, 1000.000000000000000 ) ;
#161 = DIRECTION ( 'NONE',  ( -1.000000000000000000, -0.0000000000000000000, -0.0000000000000000000 ) ) ;
#162 = ORIENTED_EDGE ( 'NONE', *, *, #242, .T. ) ;
#163 = CIRCLE ( 'NONE', #100, 48.80000000000001100 ) ;
#164 = AXIS2_PLACEMENT_3D ( 'NONE', #69, #159, #60 ) ;
#165 = CARTESIAN_POINT ( 'NONE',  ( 93.98875444623033100, 0.0000000000000000000, -6.053013924752369000E-014 ) ) ;
#166 = ADVANCED_FACE ( 'NONE', ( #203 ), #303, .T. ) ;
#167 = ORIENTED_EDGE ( 'NONE', *, *, #110, .T. ) ;
#168 = CARTESIAN_POINT ( 'NONE',  ( 144.7887544462302900, 0.0000000000000000000, -5.691743128272160200E-014 ) ) ;
#169 = DIRECTION ( 'NONE',  ( 0.0000000000000000000, 1.224646799147353200E-016, -1.000000000000000000 ) ) ;
#170 =( NAMED_UNIT ( * ) PLANE_ANGLE_UNIT ( ) SI_UNIT ( $, .RADIAN. ) );
#171 = CARTESIAN_POINT ( 'NONE',  ( 148.0498862606474100, 0.0000000000000000000, 0.0000000000000000000 ) ) ;
#172 = AXIS2_PLACEMENT_3D ( 'NONE', #165, #93, #101 ) ;
#173 =( NAMED_UNIT ( * ) SI_UNIT ( $, .STERADIAN. ) SOLID_ANGLE_UNIT ( ) );
#174 = CARTESIAN_POINT ( 'NONE',  ( 203.7887544462303100, 0.0000000000000000000, -6.053013934020630200E-014 ) ) ;
#175 = SURFACE_SIDE_STYLE ('',( #117 ) ) ;
#176 = ADVANCED_BREP_SHAPE_REPRESENTATION ( '145212', ( #116, #19, #4 ), #218 ) ;
#177 = VECTOR ( 'NONE', #269, 1000.000000000000000 ) ;
#178 = ORIENTED_EDGE ( 'NONE', *, *, #237, .F. ) ;
#179 = ORIENTED_EDGE ( 'NONE', *, *, #154, .T. ) ;
#180 = DIRECTION ( 'NONE',  ( 0.0000000000000000000, 0.0000000000000000000, 1.000000000000000000 ) ) ;
#181 = CARTESIAN_POINT ( 'NONE',  ( 93.98875444623033100, 0.0000000000000000000, -6.053013924752369000E-014 ) ) ;
#182 = PRODUCT_DEFINITION_FORMATION_WITH_SPECIFIED_SOURCE ( 'ÈÎºÎ', '', #34, .NOT_KNOWN. ) ;
#183 = DIRECTION ( 'NONE',  ( 0.0000000000000000000, 0.0000000000000000000, 1.000000000000000000 ) ) ;
#184 = FACE_OUTER_BOUND ( 'NONE', #194, .T. ) ;
#185 = AXIS2_PLACEMENT_3D ( 'NONE', #137, #98, #206 ) ;
#186 = CLOSED_SHELL ( 'NONE', ( #155, #258, #12, #253, #166, #143 ) ) ;
#187 = COLOUR_RGB ( '',1.000000000000000000, 1.000000000000000000, 1.000000000000000000 ) ;
#188 = DIRECTION ( 'NONE',  ( 0.0000000000000000000, -1.000000000000000000, 0.0000000000000000000 ) ) ;
#189 = ORIENTED_EDGE ( 'NONE', *, *, #151, .F. ) ;
#190 = EDGE_CURVE ( 'NONE', #202, #136, #80, .T. ) ;
#191 = ORIENTED_EDGE ( 'NONE', *, *, #237, .T. ) ;
#192 =( NAMED_UNIT ( * ) PLANE_ANGLE_UNIT ( ) SI_UNIT ( $, .RADIAN. ) );
#193 = AXIS2_PLACEMENT_3D ( 'NONE', #25, #16, #48 ) ;
#194 = EDGE_LOOP ( 'NONE', ( #191, #199, #296 ) ) ;
#195 = CIRCLE ( 'NONE', #200, 12.69999999999998900 ) ;
#196 = EDGE_LOOP ( 'NONE', ( #324, #162, #342, #319 ) ) ;
#197 =( NAMED_UNIT ( * ) PLANE_ANGLE_UNIT ( ) SI_UNIT ( $, .RADIAN. ) );
#198 = CARTESIAN_POINT ( 'NONE',  ( -432.6112455537697200, 0.0000000000000000000, 0.0000000000000000000 ) ) ;
#199 = ORIENTED_EDGE ( 'NONE', *, *, #113, .T. ) ;
#200 = AXIS2_PLACEMENT_3D ( 'NONE', #287, #201, #238 ) ;
#201 = DIRECTION ( 'NONE',  ( -1.000000000000000000, -0.0000000000000000000, 2.204371345118822200E-016 ) ) ;
#202 = VERTEX_POINT ( 'NONE', #87 ) ;
#203 = FACE_OUTER_BOUND ( 'NONE', #13, .T. ) ;
#204 = AXIS2_PLACEMENT_3D ( 'NONE', #79, #52, #180 ) ;
#205 = DIRECTION ( 'NONE',  ( 0.0000000000000000000, 0.0000000000000000000, 1.000000000000000000 ) ) ;
#206 = DIRECTION ( 'NONE',  ( 0.0000000000000000000, 0.0000000000000000000, 1.000000000000000000 ) ) ;
#207 = ORIENTED_EDGE ( 'NONE', *, *, #294, .T. ) ;
#208 = EDGE_CURVE ( 'NONE', #54, #245, #163, .T. ) ;
#209 = AXIS2_PLACEMENT_3D ( 'NONE', #219, #124, #115 ) ;
#210 = DIRECTION ( 'NONE',  ( 2.843808977011158800E-016, 0.0000000000000000000, 1.000000000000000000 ) ) ;
#211 = FACE_OUTER_BOUND ( 'NONE', #257, .T. ) ;
#212 = CIRCLE ( 'NONE', #333, 59.00000000000000700 ) ;
#213 = DIRECTION ( 'NONE',  ( -1.000000000000000000, -0.0000000000000000000, 2.204371345118822200E-016 ) ) ;
#214 = CARTESIAN_POINT ( 'NONE',  ( 141.1072221632518300, 1.555301434917130700E-015, -12.69999999999993700 ) ) ;
#215 = CARTESIAN_POINT ( 'NONE',  ( 203.7887544462303100, 0.0000000000000000000, -6.053013934020630200E-014 ) ) ;
#216 = ORIENTED_EDGE ( 'NONE', *, *, #305, .T. ) ;
#217 = EDGE_LOOP ( 'NONE', ( #27, #119, #216 ) ) ;
#218 =( GEOMETRIC_REPRESENTATION_CONTEXT ( 3 ) GLOBAL_UNCERTAINTY_ASSIGNED_CONTEXT ( ( #55 ) ) GLOBAL_UNIT_ASSIGNED_CONTEXT ( ( #221, #170, #332 ) ) REPRESENTATION_CONTEXT ( 'NONE', 'WORKASPACE' ) );
#219 = CARTESIAN_POINT ( 'NONE',  ( 203.7887544462303100, 0.0000000000000000000, -6.053013934020630200E-014 ) ) ;
#220 = SURFACE_STYLE_FILL_AREA ( #97 ) ;
#221 =( LENGTH_UNIT ( ) NAMED_UNIT ( * ) SI_UNIT ( .MILLI., .METRE. ) );
#222 = CIRCLE ( 'NONE', #172, 48.80000000000001100 ) ;
#223 = CARTESIAN_POINT ( 'NONE',  ( 93.98875444623033100, 0.0000000000000000000, -6.053013924752369000E-014 ) ) ;
#224 = AXIS2_PLACEMENT_3D ( 'NONE', #171, #281, #331 ) ;
#225 = COLOUR_RGB ( '',1.000000000000000000, 1.000000000000000000, 1.000000000000000000 ) ;
#226 = VECTOR ( 'NONE', #213, 1000.000000000000000 ) ;
#227 = CARTESIAN_POINT ( 'NONE',  ( 146.1718298493725000, 0.0000000000000000000, -5.254274741697616100E-014 ) ) ;
#228 = CYLINDRICAL_SURFACE ( 'NONE', #30, 12.69999999999999000 ) ;
#229 = DIRECTION ( 'NONE',  ( -0.0000000000000000000, 1.000000000000000000, 0.0000000000000000000 ) ) ;
#230 = CYLINDRICAL_SURFACE ( 'NONE', #313, 12.69999999999993700 ) ;
#231 = MECHANICAL_DESIGN_GEOMETRIC_PRESENTATION_REPRESENTATION (  '', ( #298 ), #15 ) ;
#232 =( LENGTH_UNIT ( ) NAMED_UNIT ( * ) SI_UNIT ( .MILLI., .METRE. ) );
#233 = DIRECTION ( 'NONE',  ( -1.000000000000000000, -0.0000000000000000000, 2.204371345118822200E-016 ) ) ;
#234 = ORIENTED_EDGE ( 'NONE', *, *, #311, .T. ) ;
#235 = CIRCLE ( 'NONE', #134, 12.69999999999993700 ) ;
#236 = CARTESIAN_POINT ( 'NONE',  ( -185.2744740506581700, 0.0000000000000000000, 12.70000000000001200 ) ) ;
#237 = EDGE_CURVE ( 'NONE', #338, #109, #235, .T. ) ;
#238 = DIRECTION ( 'NONE',  ( 0.0000000000000000000, 0.0000000000000000000, 1.000000000000000000 ) ) ;
#239 = STYLED_ITEM ( 'NONE', ( #18 ), #176 ) ;
#240 = APPLICATION_PROTOCOL_DEFINITION ( 'draft international standard', 'automotive_design', 1998, #266 ) ;
#241 = DIRECTION ( 'NONE',  ( 0.0000000000000000000, 0.0000000000000000000, 1.000000000000000000 ) ) ;
#242 = EDGE_CURVE ( 'NONE', #47, #334, #65, .T. ) ;
#243 = UNCERTAINTY_MEASURE_WITH_UNIT (LENGTH_MEASURE( 1.000000000000000100E-005 ), #112, 'distance_accuracy_value', 'NONE');
#244 = EDGE_CURVE ( 'NONE', #109, #338, #84, .T. ) ;
#245 = VERTEX_POINT ( 'NONE', #73 ) ;
#246 =( NAMED_UNIT ( * ) PLANE_ANGLE_UNIT ( ) SI_UNIT ( $, .RADIAN. ) );
#247 = DIRECTION ( 'NONE',  ( -1.000000000000000000, -0.0000000000000000000, -0.0000000000000000000 ) ) ;
#248 = EDGE_CURVE ( 'NONE', #334, #47, #95, .T. ) ;
#249 = PRODUCT_CONTEXT ( 'NONE', #335, 'mechanical' ) ;
#250 = FACE_OUTER_BOUND ( 'NONE', #106, .T. ) ;
#251 = CIRCLE ( 'NONE', #209, 59.00000000000001400 ) ;
#252 = MECHANICAL_DESIGN_GEOMETRIC_PRESENTATION_REPRESENTATION (  '', ( #239 ), #96 ) ;
#253 = ADVANCED_FACE ( 'NONE', ( #29 ), #339, .T. ) ;
#254 = FILL_AREA_STYLE_COLOUR ( '', #187 ) ;
#255 = CARTESIAN_POINT ( 'NONE',  ( 141.1072221632518300, 0.0000000000000000000, 0.0000000000000000000 ) ) ;
#256 = SURFACE_STYLE_FILL_AREA ( #99 ) ;
#257 = EDGE_LOOP ( 'NONE', ( #17, #327, #22 ) ) ;
#258 = ADVANCED_FACE ( 'NONE', ( #8 ), #230, .T. ) ;
#259 = CARTESIAN_POINT ( 'NONE',  ( 144.7887544462303100, 0.0000000000000000000, -5.113705646148993800E-014 ) ) ;
#260 = DIRECTION ( 'NONE',  ( 0.0000000000000000000, -1.224646799147353200E-016, 1.000000000000000000 ) ) ;
#261 = FILL_AREA_STYLE_COLOUR ( '', #225 ) ;
#262 = DIRECTION ( 'NONE',  ( -0.0000000000000000000, 1.000000000000000000, 0.0000000000000000000 ) ) ;
#263 = CARTESIAN_POINT ( 'NONE',  ( 148.0498862606474100, 0.0000000000000000000, 0.0000000000000000000 ) ) ;
#264 = CIRCLE ( 'NONE', #164, 59.00000000000001400 ) ;
#265 = AXIS2_PLACEMENT_3D ( 'NONE', #174, #68, #11 ) ;
#266 = APPLICATION_CONTEXT ( 'automotive_design' ) ;
#267 = CARTESIAN_POINT ( 'NONE',  ( 141.1072221632518300, 0.0000000000000000000, -5.142631981122086600E-014 ) ) ;
#268 = ORIENTED_EDGE ( 'NONE', *, *, #190, .F. ) ;
#269 = DIRECTION ( 'NONE',  ( -1.000000000000000000, -0.0000000000000000000, -0.0000000000000000000 ) ) ;
#270 = PRODUCT_DEFINITION_SHAPE ( 'NONE', 'NONE',  #129 ) ;
#271 = FACE_OUTER_BOUND ( 'NONE', #217, .T. ) ;
#272 = FACE_OUTER_BOUND ( 'NONE', #196, .T. ) ;
#273 = CARTESIAN_POINT ( 'NONE',  ( 203.7887544462303100, 0.0000000000000000000, -6.053013934020630200E-014 ) ) ;
#274 = CARTESIAN_POINT ( 'NONE',  ( -185.2744740506581700, 1.555301434917137400E-015, -12.69999999999997100 ) ) ;
#275 = ORIENTED_EDGE ( 'NONE', *, *, #62, .F. ) ;
#276 = PRESENTATION_STYLE_ASSIGNMENT (( #347 ) ) ;
#277 = LINE ( 'NONE', #44, #133 ) ;
#278 = AXIS2_PLACEMENT_3D ( 'NONE', #49, #103, #260 ) ;
#279 = CARTESIAN_POINT ( 'NONE',  ( 203.7887544462303100, 0.0000000000000000000, -6.053013934020630200E-014 ) ) ;
#280 = EDGE_CURVE ( 'NONE', #47, #37, #59, .T. ) ;
#281 = DIRECTION ( 'NONE',  ( -1.000000000000000000, -0.0000000000000000000, -0.0000000000000000000 ) ) ;
#282 = SPHERICAL_SURFACE ( 'NONE', #336, 48.80000000000001100 ) ;
#283 = AXIS2_PLACEMENT_3D ( 'NONE', #273, #56, #122 ) ;
#284 = ADVANCED_FACE ( 'NONE', ( #272 ), #89, .T. ) ;
#285 = EDGE_CURVE ( 'NONE', #334, #245, #290, .T. ) ;
#286 = DIRECTION ( 'NONE',  ( 0.0000000000000000000, 0.0000000000000000000, 1.000000000000000000 ) ) ;
#287 = CARTESIAN_POINT ( 'NONE',  ( 141.1072221632518300, 0.0000000000000000000, -5.142631981122086600E-014 ) ) ;
#288 = AXIS2_PLACEMENT_3D ( 'NONE', #53, #152, #78 ) ;
#289 = ORIENTED_EDGE ( 'NONE', *, *, #306, .F. ) ;
#290 = LINE ( 'NONE', #236, #226 ) ;
#291 = FACE_OUTER_BOUND ( 'NONE', #71, .T. ) ;
#292 = CIRCLE ( 'NONE', #278, 580.7999999999998400 ) ;
#293 =( NAMED_UNIT ( * ) SI_UNIT ( $, .STERADIAN. ) SOLID_ANGLE_UNIT ( ) );
#294 = EDGE_CURVE ( 'NONE', #47, #120, #24, .T. ) ;
#295 = AXIS2_PLACEMENT_3D ( 'NONE', #123, #33, #77 ) ;
#296 = ORIENTED_EDGE ( 'NONE', *, *, #138, .F. ) ;
#297 = CIRCLE ( 'NONE', #330, 12.69999999999998900 ) ;
#298 = STYLED_ITEM ( 'NONE', ( #92 ), #19 ) ;
#299 = UNCERTAINTY_MEASURE_WITH_UNIT (LENGTH_MEASURE( 1.000000000000000100E-005 ), #341, 'distance_accuracy_value', 'NONE');
#300 = CARTESIAN_POINT ( 'NONE',  ( 203.7887544462303100, 0.0000000000000000000, -6.053013934020630200E-014 ) ) ;
#301 = DIRECTION ( 'NONE',  ( -1.000000000000000000, -0.0000000000000000000, -0.0000000000000000000 ) ) ;
#302 = SPHERICAL_SURFACE ( 'NONE', #46, 48.80000000000001100 ) ;
#303 = CYLINDRICAL_SURFACE ( 'NONE', #114, 12.69999999999993700 ) ;
#304 = APPLICATION_PROTOCOL_DEFINITION ( 'draft international standard', 'automotive_design', 1998, #335 ) ;
#305 = EDGE_CURVE ( 'NONE', #245, #37, #297, .T. ) ;
#306 = EDGE_CURVE ( 'NONE', #334, #120, #212, .T. ) ;
#307 = DIRECTION ( 'NONE',  ( 0.0000000000000000000, 0.0000000000000000000, 1.000000000000000000 ) ) ;
#308 = ORIENTED_EDGE ( 'NONE', *, *, #280, .T. ) ;
#309 = FACE_OUTER_BOUND ( 'NONE', #7, .T. ) ;
#310 = DIRECTION ( 'NONE',  ( 0.0000000000000000000, 0.0000000000000000000, 1.000000000000000000 ) ) ;
#311 = EDGE_CURVE ( 'NONE', #37, #245, #195, .T. ) ;
#312 = CARTESIAN_POINT ( 'NONE',  ( 141.1072221632518300, 0.0000000000000000000, 0.0000000000000000000 ) ) ;
#313 = AXIS2_PLACEMENT_3D ( 'NONE', #312, #161, #144 ) ;
#314 = FACE_OUTER_BOUND ( 'NONE', #157, .T. ) ;
#315 = ORIENTED_EDGE ( 'NONE', *, *, #190, .T. ) ;
#316 = PRODUCT_RELATED_PRODUCT_CATEGORY ( 'part', '', ( #34 ) ) ;
#317 = SURFACE_SIDE_STYLE ('',( #220 ) ) ;
#318 = DIRECTION ( 'NONE',  ( -1.000000000000000000, -0.0000000000000000000, -0.0000000000000000000 ) ) ;
#319 = ORIENTED_EDGE ( 'NONE', *, *, #311, .F. ) ;
#320 = PRESENTATION_LAYER_ASSIGNMENT (  '', '', ( #298 ) ) ;
#321 = DIRECTION ( 'NONE',  ( 0.0000000000000000000, 1.000000000000000000, 0.0000000000000000000 ) ) ;
#322 = ORIENTED_EDGE ( 'NONE', *, *, #208, .F. ) ;
#323 = CIRCLE ( 'NONE', #224, 12.69999999999993700 ) ;
#324 = ORIENTED_EDGE ( 'NONE', *, *, #280, .F. ) ;
#325 = DIRECTION ( 'NONE',  ( 0.0000000000000000000, 0.0000000000000000000, 1.000000000000000000 ) ) ;
#326 = EDGE_CURVE ( 'NONE', #139, #202, #292, .T. ) ;
#327 = ORIENTED_EDGE ( 'NONE', *, *, #306, .T. ) ;
#328 = STYLED_ITEM ( 'NONE', ( #276 ), #116 ) ;
#329 = EDGE_LOOP ( 'NONE', ( #275, #51, #88 ) ) ;
#330 = AXIS2_PLACEMENT_3D ( 'NONE', #267, #233, #41 ) ;
#331 = DIRECTION ( 'NONE',  ( 0.0000000000000000000, 0.0000000000000000000, 1.000000000000000000 ) ) ;
#332 =( NAMED_UNIT ( * ) SI_UNIT ( $, .STERADIAN. ) SOLID_ANGLE_UNIT ( ) );
#333 = AXIS2_PLACEMENT_3D ( 'NONE', #300, #57, #169 ) ;
#334 = VERTEX_POINT ( 'NONE', #130 ) ;
#335 = APPLICATION_CONTEXT ( 'automotive_design' ) ;
#336 = AXIS2_PLACEMENT_3D ( 'NONE', #223, #262, #45 ) ;
#337 = ORIENTED_EDGE ( 'NONE', *, *, #326, .F. ) ;
#338 = VERTEX_POINT ( 'NONE', #127 ) ;
#339 = SPHERICAL_SURFACE ( 'NONE', #1, 59.00000000000001400 ) ;
#340 = UNCERTAINTY_MEASURE_WITH_UNIT (LENGTH_MEASURE( 1.000000000000000100E-005 ), #232, 'distance_accuracy_value', 'NONE');
#341 =( LENGTH_UNIT ( ) NAMED_UNIT ( * ) SI_UNIT ( .MILLI., .METRE. ) );
#342 = ORIENTED_EDGE ( 'NONE', *, *, #285, .T. ) ;
#343 = AXIS2_PLACEMENT_3D ( 'NONE', #227, #26, #241 ) ;
#344 = ORIENTED_EDGE ( 'NONE', *, *, #151, .T. ) ;
#345 = ORIENTED_EDGE ( 'NONE', *, *, #242, .F. ) ;
#346 = ORIENTED_EDGE ( 'NONE', *, *, #248, .T. ) ;
#347 = SURFACE_STYLE_USAGE ( .BOTH. , #175 ) ;
ENDSEC;
END-ISO-10303-21;
