ISO-10303-21;
HEADER;
FILE_DESCRIPTION (( 'STEP AP203' ),
    '1' );
FILE_NAME ('145285.STEP',
    '2024-05-13T01:57:20',
    ( '' ),
    ( '' ),
    'SwSTEP 2.0',
    'SolidWorks 2020',
    '' );
FILE_SCHEMA (( 'CONFIG_CONTROL_DESIGN' ));
ENDSEC;

DATA;
#1 = PERSON_AND_ORGANIZATION ( #119, #191 ) ;
#2 = AXIS2_PLACEMENT_3D ( 'NONE', #268, #243, #360 ) ;
#3 = DATE_TIME_ROLE ( 'creation_date' ) ;
#4 = CC_DESIGN_DATE_AND_TIME_ASSIGNMENT ( #37, #165, ( #230 ) ) ;
#5 = PERSON_AND_ORGANIZATION ( #119, #191 ) ;
#6 = VERTEX_POINT ( 'NONE', #292 ) ;
#7 = APPROVAL_STATUS ( 'not_yet_approved' ) ;
#8 = ORIENTED_EDGE ( 'NONE', *, *, #200, .F. ) ;
#9 = AXIS2_PLACEMENT_3D ( 'NONE', #389, #47, #117 ) ;
#10 = CARTESIAN_POINT ( 'NONE',  ( -59.18715662996812199, 31.33394953399995586, 0.000000000000000000 ) ) ;
#11 = ORIENTED_EDGE ( 'NONE', *, *, #33, .T. ) ;
#12 = ORIENTED_EDGE ( 'NONE', *, *, #80, .F. ) ;
#13 = CARTESIAN_POINT ( 'NONE',  ( -63.65626465923428157, 31.33394953399995586, 0.000000000000000000 ) ) ;
#14 = AXIS2_PLACEMENT_3D ( 'NONE', #55, #88, #338 ) ;
#15 = CARTESIAN_POINT ( 'NONE',  ( -71.71708623259435456, 31.33394953399995586, 0.000000000000000000 ) ) ;
#16 = DIRECTION ( 'NONE',  ( 0.000000000000000000, -0.000000000000000000, 1.000000000000000000 ) ) ;
#17 = CARTESIAN_POINT ( 'NONE',  ( -70.31235131860073295, 31.33394953399995586, 0.000000000000000000 ) ) ;
#18 = FACE_OUTER_BOUND ( 'NONE', #61, .T. ) ;
#19 = AXIS2_PLACEMENT_3D ( 'NONE', #166, #70, #321 ) ;
#20 = DIRECTION ( 'NONE',  ( 1.000000000000000000, -0.000000000000000000, -0.000000000000000000 ) ) ;
#21 = DIRECTION ( 'NONE',  ( 0.000000000000000000, 1.000000000000000000, 0.000000000000000000 ) ) ;
#22 = CARTESIAN_POINT ( 'NONE',  ( -63.65626465923428157, 31.33394953399995586, 0.000000000000000000 ) ) ;
#23 = DIRECTION ( 'NONE',  ( 1.000000000000000000, -0.000000000000000000, -0.000000000000000000 ) ) ;
#24 = CARTESIAN_POINT ( 'NONE',  ( -71.71708623259435456, 31.33394953399995586, 0.000000000000000000 ) ) ;
#25 = CIRCLE ( 'NONE', #9, 25.39999999999999503 ) ;
#26 = ORIENTED_EDGE ( 'NONE', *, *, #80, .T. ) ;
#27 = EDGE_CURVE ( 'NONE', #43, #109, #181, .T. ) ;
#28 = EDGE_LOOP ( 'NONE', ( #356, #111, #71, #288, #138 ) ) ;
#29 = DIRECTION ( 'NONE',  ( 0.000000000000000000, 0.000000000000000000, 1.000000000000000000 ) ) ;
#30 = CC_DESIGN_APPROVAL ( #266, ( #230 ) ) ;
#31 = AXIS2_PLACEMENT_3D ( 'NONE', #301, #90, #336 ) ;
#32 = CARTESIAN_POINT ( 'NONE',  ( -63.65626465923426736, 56.73394953400028129, 0.000000000000000000 ) ) ;
#33 = EDGE_CURVE ( 'NONE', #36, #189, #253, .T. ) ;
#34 = PERSON_AND_ORGANIZATION_ROLE ( 'design_supplier' ) ;
#35 = PRODUCT_RELATED_PRODUCT_CATEGORY ( 'detail', '', ( #78 ) ) ;
#36 = VERTEX_POINT ( 'NONE', #323 ) ;
#37 = DATE_AND_TIME ( #318, #107 ) ;
#38 = EDGE_LOOP ( 'NONE', ( #8, #197, #234, #141 ) ) ;
#39 = ADVANCED_FACE ( 'NONE', ( #42 ), #45, .T. ) ;
#40 = VERTEX_POINT ( 'NONE', #293 ) ;
#41 = ADVANCED_BREP_SHAPE_REPRESENTATION ( '145285', ( #106, #373, #261 ), #83 ) ;
#42 = FACE_OUTER_BOUND ( 'NONE', #195, .T. ) ;
#43 = VERTEX_POINT ( 'NONE', #275 ) ;
#44 = ADVANCED_FACE ( 'NONE', ( #357 ), #115, .T. ) ;
#45 = SPHERICAL_SURFACE ( 'NONE', #72, 343.9399999999999977 ) ;
#46 = AXIS2_PLACEMENT_3D ( 'NONE', #362, #328, #184 ) ;
#47 = DIRECTION ( 'NONE',  ( 1.000000000000000000, -0.000000000000000000, -0.000000000000000000 ) ) ;
#48 = PLANE ( 'NONE',  #334 ) ;
#49 = DIRECTION ( 'NONE',  ( -0.000000000000000000, 0.000000000000000000, -1.000000000000000000 ) ) ;
#50 = LOCAL_TIME ( 9, 57, 20.00000000000000000, #287 ) ;
#51 = CC_DESIGN_PERSON_AND_ORGANIZATION_ASSIGNMENT ( #400, #223, ( #78 ) ) ;
#52 = FACE_OUTER_BOUND ( 'NONE', #370, .T. ) ;
#53 = CARTESIAN_POINT ( 'NONE',  ( -70.31235131860073295, 31.33394953399995586, 0.000000000000000000 ) ) ;
#54 = LINE ( 'NONE', #123, #369 ) ;
#55 = CARTESIAN_POINT ( 'NONE',  ( -63.65626465923428157, 31.33394953399995586, 0.000000000000000000 ) ) ;
#56 = DIRECTION ( 'NONE',  ( 0.000000000000000000, 0.000000000000000000, -1.000000000000000000 ) ) ;
#57 = DIRECTION ( 'NONE',  ( 0.000000000000000000, 0.000000000000000000, 1.000000000000000000 ) ) ;
#58 = EDGE_CURVE ( 'NONE', #40, #36, #84, .T. ) ;
#59 = ORIENTED_EDGE ( 'NONE', *, *, #27, .F. ) ;
#60 = PERSON_AND_ORGANIZATION_ROLE ( 'creator' ) ;
#61 = EDGE_LOOP ( 'NONE', ( #388, #374, #350, #378, #380, #59 ) ) ;
#62 = EDGE_CURVE ( 'NONE', #387, #73, #171, .T. ) ;
#63 = ORIENTED_EDGE ( 'NONE', *, *, #291, .F. ) ;
#64 = UNCERTAINTY_MEASURE_WITH_UNIT (LENGTH_MEASURE( 1.000000000000000082E-05 ), #94, 'distance_accuracy_value', 'NONE');
#65 = CIRCLE ( 'NONE', #124, 25.39999999999999858 ) ;
#66 = COORDINATED_UNIVERSAL_TIME_OFFSET ( 8, 0, .AHEAD. ) ;
#67 = CIRCLE ( 'NONE', #126, 25.39999999999999858 ) ;
#68 = ORIENTED_EDGE ( 'NONE', *, *, #291, .T. ) ;
#69 = PRODUCT_DEFINITION ( 'Î´Öª', '', #85, #193 ) ;
#70 = DIRECTION ( 'NONE',  ( -1.000000000000000000, -0.000000000000000000, -0.000000000000000000 ) ) ;
#71 = ORIENTED_EDGE ( 'NONE', *, *, #163, .T. ) ;
#72 = AXIS2_PLACEMENT_3D ( 'NONE', #215, #49, #173 ) ;
#73 = VERTEX_POINT ( 'NONE', #77 ) ;
#74 = CALENDAR_DATE ( 2024, 13, 5 ) ;
#75 = ADVANCED_FACE ( 'NONE', ( #120 ), #271, .T. ) ;
#76 = ORIENTED_EDGE ( 'NONE', *, *, #58, .F. ) ;
#77 = CARTESIAN_POINT ( 'NONE',  ( -63.18715662996810067, 31.33394953399999849, 0.000000000000000000 ) ) ;
#78 = PRODUCT ( '145285', '145285', '', ( #284 ) ) ;
#79 = CIRCLE ( 'NONE', #296, 25.39999999999999858 ) ;
#80 = EDGE_CURVE ( 'NONE', #387, #6, #346, .T. ) ;
#81 = CARTESIAN_POINT ( 'NONE',  ( -70.31235131860074716, 5.933949534000038106, -3.110602869834267004E-15 ) ) ;
#82 = DIRECTION ( 'NONE',  ( -1.000000000000000000, -0.000000000000000000, -0.000000000000000000 ) ) ;
#83 =( GEOMETRIC_REPRESENTATION_CONTEXT ( 3 ) GLOBAL_UNCERTAINTY_ASSIGNED_CONTEXT ( ( #64 ) ) GLOBAL_UNIT_ASSIGNED_CONTEXT ( ( #94, #219, #250 ) ) REPRESENTATION_CONTEXT ( 'NONE', 'WORKASPACE' ) );
#84 = LINE ( 'NONE', #172, #376 ) ;
#85 = PRODUCT_DEFINITION_FORMATION_WITH_SPECIFIED_SOURCE ( 'ÈÎºÎ', '', #78, .NOT_KNOWN. ) ;
#86 = DIRECTION ( 'NONE',  ( 0.000000000000000000, 0.000000000000000000, 1.000000000000000000 ) ) ;
#87 = FACE_OUTER_BOUND ( 'NONE', #325, .T. ) ;
#88 = DIRECTION ( 'NONE',  ( -1.000000000000000000, -0.000000000000000000, -0.000000000000000000 ) ) ;
#89 = CYLINDRICAL_SURFACE ( 'NONE', #46, 25.39999999999999858 ) ;
#90 = DIRECTION ( 'NONE',  ( -0.000000000000000000, 0.000000000000000000, 1.000000000000000000 ) ) ;
#91 = EDGE_CURVE ( 'NONE', #6, #134, #156, .T. ) ;
#92 = AXIS2_PLACEMENT_3D ( 'NONE', #274, #397, #121 ) ;
#93 = APPLICATION_CONTEXT ( 'configuration controlled 3d designs of mechanical parts and assemblies' ) ;
#94 =( LENGTH_UNIT ( ) NAMED_UNIT ( * ) SI_UNIT ( .MILLI., .METRE. ) );
#95 = ORIENTED_EDGE ( 'NONE', *, *, #91, .F. ) ;
#96 = APPLICATION_PROTOCOL_DEFINITION ( 'international standard', 'config_control_design', 1994, #93 ) ;
#97 = ADVANCED_FACE ( 'NONE', ( #87 ), #302, .T. ) ;
#98 = EDGE_LOOP ( 'NONE', ( #167, #100, #255, #375, #342, #68 ) ) ;
#99 = APPROVAL_DATE_TIME ( #377, #139 ) ;
#100 = ORIENTED_EDGE ( 'NONE', *, *, #285, .T. ) ;
#101 = APPROVAL_ROLE ( '' ) ;
#102 = AXIS2_PLACEMENT_3D ( 'NONE', #245, #20, #238 ) ;
#103 = VERTEX_POINT ( 'NONE', #113 ) ;
#104 = APPROVAL_PERSON_ORGANIZATION ( #317, #213, #101 ) ;
#105 = ORIENTED_EDGE ( 'NONE', *, *, #270, .F. ) ;
#106 = MANIFOLD_SOLID_BREP ( '145285-1-solid1', #354 ) ;
#107 = LOCAL_TIME ( 9, 57, 20.00000000000000000, #66 ) ;
#108 = AXIS2_PLACEMENT_3D ( 'NONE', #239, #16, #21 ) ;
#109 = VERTEX_POINT ( 'NONE', #81 ) ;
#110 = ORIENTED_EDGE ( 'NONE', *, *, #62, .T. ) ;
#111 = ORIENTED_EDGE ( 'NONE', *, *, #91, .T. ) ;
#112 = COORDINATED_UNIVERSAL_TIME_OFFSET ( 8, 0, .AHEAD. ) ;
#113 = CARTESIAN_POINT ( 'NONE',  ( -63.65626465923428157, 31.33394953399995586, 25.39999999999999858 ) ) ;
#114 = EDGE_CURVE ( 'NONE', #382, #164, #237, .T. ) ;
#115 = SPHERICAL_SURFACE ( 'NONE', #2, 230.3400000000000318 ) ;
#116 = CARTESIAN_POINT ( 'NONE',  ( 158.6229137674056631, 31.33394953399995586, 0.000000000000000000 ) ) ;
#117 = DIRECTION ( 'NONE',  ( 0.000000000000000000, 0.000000000000000000, -1.000000000000000000 ) ) ;
#118 = DIRECTION ( 'NONE',  ( -1.000000000000000000, -0.000000000000000000, -0.000000000000000000 ) ) ;
#119 = PERSON ( 'Î´Ö¸¶¨', 'Î´Ö¸¶¨', 'Î´Ö¸¶¨', ('Î´Ö¸¶¨'), ('Î´Ö¸¶¨'), ('Î´Ö¸¶¨') ) ;
#120 = FACE_OUTER_BOUND ( 'NONE', #98, .T. ) ;
#121 = DIRECTION ( 'NONE',  ( 0.000000000000000000, 1.000000000000000000, 0.000000000000000000 ) ) ;
#122 = CARTESIAN_POINT ( 'NONE',  ( -63.65626465923428157, 31.33394953399995586, 0.000000000000000000 ) ) ;
#123 = CARTESIAN_POINT ( 'NONE',  ( -71.71708623259435456, 31.33394953399995586, -25.39999999999999858 ) ) ;
#124 = AXIS2_PLACEMENT_3D ( 'NONE', #53, #180, #309 ) ;
#125 = DIRECTION ( 'NONE',  ( 0.000000000000000000, 1.000000000000000000, 1.224646799147352961E-16 ) ) ;
#126 = AXIS2_PLACEMENT_3D ( 'NONE', #258, #118, #57 ) ;
#127 = VERTEX_POINT ( 'NONE', #208 ) ;
#128 = LINE ( 'NONE', #132, #137 ) ;
#129 = ADVANCED_FACE ( 'NONE', ( #145 ), #89, .T. ) ;
#130 = ORIENTED_EDGE ( 'NONE', *, *, #174, .T. ) ;
#131 = APPROVAL_ROLE ( '' ) ;
#132 = CARTESIAN_POINT ( 'NONE',  ( -59.18715662996812199, 31.33394953399995586, 25.39999999999999858 ) ) ;
#133 = PERSON_AND_ORGANIZATION_ROLE ( 'creator' ) ;
#134 = VERTEX_POINT ( 'NONE', #335 ) ;
#135 = CIRCLE ( 'NONE', #205, 25.39999999999999503 ) ;
#136 = ORIENTED_EDGE ( 'NONE', *, *, #372, .F. ) ;
#137 = VECTOR ( 'NONE', #341, 1000.000000000000000 ) ;
#138 = ORIENTED_EDGE ( 'NONE', *, *, #174, .F. ) ;
#139 = APPROVAL ( #256, 'Î´Ö¸¶¨' ) ;
#140 = ORIENTED_EDGE ( 'NONE', *, *, #62, .F. ) ;
#141 = ORIENTED_EDGE ( 'NONE', *, *, #235, .T. ) ;
#142 = CARTESIAN_POINT ( 'NONE',  ( -63.65626465923428157, 31.33394953399995586, 0.000000000000000000 ) ) ;
#143 = AXIS2_PLACEMENT_3D ( 'NONE', #361, #394, #340 ) ;
#144 = PRODUCT_DEFINITION_SHAPE ( 'NONE', 'NONE',  #69 ) ;
#145 = FACE_OUTER_BOUND ( 'NONE', #28, .T. ) ;
#146 = EDGE_CURVE ( 'NONE', #109, #355, #79, .T. ) ;
#147 = CARTESIAN_POINT ( 'NONE',  ( -406.6570862325943949, 31.33394953399995586, 0.000000000000000000 ) ) ;
#148 = DIRECTION ( 'NONE',  ( 0.000000000000000000, 1.000000000000000000, 0.000000000000000000 ) ) ;
#149 = AXIS2_PLACEMENT_3D ( 'NONE', #10, #232, #201 ) ;
#150 = FACE_OUTER_BOUND ( 'NONE', #170, .T. ) ;
#151 = DIRECTION ( 'NONE',  ( 1.000000000000000000, -0.000000000000000000, -0.000000000000000000 ) ) ;
#152 = ADVANCED_FACE ( 'NONE', ( #304 ), #153, .T. ) ;
#153 = SPHERICAL_SURFACE ( 'NONE', #381, 230.3400000000000318 ) ;
#154 = CARTESIAN_POINT ( 'NONE',  ( -63.65626465923428157, 31.33394953399995586, -25.39999999999999858 ) ) ;
#155 = DIRECTION ( 'NONE',  ( 0.000000000000000000, -1.000000000000000000, 1.224646799147353207E-16 ) ) ;
#156 = CIRCLE ( 'NONE', #188, 25.39999999999999503 ) ;
#157 = EDGE_CURVE ( 'NONE', #40, #387, #135, .T. ) ;
#158 = AXIS2_PLACEMENT_3D ( 'NONE', #276, #367, #155 ) ;
#159 = CC_DESIGN_APPROVAL ( #139, ( #85 ) ) ;
#160 = CIRCLE ( 'NONE', #386, 230.3400000000000603 ) ;
#161 = APPROVAL_DATE_TIME ( #192, #213 ) ;
#162 = PERSON_AND_ORGANIZATION ( #119, #191 ) ;
#163 = EDGE_CURVE ( 'NONE', #134, #40, #25, .T. ) ;
#164 = VERTEX_POINT ( 'NONE', #241 ) ;
#165 = DATE_TIME_ROLE ( 'classification_date' ) ;
#166 = CARTESIAN_POINT ( 'NONE',  ( -70.31235131860073295, 31.33394953399995586, 0.000000000000000000 ) ) ;
#167 = ORIENTED_EDGE ( 'NONE', *, *, #270, .T. ) ;
#168 = DATE_AND_TIME ( #74, #281 ) ;
#169 = EDGE_CURVE ( 'NONE', #348, #43, #65, .T. ) ;
#170 = EDGE_LOOP ( 'NONE', ( #136, #95, #12, #110 ) ) ;
#171 = CIRCLE ( 'NONE', #246, 687.8800000000001091 ) ;
#172 = CARTESIAN_POINT ( 'NONE',  ( -59.18715662996812199, 31.33394953399995586, -25.39999999999999858 ) ) ;
#173 = DIRECTION ( 'NONE',  ( 0.000000000000000000, 1.000000000000000000, 0.000000000000000000 ) ) ;
#174 = EDGE_CURVE ( 'NONE', #189, #36, #311, .T. ) ;
#175 = CIRCLE ( 'NONE', #319, 343.9399999999999977 ) ;
#176 = CARTESIAN_POINT ( 'NONE',  ( -59.18715662996812199, 56.73394953399995444, 0.000000000000000000 ) ) ;
#177 = AXIS2_PLACEMENT_3D ( 'NONE', #24, #218, #371 ) ;
#178 = DIRECTION ( 'NONE',  ( 1.000000000000000000, -0.000000000000000000, -0.000000000000000000 ) ) ;
#179 = DIRECTION ( 'NONE',  ( 1.000000000000000000, 0.000000000000000000, -0.000000000000000000 ) ) ;
#180 = DIRECTION ( 'NONE',  ( -1.000000000000000000, -0.000000000000000000, -0.000000000000000000 ) ) ;
#181 = CIRCLE ( 'NONE', #19, 25.39999999999999858 ) ;
#182 = DIRECTION ( 'NONE',  ( 0.000000000000000000, 1.224646799147353207E-16, -1.000000000000000000 ) ) ;
#183 = ADVANCED_FACE ( 'NONE', ( #339 ), #392, .F. ) ;
#184 = DIRECTION ( 'NONE',  ( 0.000000000000000000, 0.000000000000000000, -1.000000000000000000 ) ) ;
#185 = SPHERICAL_SURFACE ( 'NONE', #92, 343.9399999999999977 ) ;
#186 = DIRECTION ( 'NONE',  ( 0.000000000000000000, 1.224646799147353207E-16, -1.000000000000000000 ) ) ;
#187 = CC_DESIGN_DATE_AND_TIME_ASSIGNMENT ( #314, #3, ( #69 ) ) ;
#188 = AXIS2_PLACEMENT_3D ( 'NONE', #142, #206, #396 ) ;
#189 = VERTEX_POINT ( 'NONE', #329 ) ;
#190 = CALENDAR_DATE ( 2024, 13, 5 ) ;
#191 = ORGANIZATION ( 'Î´Ö¸¶¨', 'Î´Ö¸¶¨', '' ) ;
#192 = DATE_AND_TIME ( #222, #313 ) ;
#193 = DESIGN_CONTEXT ( 'detailed design', #93, 'design' ) ;
#194 = APPLICATION_PROTOCOL_DEFINITION ( 'international standard', 'config_control_design', 1994, #368 ) ;
#195 = EDGE_LOOP ( 'NONE', ( #265, #233, #63, #204 ) ) ;
#196 = CIRCLE ( 'NONE', #158, 687.8799999999999955 ) ;
#197 = ORIENTED_EDGE ( 'NONE', *, *, #146, .T. ) ;
#198 = APPROVAL_ROLE ( '' ) ;
#199 = ORIENTED_EDGE ( 'NONE', *, *, #27, .T. ) ;
#200 = EDGE_CURVE ( 'NONE', #109, #286, #160, .T. ) ;
#201 = DIRECTION ( 'NONE',  ( 0.000000000000000000, 0.000000000000000000, -1.000000000000000000 ) ) ;
#202 = EDGE_LOOP ( 'NONE', ( #385, #251, #279, #105 ) ) ;
#203 = SHAPE_DEFINITION_REPRESENTATION ( #144, #41 ) ;
#204 = ORIENTED_EDGE ( 'NONE', *, *, #359, .F. ) ;
#205 = AXIS2_PLACEMENT_3D ( 'NONE', #122, #178, #267 ) ;
#206 = DIRECTION ( 'NONE',  ( 1.000000000000000000, -0.000000000000000000, -0.000000000000000000 ) ) ;
#207 = DIRECTION ( 'NONE',  ( -0.000000000000000000, 0.000000000000000000, 1.000000000000000000 ) ) ;
#208 = CARTESIAN_POINT ( 'NONE',  ( -62.71708623259436877, 31.33394953399997718, 0.000000000000000000 ) ) ;
#209 = CARTESIAN_POINT ( 'NONE',  ( -71.71708623259436877, 31.33394953399997007, 0.000000000000000000 ) ) ;
#210 = APPROVAL_PERSON_ORGANIZATION ( #289, #266, #198 ) ;
#211 = CIRCLE ( 'NONE', #282, 343.9399999999999977 ) ;
#212 = CARTESIAN_POINT ( 'NONE',  ( -63.65626465923428157, 31.33394953399995586, 0.000000000000000000 ) ) ;
#213 = APPROVAL ( #344, 'Î´Ö¸¶¨' ) ;
#214 = FACE_OUTER_BOUND ( 'NONE', #202, .T. ) ;
#215 = CARTESIAN_POINT ( 'NONE',  ( -406.6570862325943949, 31.33394953399995586, 0.000000000000000000 ) ) ;
#216 = CARTESIAN_POINT ( 'NONE',  ( -406.6570862325943949, 31.33394953399995586, 0.000000000000000000 ) ) ;
#217 = CARTESIAN_POINT ( 'NONE',  ( -59.18715662996812199, 31.33394953399995586, 0.000000000000000000 ) ) ;
#218 = DIRECTION ( 'NONE',  ( -1.000000000000000000, -0.000000000000000000, -0.000000000000000000 ) ) ;
#219 =( NAMED_UNIT ( * ) PLANE_ANGLE_UNIT ( ) SI_UNIT ( $, .RADIAN. ) );
#220 = EDGE_CURVE ( 'NONE', #127, #290, #211, .T. ) ;
#221 = ORIENTED_EDGE ( 'NONE', *, *, #169, .T. ) ;
#222 = CALENDAR_DATE ( 2024, 13, 5 ) ;
#223 = PERSON_AND_ORGANIZATION_ROLE ( 'design_owner' ) ;
#224 = PERSON_AND_ORGANIZATION ( #119, #191 ) ;
#225 = COORDINATED_UNIVERSAL_TIME_OFFSET ( 8, 0, .AHEAD. ) ;
#226 = AXIS2_PLACEMENT_3D ( 'NONE', #212, #299, #273 ) ;
#227 = EDGE_LOOP ( 'NONE', ( #221, #199, #260, #264 ) ) ;
#228 = ADVANCED_FACE ( 'NONE', ( #52 ), #48, .T. ) ;
#229 = ORIENTED_EDGE ( 'NONE', *, *, #372, .T. ) ;
#230 = SECURITY_CLASSIFICATION ( '', '', #257 ) ;
#231 = CIRCLE ( 'NONE', #31, 230.3400000000000318 ) ;
#232 = DIRECTION ( 'NONE',  ( 1.000000000000000000, -0.000000000000000000, -0.000000000000000000 ) ) ;
#233 = ORIENTED_EDGE ( 'NONE', *, *, #220, .T. ) ;
#234 = ORIENTED_EDGE ( 'NONE', *, *, #300, .T. ) ;
#235 = EDGE_CURVE ( 'NONE', #348, #286, #231, .T. ) ;
#236 = DIRECTION ( 'NONE',  ( 1.000000000000000000, -0.000000000000000000, -0.000000000000000000 ) ) ;
#237 = CIRCLE ( 'NONE', #226, 25.39999999999999858 ) ;
#238 = DIRECTION ( 'NONE',  ( 0.000000000000000000, 0.000000000000000000, -1.000000000000000000 ) ) ;
#239 = CARTESIAN_POINT ( 'NONE',  ( -751.0671566299681672, 31.33394953399995586, 0.000000000000000000 ) ) ;
#240 = ADVANCED_FACE ( 'NONE', ( #18 ), #305, .T. ) ;
#241 = CARTESIAN_POINT ( 'NONE',  ( -63.65626465923429578, 5.933949533999900439, -3.110602869834283965E-15 ) ) ;
#242 = CARTESIAN_POINT ( 'NONE',  ( -70.31235131860073295, 31.33394953399995586, 0.000000000000000000 ) ) ;
#243 = DIRECTION ( 'NONE',  ( -0.000000000000000000, 0.000000000000000000, -1.000000000000000000 ) ) ;
#244 = DIRECTION ( 'NONE',  ( 0.000000000000000000, 1.000000000000000000, 1.224646799147353207E-16 ) ) ;
#245 = CARTESIAN_POINT ( 'NONE',  ( -59.18715662996812199, 31.33394953399995586, 0.000000000000000000 ) ) ;
#246 = AXIS2_PLACEMENT_3D ( 'NONE', #306, #364, #391 ) ;
#247 = DIRECTION ( 'NONE',  ( 0.000000000000000000, 0.000000000000000000, 1.000000000000000000 ) ) ;
#248 = AXIS2_PLACEMENT_3D ( 'NONE', #242, #363, #86 ) ;
#249 = DIRECTION ( 'NONE',  ( 1.000000000000000000, 0.000000000000000000, 0.000000000000000000 ) ) ;
#250 =( NAMED_UNIT ( * ) SI_UNIT ( $, .STERADIAN. ) SOLID_ANGLE_UNIT ( ) );
#251 = ORIENTED_EDGE ( 'NONE', *, *, #353, .T. ) ;
#252 = CALENDAR_DATE ( 2024, 13, 5 ) ;
#253 = CIRCLE ( 'NONE', #149, 25.39999999999999858 ) ;
#254 = CC_DESIGN_PERSON_AND_ORGANIZATION_ASSIGNMENT ( #162, #347, ( #230 ) ) ;
#255 = ORIENTED_EDGE ( 'NONE', *, *, #169, .F. ) ;
#256 = APPROVAL_STATUS ( 'not_yet_approved' ) ;
#257 = SECURITY_CLASSIFICATION_LEVEL ( 'unclassified' ) ;
#258 = CARTESIAN_POINT ( 'NONE',  ( -63.65626465923428157, 31.33394953399995586, 0.000000000000000000 ) ) ;
#259 = AXIS2_PLACEMENT_3D ( 'NONE', #15, #297, #337 ) ;
#260 = ORIENTED_EDGE ( 'NONE', *, *, #200, .T. ) ;
#261 = AXIS2_PLACEMENT_3D ( 'NONE', #312, #29, #280 ) ;
#262 = EDGE_LOOP ( 'NONE', ( #352, #229, #140, #320 ) ) ;
#263 = APPROVAL_PERSON_ORGANIZATION ( #1, #139, #131 ) ;
#264 = ORIENTED_EDGE ( 'NONE', *, *, #235, .F. ) ;
#265 = ORIENTED_EDGE ( 'NONE', *, *, #353, .F. ) ;
#266 = APPROVAL ( #7, 'Î´Ö¸¶¨' ) ;
#267 = DIRECTION ( 'NONE',  ( 0.000000000000000000, 0.000000000000000000, -1.000000000000000000 ) ) ;
#268 = CARTESIAN_POINT ( 'NONE',  ( 158.6229137674056631, 31.33394953399995586, 0.000000000000000000 ) ) ;
#269 = DIRECTION ( 'NONE',  ( -1.000000000000000000, -0.000000000000000000, -0.000000000000000000 ) ) ;
#270 = EDGE_CURVE ( 'NONE', #290, #382, #351, .T. ) ;
#271 = CYLINDRICAL_SURFACE ( 'NONE', #259, 25.39999999999999858 ) ;
#272 = DIRECTION ( 'NONE',  ( -0.000000000000000000, 0.000000000000000000, -1.000000000000000000 ) ) ;
#273 = DIRECTION ( 'NONE',  ( 0.000000000000000000, 0.000000000000000000, 1.000000000000000000 ) ) ;
#274 = CARTESIAN_POINT ( 'NONE',  ( -406.6570862325943949, 31.33394953399995586, 0.000000000000000000 ) ) ;
#275 = CARTESIAN_POINT ( 'NONE',  ( -70.31235131860073295, 31.33394953399995586, -25.39999999999999858 ) ) ;
#276 = CARTESIAN_POINT ( 'NONE',  ( -751.0671566299681672, 31.33394953399995586, 0.000000000000000000 ) ) ;
#277 = ADVANCED_FACE ( 'NONE', ( #150 ), #303, .F. ) ;
#278 = CARTESIAN_POINT ( 'NONE',  ( -71.71708623259435456, 31.33394953399995586, 25.39999999999999858 ) ) ;
#279 = ORIENTED_EDGE ( 'NONE', *, *, #114, .F. ) ;
#280 = DIRECTION ( 'NONE',  ( 1.000000000000000000, 0.000000000000000000, 0.000000000000000000 ) ) ;
#281 = LOCAL_TIME ( 9, 57, 20.00000000000000000, #112 ) ;
#282 = AXIS2_PLACEMENT_3D ( 'NONE', #147, #207, #249 ) ;
#283 = ORIENTED_EDGE ( 'NONE', *, *, #157, .T. ) ;
#284 = MECHANICAL_CONTEXT ( 'NONE', #368, 'mechanical' ) ;
#285 = EDGE_CURVE ( 'NONE', #382, #43, #54, .T. ) ;
#286 = VERTEX_POINT ( 'NONE', #209 ) ;
#287 = COORDINATED_UNIVERSAL_TIME_OFFSET ( 8, 0, .AHEAD. ) ;
#288 = ORIENTED_EDGE ( 'NONE', *, *, #58, .T. ) ;
#289 = PERSON_AND_ORGANIZATION ( #119, #191 ) ;
#290 = VERTEX_POINT ( 'NONE', #332 ) ;
#291 = EDGE_CURVE ( 'NONE', #103, #290, #67, .T. ) ;
#292 = CARTESIAN_POINT ( 'NONE',  ( -63.65626465923428157, 31.33394953399995586, 25.39999999999999503 ) ) ;
#293 = CARTESIAN_POINT ( 'NONE',  ( -63.65626465923428157, 31.33394953399995586, -25.39999999999999503 ) ) ;
#294 = APPROVAL_DATE_TIME ( #168, #266 ) ;
#295 = ORIENTED_EDGE ( 'NONE', *, *, #33, .F. ) ;
#296 = AXIS2_PLACEMENT_3D ( 'NONE', #17, #326, #331 ) ;
#297 = DIRECTION ( 'NONE',  ( -1.000000000000000000, -0.000000000000000000, -0.000000000000000000 ) ) ;
#298 = CIRCLE ( 'NONE', #248, 25.39999999999999858 ) ;
#299 = DIRECTION ( 'NONE',  ( -1.000000000000000000, -0.000000000000000000, -0.000000000000000000 ) ) ;
#300 = EDGE_CURVE ( 'NONE', #355, #348, #298, .T. ) ;
#301 = CARTESIAN_POINT ( 'NONE',  ( 158.6229137674056631, 31.33394953399995586, 0.000000000000000000 ) ) ;
#302 = CYLINDRICAL_SURFACE ( 'NONE', #102, 25.39999999999999858 ) ;
#303 = SPHERICAL_SURFACE ( 'NONE', #143, 687.8799999999999955 ) ;
#304 = FACE_OUTER_BOUND ( 'NONE', #227, .T. ) ;
#305 = CYLINDRICAL_SURFACE ( 'NONE', #177, 25.39999999999999858 ) ;
#306 = CARTESIAN_POINT ( 'NONE',  ( -751.0671566299681672, 31.33394953399995586, 0.000000000000000000 ) ) ;
#307 = LINE ( 'NONE', #278, #330 ) ;
#308 = ADVANCED_FACE ( 'NONE', ( #214 ), #185, .T. ) ;
#309 = DIRECTION ( 'NONE',  ( 0.000000000000000000, 0.000000000000000000, 1.000000000000000000 ) ) ;
#310 = CARTESIAN_POINT ( 'NONE',  ( -70.31235131860074716, 56.73394953399987628, 0.000000000000000000 ) ) ;
#311 = CIRCLE ( 'NONE', #358, 25.39999999999999858 ) ;
#312 = CARTESIAN_POINT ( 'NONE',  ( 0.000000000000000000, 0.000000000000000000, 0.000000000000000000 ) ) ;
#313 = LOCAL_TIME ( 9, 57, 20.00000000000000000, #343 ) ;
#314 = DATE_AND_TIME ( #190, #50 ) ;
#315 = CC_DESIGN_SECURITY_CLASSIFICATION ( #230, ( #85 ) ) ;
#316 = ORIENTED_EDGE ( 'NONE', *, *, #390, .T. ) ;
#317 = PERSON_AND_ORGANIZATION ( #119, #191 ) ;
#318 = CALENDAR_DATE ( 2024, 13, 5 ) ;
#319 = AXIS2_PLACEMENT_3D ( 'NONE', #216, #182, #244 ) ;
#320 = ORIENTED_EDGE ( 'NONE', *, *, #157, .F. ) ;
#321 = DIRECTION ( 'NONE',  ( 0.000000000000000000, 0.000000000000000000, 1.000000000000000000 ) ) ;
#322 = CLOSED_SHELL ( 'NONE', ( #97, #183, #277, #129, #228 ) ) ;
#323 = CARTESIAN_POINT ( 'NONE',  ( -59.18715662996812199, 31.33394953399995586, -25.39999999999999858 ) ) ;
#324 = CC_DESIGN_PERSON_AND_ORGANIZATION_ASSIGNMENT ( #5, #34, ( #85 ) ) ;
#325 = EDGE_LOOP ( 'NONE', ( #26, #316, #295, #76, #283 ) ) ;
#326 = DIRECTION ( 'NONE',  ( -1.000000000000000000, -0.000000000000000000, -0.000000000000000000 ) ) ;
#327 = AXIS2_PLACEMENT_3D ( 'NONE', #13, #151, #366 ) ;
#328 = DIRECTION ( 'NONE',  ( 1.000000000000000000, -0.000000000000000000, -0.000000000000000000 ) ) ;
#329 = CARTESIAN_POINT ( 'NONE',  ( -59.18715662996812199, 31.33394953399995586, 25.39999999999999858 ) ) ;
#330 = VECTOR ( 'NONE', #399, 1000.000000000000000 ) ;
#331 = DIRECTION ( 'NONE',  ( 0.000000000000000000, 0.000000000000000000, 1.000000000000000000 ) ) ;
#332 = CARTESIAN_POINT ( 'NONE',  ( -63.65626465923429578, 56.73394953400001128, 0.000000000000000000 ) ) ;
#333 = LOCAL_TIME ( 9, 57, 20.00000000000000000, #225 ) ;
#334 = AXIS2_PLACEMENT_3D ( 'NONE', #176, #179, #272 ) ;
#335 = CARTESIAN_POINT ( 'NONE',  ( -63.65626465923426736, 5.933949533999630432, 3.110602869834317097E-15 ) ) ;
#336 = DIRECTION ( 'NONE',  ( 1.000000000000000000, 0.000000000000000000, 0.000000000000000000 ) ) ;
#337 = DIRECTION ( 'NONE',  ( 0.000000000000000000, 0.000000000000000000, 1.000000000000000000 ) ) ;
#338 = DIRECTION ( 'NONE',  ( 0.000000000000000000, 0.000000000000000000, 1.000000000000000000 ) ) ;
#339 = FACE_OUTER_BOUND ( 'NONE', #262, .T. ) ;
#340 = DIRECTION ( 'NONE',  ( 0.000000000000000000, 1.000000000000000000, 0.000000000000000000 ) ) ;
#341 = DIRECTION ( 'NONE',  ( 1.000000000000000000, -0.000000000000000000, -0.000000000000000000 ) ) ;
#342 = ORIENTED_EDGE ( 'NONE', *, *, #379, .F. ) ;
#343 = COORDINATED_UNIVERSAL_TIME_OFFSET ( 8, 0, .AHEAD. ) ;
#344 = APPROVAL_STATUS ( 'not_yet_approved' ) ;
#345 = PERSON_AND_ORGANIZATION ( #119, #191 ) ;
#346 = CIRCLE ( 'NONE', #327, 25.39999999999999503 ) ;
#347 = PERSON_AND_ORGANIZATION_ROLE ( 'classification_officer' ) ;
#348 = VERTEX_POINT ( 'NONE', #310 ) ;
#349 = CIRCLE ( 'NONE', #14, 25.39999999999999858 ) ;
#350 = ORIENTED_EDGE ( 'NONE', *, *, #359, .T. ) ;
#351 = CIRCLE ( 'NONE', #401, 25.39999999999999858 ) ;
#352 = ORIENTED_EDGE ( 'NONE', *, *, #163, .F. ) ;
#353 = EDGE_CURVE ( 'NONE', #127, #164, #175, .T. ) ;
#354 = CLOSED_SHELL ( 'NONE', ( #75, #308, #152, #44, #39, #240 ) ) ;
#355 = VERTEX_POINT ( 'NONE', #365 ) ;
#356 = ORIENTED_EDGE ( 'NONE', *, *, #390, .F. ) ;
#357 = FACE_OUTER_BOUND ( 'NONE', #38, .T. ) ;
#358 = AXIS2_PLACEMENT_3D ( 'NONE', #217, #23, #56 ) ;
#359 = EDGE_CURVE ( 'NONE', #164, #103, #349, .T. ) ;
#360 = DIRECTION ( 'NONE',  ( 0.000000000000000000, 1.000000000000000000, 0.000000000000000000 ) ) ;
#361 = CARTESIAN_POINT ( 'NONE',  ( -751.0671566299681672, 31.33394953399995586, 0.000000000000000000 ) ) ;
#362 = CARTESIAN_POINT ( 'NONE',  ( -59.18715662996812199, 31.33394953399995586, 0.000000000000000000 ) ) ;
#363 = DIRECTION ( 'NONE',  ( -1.000000000000000000, -0.000000000000000000, -0.000000000000000000 ) ) ;
#364 = DIRECTION ( 'NONE',  ( 0.000000000000000000, 0.000000000000000000, -1.000000000000000000 ) ) ;
#365 = CARTESIAN_POINT ( 'NONE',  ( -70.31235131860073295, 31.33394953399995586, 25.39999999999999858 ) ) ;
#366 = DIRECTION ( 'NONE',  ( 0.000000000000000000, 0.000000000000000000, -1.000000000000000000 ) ) ;
#367 = DIRECTION ( 'NONE',  ( 0.000000000000000000, 1.224646799147353207E-16, 1.000000000000000000 ) ) ;
#368 = APPLICATION_CONTEXT ( 'configuration controlled 3d designs of mechanical parts and assemblies' ) ;
#369 = VECTOR ( 'NONE', #82, 1000.000000000000000 ) ;
#370 = EDGE_LOOP ( 'NONE', ( #11, #130 ) ) ;
#371 = DIRECTION ( 'NONE',  ( 0.000000000000000000, 0.000000000000000000, 1.000000000000000000 ) ) ;
#372 = EDGE_CURVE ( 'NONE', #134, #73, #196, .T. ) ;
#373 = MANIFOLD_SOLID_BREP ( '145285b-1-solid1', #322 ) ;
#374 = ORIENTED_EDGE ( 'NONE', *, *, #114, .T. ) ;
#375 = ORIENTED_EDGE ( 'NONE', *, *, #300, .F. ) ;
#376 = VECTOR ( 'NONE', #236, 1000.000000000000000 ) ;
#377 = DATE_AND_TIME ( #252, #333 ) ;
#378 = ORIENTED_EDGE ( 'NONE', *, *, #379, .T. ) ;
#379 = EDGE_CURVE ( 'NONE', #103, #355, #307, .T. ) ;
#380 = ORIENTED_EDGE ( 'NONE', *, *, #146, .F. ) ;
#381 = AXIS2_PLACEMENT_3D ( 'NONE', #398, #393, #148 ) ;
#382 = VERTEX_POINT ( 'NONE', #154 ) ;
#383 = CC_DESIGN_PERSON_AND_ORGANIZATION_ASSIGNMENT ( #224, #60, ( #69 ) ) ;
#384 = CC_DESIGN_APPROVAL ( #213, ( #69 ) ) ;
#385 = ORIENTED_EDGE ( 'NONE', *, *, #220, .F. ) ;
#386 = AXIS2_PLACEMENT_3D ( 'NONE', #116, #186, #125 ) ;
#387 = VERTEX_POINT ( 'NONE', #32 ) ;
#388 = ORIENTED_EDGE ( 'NONE', *, *, #285, .F. ) ;
#389 = CARTESIAN_POINT ( 'NONE',  ( -63.65626465923428157, 31.33394953399995586, 0.000000000000000000 ) ) ;
#390 = EDGE_CURVE ( 'NONE', #6, #189, #128, .T. ) ;
#391 = DIRECTION ( 'NONE',  ( -1.000000000000000000, 0.000000000000000000, 0.000000000000000000 ) ) ;
#392 = SPHERICAL_SURFACE ( 'NONE', #108, 687.8799999999999955 ) ;
#393 = DIRECTION ( 'NONE',  ( -0.000000000000000000, 0.000000000000000000, -1.000000000000000000 ) ) ;
#394 = DIRECTION ( 'NONE',  ( 0.000000000000000000, -0.000000000000000000, 1.000000000000000000 ) ) ;
#395 = CC_DESIGN_PERSON_AND_ORGANIZATION_ASSIGNMENT ( #345, #133, ( #85 ) ) ;
#396 = DIRECTION ( 'NONE',  ( 0.000000000000000000, 0.000000000000000000, -1.000000000000000000 ) ) ;
#397 = DIRECTION ( 'NONE',  ( -0.000000000000000000, 0.000000000000000000, -1.000000000000000000 ) ) ;
#398 = CARTESIAN_POINT ( 'NONE',  ( 158.6229137674056631, 31.33394953399995586, 0.000000000000000000 ) ) ;
#399 = DIRECTION ( 'NONE',  ( -1.000000000000000000, -0.000000000000000000, -0.000000000000000000 ) ) ;
#400 = PERSON_AND_ORGANIZATION ( #119, #191 ) ;
#401 = AXIS2_PLACEMENT_3D ( 'NONE', #22, #269, #247 ) ;
ENDSEC;
END-ISO-10303-21;
