ISO-10303-21;
HEADER;
FILE_DESCRIPTION (( 'STEP AP214' ),
    '1' );
FILE_NAME ('150002.STEP',
    '2019-07-04T02:24:07',
    ( '' ),
    ( '' ),
    'SwSTEP 2.0',
    'SolidWorks 2016',
    '' );
FILE_SCHEMA (( 'AUTOMOTIVE_DESIGN' ));
ENDSEC;

DATA;
#1 = CIRCLE ( 'NONE', #11, 66.29999999999999700 ) ;
#2 = DIRECTION ( 'NONE',  ( -0.0000000000000000000, 0.0000000000000000000, -1.000000000000000000 ) ) ;
#3 = SURFACE_STYLE_USAGE ( .BOTH. , #184 ) ;
#4 = CARTESIAN_POINT ( 'NONE',  ( 61.41773949624123900, 38.85842023547019200, 7.654042494670982300E-016 ) ) ;
#5 = CARTESIAN_POINT ( 'NONE',  ( 0.0000000000000000000, 0.0000000000000000000, 0.0000000000000000000 ) ) ;
#6 = CIRCLE ( 'NONE', #106, 66.29999999999999700 ) ;
#7 = DIRECTION ( 'NONE',  ( -1.000000000000000000, -6.937607244762875000E-016, -0.0000000000000000000 ) ) ;
#8 = EDGE_LOOP ( 'NONE', ( #138, #61, #159 ) ) ;
#9 = LINE ( 'NONE', #134, #121 ) ;
#10 = FILL_AREA_STYLE_COLOUR ( '', #128 ) ;
#11 = AXIS2_PLACEMENT_3D ( 'NONE', #166, #162, #23 ) ;
#12 = APPLICATION_PROTOCOL_DEFINITION ( 'draft international standard', 'automotive_design', 1998, #120 ) ;
#13 = ORIENTED_EDGE ( 'NONE', *, *, #114, .F. ) ;
#14 = AXIS2_PLACEMENT_3D ( 'NONE', #112, #175, #152 ) ;
#15 = ORIENTED_EDGE ( 'NONE', *, *, #99, .T. ) ;
#16 = UNCERTAINTY_MEASURE_WITH_UNIT (LENGTH_MEASURE( 1.000000000000000100E-005 ), #164, 'distance_accuracy_value', 'NONE');
#17 = AXIS2_PLACEMENT_3D ( 'NONE', #18, #139, #53 ) ;
#18 = CARTESIAN_POINT ( 'NONE',  ( 129.8060967416565200, 32.60842023547007800, 0.0000000000000000000 ) ) ;
#19 = CARTESIAN_POINT ( 'NONE',  ( 61.41773949624124600, 32.60842023547016300, 0.0000000000000000000 ) ) ;
#20 = DIRECTION ( 'NONE',  ( 1.000000000000000000, 0.0000000000000000000, 0.0000000000000000000 ) ) ;
#21 = DIRECTION ( 'NONE',  ( -8.496118506040342700E-032, 1.224646799147353200E-016, -1.000000000000000000 ) ) ;
#22 = CARTESIAN_POINT ( 'NONE',  ( 236.3060967416565500, 32.60842023547017700, 0.0000000000000000000 ) ) ;
#23 = DIRECTION ( 'NONE',  ( 0.0000000000000000000, 1.000000000000000000, 1.224646799147353200E-016 ) ) ;
#24 = ORIENTED_EDGE ( 'NONE', *, *, #118, .F. ) ;
#25 = AXIS2_PLACEMENT_3D ( 'NONE', #71, #90, #167 ) ;
#26 = FILL_AREA_STYLE ('',( #10 ) ) ;
#27 = VERTEX_POINT ( 'NONE', #65 ) ;
#28 = UNCERTAINTY_MEASURE_WITH_UNIT (LENGTH_MEASURE( 1.000000000000000100E-005 ), #135, 'distance_accuracy_value', 'NONE');
#29 = PRODUCT_DEFINITION ( 'Î´Öª', '', #42, #187 ) ;
#30 = ADVANCED_FACE ( 'NONE', ( #174 ), #123, .T. ) ;
#31 = AXIS2_PLACEMENT_3D ( 'NONE', #19, #132, #35 ) ;
#32 = SPHERICAL_SURFACE ( 'NONE', #190, 175.0000000000000300 ) ;
#33 = CARTESIAN_POINT ( 'NONE',  ( 57.97224564898158400, 32.60842023547016300, 0.0000000000000000000 ) ) ;
#34 = CARTESIAN_POINT ( 'NONE',  ( 63.80134312496617400, 38.85842023547018400, 0.0000000000000000000 ) ) ;
#35 = DIRECTION ( 'NONE',  ( 1.110223024625152400E-015, -1.000000000000000000, 0.0000000000000000000 ) ) ;
#36 =( NAMED_UNIT ( * ) PLANE_ANGLE_UNIT ( ) SI_UNIT ( $, .RADIAN. ) );
#37 = CARTESIAN_POINT ( 'NONE',  ( 129.8060967416565200, 32.60842023547007800, 0.0000000000000000000 ) ) ;
#38 = APPLICATION_PROTOCOL_DEFINITION ( 'draft international standard', 'automotive_design', 1998, #104 ) ;
#39 = CYLINDRICAL_SURFACE ( 'NONE', #14, 6.250000000000023100 ) ;
#40 = FACE_OUTER_BOUND ( 'NONE', #170, .T. ) ;
#41 =( GEOMETRIC_REPRESENTATION_CONTEXT ( 3 ) GLOBAL_UNCERTAINTY_ASSIGNED_CONTEXT ( ( #63 ) ) GLOBAL_UNIT_ASSIGNED_CONTEXT ( ( #142, #103, #84 ) ) REPRESENTATION_CONTEXT ( 'NONE', 'WORKASPACE' ) );
#42 = PRODUCT_DEFINITION_FORMATION_WITH_SPECIFIED_SOURCE ( 'ÈÎºÎ', '', #191, .NOT_KNOWN. ) ;
#43 = PRESENTATION_STYLE_ASSIGNMENT (( #3 ) ) ;
#44 =( GEOMETRIC_REPRESENTATION_CONTEXT ( 3 ) GLOBAL_UNCERTAINTY_ASSIGNED_CONTEXT ( ( #28 ) ) GLOBAL_UNIT_ASSIGNED_CONTEXT ( ( #135, #36, #56 ) ) REPRESENTATION_CONTEXT ( 'NONE', 'WORKASPACE' ) );
#45 = CYLINDRICAL_SURFACE ( 'NONE', #113, 6.250000000000023100 ) ;
#46 = ADVANCED_FACE ( 'NONE', ( #77 ), #157, .F. ) ;
#47 = ADVANCED_FACE ( 'NONE', ( #89 ), #39, .T. ) ;
#48 = EDGE_CURVE ( 'NONE', #27, #161, #188, .T. ) ;
#49 = SURFACE_STYLE_FILL_AREA ( #26 ) ;
#50 = VECTOR ( 'NONE', #183, 1000.000000000000000 ) ;
#51 = EDGE_LOOP ( 'NONE', ( #136, #74, #169 ) ) ;
#52 = ADVANCED_BREP_SHAPE_REPRESENTATION ( '150002', ( #93, #146 ), #44 ) ;
#53 = DIRECTION ( 'NONE',  ( -8.372722659314905900E-016, 1.000000000000000000, 0.0000000000000000000 ) ) ;
#54 = AXIS2_PLACEMENT_3D ( 'NONE', #66, #21, #85 ) ;
#55 = DIRECTION ( 'NONE',  ( -6.344131569286608000E-016, 1.000000000000000000, 0.0000000000000000000 ) ) ;
#56 =( NAMED_UNIT ( * ) SI_UNIT ( $, .STERADIAN. ) SOLID_ANGLE_UNIT ( ) );
#57 = PRESENTATION_LAYER_ASSIGNMENT (  '', '', ( #98 ) ) ;
#58 = DIRECTION ( 'NONE',  ( 0.0000000000000000000, -0.0000000000000000000, 1.000000000000000000 ) ) ;
#59 = ORIENTED_EDGE ( 'NONE', *, *, #114, .T. ) ;
#60 = AXIS2_PLACEMENT_3D ( 'NONE', #82, #79, #55 ) ;
#61 = ORIENTED_EDGE ( 'NONE', *, *, #160, .T. ) ;
#62 = MECHANICAL_DESIGN_GEOMETRIC_PRESENTATION_REPRESENTATION (  '', ( #98 ), #91 ) ;
#63 = UNCERTAINTY_MEASURE_WITH_UNIT (LENGTH_MEASURE( 1.000000000000000100E-005 ), #142, 'distance_accuracy_value', 'NONE');
#64 = DIRECTION ( 'NONE',  ( 1.110223024625152400E-015, -1.000000000000000000, 0.0000000000000000000 ) ) ;
#65 = CARTESIAN_POINT ( 'NONE',  ( 61.41773949624125400, 26.35842023547014200, 0.0000000000000000000 ) ) ;
#66 = CARTESIAN_POINT ( 'NONE',  ( 236.3060967416565500, 32.60842023547017700, 0.0000000000000000000 ) ) ;
#67 = CARTESIAN_POINT ( 'NONE',  ( 63.80134312496617400, 26.35842023547001700, -7.654042494670977300E-016 ) ) ;
#68 = SURFACE_STYLE_USAGE ( .BOTH. , #165 ) ;
#69 = EDGE_LOOP ( 'NONE', ( #154, #24, #150 ) ) ;
#70 = EDGE_LOOP ( 'NONE', ( #86, #116, #59, #96 ) ) ;
#71 = CARTESIAN_POINT ( 'NONE',  ( 61.41773949624124600, 32.60842023547016300, 0.0000000000000000000 ) ) ;
#72 = MECHANICAL_DESIGN_GEOMETRIC_PRESENTATION_REPRESENTATION (  '', ( #76 ), #41 ) ;
#73 = EDGE_CURVE ( 'NONE', #181, #172, #6, .T. ) ;
#74 = ORIENTED_EDGE ( 'NONE', *, *, #48, .T. ) ;
#75 = PRODUCT_RELATED_PRODUCT_CATEGORY ( 'part', '', ( #191 ) ) ;
#76 = STYLED_ITEM ( 'NONE', ( #43 ), #93 ) ;
#77 = FACE_OUTER_BOUND ( 'NONE', #69, .T. ) ;
#78 = CIRCLE ( 'NONE', #54, 175.0000000000000300 ) ;
#79 = DIRECTION ( 'NONE',  ( -0.0000000000000000000, 0.0000000000000000000, -1.000000000000000000 ) ) ;
#80 = SURFACE_STYLE_FILL_AREA ( #143 ) ;
#81 = AXIS2_PLACEMENT_3D ( 'NONE', #178, #133, #20 ) ;
#82 = CARTESIAN_POINT ( 'NONE',  ( 236.3060967416565500, 32.60842023547017700, 0.0000000000000000000 ) ) ;
#83 = DIRECTION ( 'NONE',  ( 0.0000000000000000000, -1.000000000000000000, 0.0000000000000000000 ) ) ;
#84 =( NAMED_UNIT ( * ) SI_UNIT ( $, .STERADIAN. ) SOLID_ANGLE_UNIT ( ) );
#85 = DIRECTION ( 'NONE',  ( 0.0000000000000000000, 1.000000000000000000, 1.224646799147353200E-016 ) ) ;
#86 = ORIENTED_EDGE ( 'NONE', *, *, #192, .F. ) ;
#87 = DIRECTION ( 'NONE',  ( -8.372722659314905900E-016, 1.000000000000000000, 0.0000000000000000000 ) ) ;
#88 =( NAMED_UNIT ( * ) PLANE_ANGLE_UNIT ( ) SI_UNIT ( $, .RADIAN. ) );
#89 = FACE_OUTER_BOUND ( 'NONE', #70, .T. ) ;
#90 = DIRECTION ( 'NONE',  ( -1.000000000000000000, -6.937607244762875000E-016, -0.0000000000000000000 ) ) ;
#91 =( GEOMETRIC_REPRESENTATION_CONTEXT ( 3 ) GLOBAL_UNCERTAINTY_ASSIGNED_CONTEXT ( ( #16 ) ) GLOBAL_UNIT_ASSIGNED_CONTEXT ( ( #164, #88, #182 ) ) REPRESENTATION_CONTEXT ( 'NONE', 'WORKASPACE' ) );
#92 = CIRCLE ( 'NONE', #81, 175.0000000000000000 ) ;
#93 = MANIFOLD_SOLID_BREP ( 'Ðý×ª1', #97 ) ;
#94 = CARTESIAN_POINT ( 'NONE',  ( 129.8060967416565200, 32.60842023547007800, 0.0000000000000000000 ) ) ;
#95 = SPHERICAL_SURFACE ( 'NONE', #110, 66.29999999999999700 ) ;
#96 = ORIENTED_EDGE ( 'NONE', *, *, #107, .F. ) ;
#97 = CLOSED_SHELL ( 'NONE', ( #149, #125, #171, #46, #47, #30 ) ) ;
#98 = STYLED_ITEM ( 'NONE', ( #151 ), #52 ) ;
#99 = EDGE_CURVE ( 'NONE', #27, #127, #78, .T. ) ;
#100 = ORIENTED_EDGE ( 'NONE', *, *, #48, .F. ) ;
#101 = AXIS2_PLACEMENT_3D ( 'NONE', #102, #153, #83 ) ;
#102 = CARTESIAN_POINT ( 'NONE',  ( 63.80134312496617400, 32.60842023547017000, 0.0000000000000000000 ) ) ;
#103 =( NAMED_UNIT ( * ) PLANE_ANGLE_UNIT ( ) SI_UNIT ( $, .RADIAN. ) );
#104 = APPLICATION_CONTEXT ( 'automotive_design' ) ;
#105 = DIRECTION ( 'NONE',  ( 1.000000000000000000, 0.0000000000000000000, 0.0000000000000000000 ) ) ;
#106 = AXIS2_PLACEMENT_3D ( 'NONE', #94, #58, #105 ) ;
#107 = EDGE_CURVE ( 'NONE', #161, #27, #186, .T. ) ;
#108 = ORIENTED_EDGE ( 'NONE', *, *, #192, .T. ) ;
#109 = ORIENTED_EDGE ( 'NONE', *, *, #107, .T. ) ;
#110 = AXIS2_PLACEMENT_3D ( 'NONE', #37, #163, #87 ) ;
#111 = ORIENTED_EDGE ( 'NONE', *, *, #126, .T. ) ;
#112 = CARTESIAN_POINT ( 'NONE',  ( 57.97224564898158400, 32.60842023547016300, 0.0000000000000000000 ) ) ;
#113 = AXIS2_PLACEMENT_3D ( 'NONE', #33, #176, #64 ) ;
#114 = EDGE_CURVE ( 'NONE', #147, #27, #119, .T. ) ;
#115 = CARTESIAN_POINT ( 'NONE',  ( 63.50609674165652800, 32.60842023547003500, 0.0000000000000000000 ) ) ;
#116 = ORIENTED_EDGE ( 'NONE', *, *, #118, .T. ) ;
#117 = DIRECTION ( 'NONE',  ( 0.0000000000000000000, -1.000000000000000000, 0.0000000000000000000 ) ) ;
#118 = EDGE_CURVE ( 'NONE', #181, #147, #124, .T. ) ;
#119 = LINE ( 'NONE', #180, #50 ) ;
#120 = APPLICATION_CONTEXT ( 'automotive_design' ) ;
#121 = VECTOR ( 'NONE', #179, 1000.000000000000000 ) ;
#122 = EDGE_LOOP ( 'NONE', ( #109, #15, #145 ) ) ;
#123 = SPHERICAL_SURFACE ( 'NONE', #60, 175.0000000000000300 ) ;
#124 = CIRCLE ( 'NONE', #168, 6.250000000000023100 ) ;
#125 = ADVANCED_FACE ( 'NONE', ( #40 ), #45, .T. ) ;
#126 = EDGE_CURVE ( 'NONE', #147, #181, #158, .T. ) ;
#127 = VERTEX_POINT ( 'NONE', #177 ) ;
#128 = COLOUR_RGB ( '',1.000000000000000000, 1.000000000000000000, 1.000000000000000000 ) ;
#129 = PRODUCT_DEFINITION_SHAPE ( 'NONE', 'NONE',  #29 ) ;
#130 = FACE_OUTER_BOUND ( 'NONE', #8, .T. ) ;
#131 = DIRECTION ( 'NONE',  ( -6.344131569286608000E-016, 1.000000000000000000, 0.0000000000000000000 ) ) ;
#132 = DIRECTION ( 'NONE',  ( -1.000000000000000000, -6.937607244762875000E-016, -0.0000000000000000000 ) ) ;
#133 = DIRECTION ( 'NONE',  ( -0.0000000000000000000, 0.0000000000000000000, 1.000000000000000000 ) ) ;
#134 = CARTESIAN_POINT ( 'NONE',  ( 57.97224564898157700, 38.85842023547019200, 7.654042494670986200E-016 ) ) ;
#135 =( LENGTH_UNIT ( ) NAMED_UNIT ( * ) SI_UNIT ( .MILLI., .METRE. ) );
#136 = ORIENTED_EDGE ( 'NONE', *, *, #99, .F. ) ;
#137 = SHAPE_DEFINITION_REPRESENTATION ( #129, #52 ) ;
#138 = ORIENTED_EDGE ( 'NONE', *, *, #126, .F. ) ;
#139 = DIRECTION ( 'NONE',  ( 0.0000000000000000000, 0.0000000000000000000, -1.000000000000000000 ) ) ;
#140 = EDGE_CURVE ( 'NONE', #161, #127, #92, .T. ) ;
#141 = DIRECTION ( 'NONE',  ( 1.000000000000000000, 0.0000000000000000000, 0.0000000000000000000 ) ) ;
#142 =( LENGTH_UNIT ( ) NAMED_UNIT ( * ) SI_UNIT ( .MILLI., .METRE. ) );
#143 = FILL_AREA_STYLE ('',( #155 ) ) ;
#144 = PRODUCT_CONTEXT ( 'NONE', #104, 'mechanical' ) ;
#145 = ORIENTED_EDGE ( 'NONE', *, *, #140, .F. ) ;
#146 = AXIS2_PLACEMENT_3D ( 'NONE', #5, #156, #141 ) ;
#147 = VERTEX_POINT ( 'NONE', #67 ) ;
#148 = COLOUR_RGB ( '',1.000000000000000000, 1.000000000000000000, 1.000000000000000000 ) ;
#149 = ADVANCED_FACE ( 'NONE', ( #189 ), #32, .T. ) ;
#150 = ORIENTED_EDGE ( 'NONE', *, *, #73, .T. ) ;
#151 = PRESENTATION_STYLE_ASSIGNMENT (( #68 ) ) ;
#152 = DIRECTION ( 'NONE',  ( 1.110223024625152400E-015, -1.000000000000000000, 0.0000000000000000000 ) ) ;
#153 = DIRECTION ( 'NONE',  ( -1.000000000000000000, -6.937607244762875000E-016, -0.0000000000000000000 ) ) ;
#154 = ORIENTED_EDGE ( 'NONE', *, *, #160, .F. ) ;
#155 = FILL_AREA_STYLE_COLOUR ( '', #148 ) ;
#156 = DIRECTION ( 'NONE',  ( 0.0000000000000000000, 0.0000000000000000000, 1.000000000000000000 ) ) ;
#157 = SPHERICAL_SURFACE ( 'NONE', #17, 66.29999999999999700 ) ;
#158 = CIRCLE ( 'NONE', #101, 6.250000000000023100 ) ;
#159 = ORIENTED_EDGE ( 'NONE', *, *, #73, .F. ) ;
#160 = EDGE_CURVE ( 'NONE', #147, #172, #1, .T. ) ;
#161 = VERTEX_POINT ( 'NONE', #4 ) ;
#162 = DIRECTION ( 'NONE',  ( -8.496118506040342700E-032, 1.224646799147353200E-016, -1.000000000000000000 ) ) ;
#163 = DIRECTION ( 'NONE',  ( 0.0000000000000000000, 0.0000000000000000000, -1.000000000000000000 ) ) ;
#164 =( LENGTH_UNIT ( ) NAMED_UNIT ( * ) SI_UNIT ( .MILLI., .METRE. ) );
#165 = SURFACE_SIDE_STYLE ('',( #80 ) ) ;
#166 = CARTESIAN_POINT ( 'NONE',  ( 129.8060967416565200, 32.60842023547007800, 0.0000000000000000000 ) ) ;
#167 = DIRECTION ( 'NONE',  ( 1.110223024625152400E-015, -1.000000000000000000, 0.0000000000000000000 ) ) ;
#168 = AXIS2_PLACEMENT_3D ( 'NONE', #185, #7, #117 ) ;
#169 = ORIENTED_EDGE ( 'NONE', *, *, #140, .T. ) ;
#170 = EDGE_LOOP ( 'NONE', ( #111, #108, #100, #13 ) ) ;
#171 = ADVANCED_FACE ( 'NONE', ( #130 ), #95, .F. ) ;
#172 = VERTEX_POINT ( 'NONE', #115 ) ;
#173 = PRESENTATION_LAYER_ASSIGNMENT (  '', '', ( #76 ) ) ;
#174 = FACE_OUTER_BOUND ( 'NONE', #51, .T. ) ;
#175 = DIRECTION ( 'NONE',  ( -1.000000000000000000, -6.937607244762875000E-016, -0.0000000000000000000 ) ) ;
#176 = DIRECTION ( 'NONE',  ( -1.000000000000000000, -6.937607244762875000E-016, -0.0000000000000000000 ) ) ;
#177 = CARTESIAN_POINT ( 'NONE',  ( 61.30609674165651800, 32.60842023547006400, 0.0000000000000000000 ) ) ;
#178 = CARTESIAN_POINT ( 'NONE',  ( 236.3060967416565500, 32.60842023547017700, 0.0000000000000000000 ) ) ;
#179 = DIRECTION ( 'NONE',  ( -1.000000000000000000, -6.937607244762875000E-016, -0.0000000000000000000 ) ) ;
#180 = CARTESIAN_POINT ( 'NONE',  ( 57.97224564898159100, 26.35842023547014200, 0.0000000000000000000 ) ) ;
#181 = VERTEX_POINT ( 'NONE', #34 ) ;
#182 =( NAMED_UNIT ( * ) SI_UNIT ( $, .STERADIAN. ) SOLID_ANGLE_UNIT ( ) );
#183 = DIRECTION ( 'NONE',  ( -1.000000000000000000, -6.937607244762875000E-016, -0.0000000000000000000 ) ) ;
#184 = SURFACE_SIDE_STYLE ('',( #49 ) ) ;
#185 = CARTESIAN_POINT ( 'NONE',  ( 63.80134312496617400, 32.60842023547017000, 0.0000000000000000000 ) ) ;
#186 = CIRCLE ( 'NONE', #31, 6.250000000000023100 ) ;
#187 = PRODUCT_DEFINITION_CONTEXT ( 'detailed design', #120, 'design' ) ;
#188 = CIRCLE ( 'NONE', #25, 6.250000000000023100 ) ;
#189 = FACE_OUTER_BOUND ( 'NONE', #122, .T. ) ;
#190 = AXIS2_PLACEMENT_3D ( 'NONE', #22, #2, #131 ) ;
#191 = PRODUCT ( '150002', '150002', '', ( #144 ) ) ;
#192 = EDGE_CURVE ( 'NONE', #181, #161, #9, .T. ) ;
ENDSEC;
END-ISO-10303-21;
