ISO-10303-21;
HEADER;
FILE_DESCRIPTION (( 'STEP AP214' ),
    '1' );
FILE_NAME ('150019.STEP',
    '2019-07-05T01:21:54',
    ( '' ),
    ( '' ),
    'SwSTEP 2.0',
    'SolidWorks 2016',
    '' );
FILE_SCHEMA (( 'AUTOMOTIVE_DESIGN' ));
ENDSEC;

DATA;
#1 = CARTESIAN_POINT ( 'NONE',  ( 115.9444912979632500, 46.19184047094031300, 0.0000000000000000000 ) ) ;
#2 = DIRECTION ( 'NONE',  ( -5.097671103624206300E-031, 1.224646799147353200E-016, -1.000000000000000000 ) ) ;
#3 =( GEOMETRIC_REPRESENTATION_CONTEXT ( 3 ) GLOBAL_UNCERTAINTY_ASSIGNED_CONTEXT ( ( #139 ) ) GLOBAL_UNIT_ASSIGNED_CONTEXT ( ( #37, #172, #169 ) ) REPRESENTATION_CONTEXT ( 'NONE', 'WORKASPACE' ) );
#4 = CARTESIAN_POINT ( 'NONE',  ( 115.9444912979630800, 84.24184047094028900, 2.329890535377837500E-015 ) ) ;
#5 = CARTESIAN_POINT ( 'NONE',  ( 536.5554213155558000, 65.21684047094034000, 0.0000000000000000000 ) ) ;
#6 = UNCERTAINTY_MEASURE_WITH_UNIT (LENGTH_MEASURE( 1.000000000000000100E-005 ), #118, 'distance_accuracy_value', 'NONE');
#7 = APPLICATION_PROTOCOL_DEFINITION ( 'draft international standard', 'automotive_design', 1998, #127 ) ;
#8 = EDGE_LOOP ( 'NONE', ( #21, #17, #86 ) ) ;
#9 = AXIS2_PLACEMENT_3D ( 'NONE', #140, #162, #163 ) ;
#10 = ORIENTED_EDGE ( 'NONE', *, *, #66, .F. ) ;
#11 = PRODUCT ( '150019', '150019', '', ( #111 ) ) ;
#12 = ORIENTED_EDGE ( 'NONE', *, *, #147, .F. ) ;
#13 = DIRECTION ( 'NONE',  ( -1.000000000000000000, -4.162564346857725200E-015, -0.0000000000000000000 ) ) ;
#14 = AXIS2_PLACEMENT_3D ( 'NONE', #108, #101, #71 ) ;
#15 = CYLINDRICAL_SURFACE ( 'NONE', #28, 19.02499999999998800 ) ;
#16 = DIRECTION ( 'NONE',  ( 4.376700491294969800E-015, -1.000000000000000000, 0.0000000000000000000 ) ) ;
#17 = ORIENTED_EDGE ( 'NONE', *, *, #57, .T. ) ;
#18 = CARTESIAN_POINT ( 'NONE',  ( 277.2554213155558500, 65.21684047094031200, 0.0000000000000000000 ) ) ;
#19 = CARTESIAN_POINT ( 'NONE',  ( 277.2554213155558500, 65.21684047094031200, 0.0000000000000000000 ) ) ;
#20 = SURFACE_STYLE_FILL_AREA ( #173 ) ;
#21 = ORIENTED_EDGE ( 'NONE', *, *, #150, .F. ) ;
#22 = DIRECTION ( 'NONE',  ( -1.000000000000000000, -4.162564346857725200E-015, -0.0000000000000000000 ) ) ;
#23 = AXIS2_PLACEMENT_3D ( 'NONE', #36, #120, #70 ) ;
#24 = DIRECTION ( 'NONE',  ( -1.000000000000000000, -4.162564346857725200E-015, -0.0000000000000000000 ) ) ;
#25 = DIRECTION ( 'NONE',  ( 0.0000000000000000000, 0.0000000000000000000, -1.000000000000000000 ) ) ;
#26 = LINE ( 'NONE', #4, #109 ) ;
#27 = AXIS2_PLACEMENT_3D ( 'NONE', #47, #2, #106 ) ;
#28 = AXIS2_PLACEMENT_3D ( 'NONE', #133, #13, #16 ) ;
#29 = VERTEX_POINT ( 'NONE', #82 ) ;
#30 = AXIS2_PLACEMENT_3D ( 'NONE', #5, #161, #84 ) ;
#31 = SURFACE_SIDE_STYLE ('',( #62 ) ) ;
#32 = FACE_OUTER_BOUND ( 'NONE', #8, .T. ) ;
#33 = MANIFOLD_SOLID_BREP ( 'Ðý×ª1', #175 ) ;
#34 =( NAMED_UNIT ( * ) PLANE_ANGLE_UNIT ( ) SI_UNIT ( $, .RADIAN. ) );
#35 = ORIENTED_EDGE ( 'NONE', *, *, #145, .T. ) ;
#36 = CARTESIAN_POINT ( 'NONE',  ( 124.0320243586942900, 65.21684047094032600, 0.0000000000000000000 ) ) ;
#37 =( LENGTH_UNIT ( ) NAMED_UNIT ( * ) SI_UNIT ( .MILLI., .METRE. ) );
#38 = CIRCLE ( 'NONE', #23, 19.02499999999999500 ) ;
#39 = ORIENTED_EDGE ( 'NONE', *, *, #105, .F. ) ;
#40 = ADVANCED_FACE ( 'NONE', ( #75 ), #43, .T. ) ;
#41 = ADVANCED_FACE ( 'NONE', ( #56 ), #42, .T. ) ;
#42 = CYLINDRICAL_SURFACE ( 'NONE', #92, 19.02499999999998800 ) ;
#43 = SPHERICAL_SURFACE ( 'NONE', #116, 154.4000000000000300 ) ;
#44 = AXIS2_PLACEMENT_3D ( 'NONE', #107, #152, #153 ) ;
#45 = DIRECTION ( 'NONE',  ( -0.0000000000000000000, 0.0000000000000000000, -1.000000000000000000 ) ) ;
#46 = FACE_OUTER_BOUND ( 'NONE', #189, .T. ) ;
#47 = CARTESIAN_POINT ( 'NONE',  ( 277.2554213155558500, 65.21684047094031200, 0.0000000000000000000 ) ) ;
#48 = DIRECTION ( 'NONE',  ( -4.061791553506670300E-015, 1.000000000000000000, 0.0000000000000000000 ) ) ;
#49 = DIRECTION ( 'NONE',  ( 4.376700491294967500E-015, -1.000000000000000000, 0.0000000000000000000 ) ) ;
#50 = SURFACE_STYLE_USAGE ( .BOTH. , #58 ) ;
#51 = ORIENTED_EDGE ( 'NONE', *, *, #94, .F. ) ;
#52 =( LENGTH_UNIT ( ) NAMED_UNIT ( * ) SI_UNIT ( .MILLI., .METRE. ) );
#53 =( GEOMETRIC_REPRESENTATION_CONTEXT ( 3 ) GLOBAL_UNCERTAINTY_ASSIGNED_CONTEXT ( ( #155 ) ) GLOBAL_UNIT_ASSIGNED_CONTEXT ( ( #52, #188, #124 ) ) REPRESENTATION_CONTEXT ( 'NONE', 'WORKASPACE' ) );
#54 = ADVANCED_FACE ( 'NONE', ( #125 ), #15, .T. ) ;
#55 = STYLED_ITEM ( 'NONE', ( #174 ), #121 ) ;
#56 = FACE_OUTER_BOUND ( 'NONE', #63, .T. ) ;
#57 = EDGE_CURVE ( 'NONE', #171, #119, #67, .T. ) ;
#58 = SURFACE_SIDE_STYLE ('',( #20 ) ) ;
#59 = CIRCLE ( 'NONE', #9, 19.02499999999997400 ) ;
#60 = AXIS2_PLACEMENT_3D ( 'NONE', #19, #183, #104 ) ;
#61 = LINE ( 'NONE', #1, #159 ) ;
#62 = SURFACE_STYLE_FILL_AREA ( #178 ) ;
#63 = EDGE_LOOP ( 'NONE', ( #158, #137, #149, #51 ) ) ;
#64 = AXIS2_PLACEMENT_3D ( 'NONE', #186, #122, #134 ) ;
#65 = DIRECTION ( 'NONE',  ( -4.314338178595166700E-015, 1.000000000000000000, 0.0000000000000000000 ) ) ;
#66 = EDGE_CURVE ( 'NONE', #114, #171, #61, .T. ) ;
#67 = CIRCLE ( 'NONE', #100, 19.02499999999999500 ) ;
#68 = DIRECTION ( 'NONE',  ( -1.000000000000000000, -4.162564346857725200E-015, -0.0000000000000000000 ) ) ;
#69 = ORIENTED_EDGE ( 'NONE', *, *, #79, .F. ) ;
#70 = DIRECTION ( 'NONE',  ( 4.376700491294967500E-015, -1.000000000000000000, 0.0000000000000000000 ) ) ;
#71 = DIRECTION ( 'NONE',  ( 0.0000000000000000000, 1.000000000000000000, 1.224646799147353200E-016 ) ) ;
#72 = CARTESIAN_POINT ( 'NONE',  ( 536.5554213155558000, 65.21684047094034000, 0.0000000000000000000 ) ) ;
#73 = FILL_AREA_STYLE_COLOUR ( '', #184 ) ;
#74 = PRODUCT_DEFINITION_SHAPE ( 'NONE', 'NONE',  #157 ) ;
#75 = FACE_OUTER_BOUND ( 'NONE', #126, .T. ) ;
#76 = EDGE_CURVE ( 'NONE', #114, #29, #176, .T. ) ;
#77 = PRESENTATION_LAYER_ASSIGNMENT (  '', '', ( #55 ) ) ;
#78 = STYLED_ITEM ( 'NONE', ( #90 ), #33 ) ;
#79 = EDGE_CURVE ( 'NONE', #114, #154, #59, .T. ) ;
#80 = ORIENTED_EDGE ( 'NONE', *, *, #79, .T. ) ;
#81 = SURFACE_STYLE_USAGE ( .BOTH. , #31 ) ;
#82 = CARTESIAN_POINT ( 'NONE',  ( 126.5554213155558000, 65.21684047093866400, 0.0000000000000000000 ) ) ;
#83 = CARTESIAN_POINT ( 'NONE',  ( 124.0320243586941900, 84.24184047094044600, 0.0000000000000000000 ) ) ;
#84 = DIRECTION ( 'NONE',  ( 1.000000000000000000, 0.0000000000000000000, 0.0000000000000000000 ) ) ;
#85 = PRODUCT_DEFINITION_CONTEXT ( 'detailed design', #127, 'design' ) ;
#86 = ORIENTED_EDGE ( 'NONE', *, *, #115, .T. ) ;
#87 = CARTESIAN_POINT ( 'NONE',  ( 126.9970623787617700, 46.19184047093773400, -2.329890535377949600E-015 ) ) ;
#88 = AXIS2_PLACEMENT_3D ( 'NONE', #72, #151, #48 ) ;
#89 = CARTESIAN_POINT ( 'NONE',  ( 124.0320243586942900, 65.21684047094032600, 0.0000000000000000000 ) ) ;
#90 = PRESENTATION_STYLE_ASSIGNMENT (( #81 ) ) ;
#91 = APPLICATION_CONTEXT ( 'automotive_design' ) ;
#92 = AXIS2_PLACEMENT_3D ( 'NONE', #132, #99, #182 ) ;
#93 = DIRECTION ( 'NONE',  ( 1.000000000000000000, 0.0000000000000000000, 0.0000000000000000000 ) ) ;
#94 = EDGE_CURVE ( 'NONE', #119, #171, #38, .T. ) ;
#95 = COLOUR_RGB ( '',1.000000000000000000, 1.000000000000000000, 1.000000000000000000 ) ;
#96 = SPHERICAL_SURFACE ( 'NONE', #177, 410.0000000000000000 ) ;
#97 = ORIENTED_EDGE ( 'NONE', *, *, #150, .T. ) ;
#98 = FILL_AREA_STYLE_COLOUR ( '', #95 ) ;
#99 = DIRECTION ( 'NONE',  ( -1.000000000000000000, -4.162564346857725200E-015, -0.0000000000000000000 ) ) ;
#100 = AXIS2_PLACEMENT_3D ( 'NONE', #89, #22, #49 ) ;
#101 = DIRECTION ( 'NONE',  ( -5.097671103624206300E-031, 1.224646799147353200E-016, -1.000000000000000000 ) ) ;
#102 = FACE_OUTER_BOUND ( 'NONE', #131, .T. ) ;
#103 = VERTEX_POINT ( 'NONE', #136 ) ;
#104 = DIRECTION ( 'NONE',  ( 1.000000000000000000, 0.0000000000000000000, 0.0000000000000000000 ) ) ;
#105 = EDGE_CURVE ( 'NONE', #154, #29, #148, .T. ) ;
#106 = DIRECTION ( 'NONE',  ( 0.0000000000000000000, 1.000000000000000000, 1.224646799147353200E-016 ) ) ;
#107 = CARTESIAN_POINT ( 'NONE',  ( 126.9970623787616500, 65.21684047094034000, 0.0000000000000000000 ) ) ;
#108 = CARTESIAN_POINT ( 'NONE',  ( 536.5554213155558000, 65.21684047094034000, 0.0000000000000000000 ) ) ;
#109 = VECTOR ( 'NONE', #24, 1000.000000000000000 ) ;
#110 = DIRECTION ( 'NONE',  ( -4.061791553506670300E-015, 1.000000000000000000, 0.0000000000000000000 ) ) ;
#111 = PRODUCT_CONTEXT ( 'NONE', #91, 'mechanical' ) ;
#112 = ORIENTED_EDGE ( 'NONE', *, *, #105, .T. ) ;
#113 = ORIENTED_EDGE ( 'NONE', *, *, #76, .F. ) ;
#114 = VERTEX_POINT ( 'NONE', #87 ) ;
#115 = EDGE_CURVE ( 'NONE', #119, #103, #179, .T. ) ;
#116 = AXIS2_PLACEMENT_3D ( 'NONE', #18, #45, #65 ) ;
#117 = CIRCLE ( 'NONE', #27, 154.4000000000000300 ) ;
#118 =( LENGTH_UNIT ( ) NAMED_UNIT ( * ) SI_UNIT ( .MILLI., .METRE. ) );
#119 = VERTEX_POINT ( 'NONE', #83 ) ;
#120 = DIRECTION ( 'NONE',  ( -1.000000000000000000, -4.162564346857725200E-015, -0.0000000000000000000 ) ) ;
#121 = ADVANCED_BREP_SHAPE_REPRESENTATION ( '150019', ( #33, #142 ), #53 ) ;
#122 = DIRECTION ( 'NONE',  ( -0.0000000000000000000, 0.0000000000000000000, -1.000000000000000000 ) ) ;
#123 = CARTESIAN_POINT ( 'NONE',  ( 0.0000000000000000000, 0.0000000000000000000, 0.0000000000000000000 ) ) ;
#124 =( NAMED_UNIT ( * ) SI_UNIT ( $, .STERADIAN. ) SOLID_ANGLE_UNIT ( ) );
#125 = FACE_OUTER_BOUND ( 'NONE', #191, .T. ) ;
#126 = EDGE_LOOP ( 'NONE', ( #165, #97, #160 ) ) ;
#127 = APPLICATION_CONTEXT ( 'automotive_design' ) ;
#128 = ORIENTED_EDGE ( 'NONE', *, *, #57, .F. ) ;
#129 = ADVANCED_FACE ( 'NONE', ( #32 ), #170, .T. ) ;
#130 = ADVANCED_FACE ( 'NONE', ( #46 ), #187, .F. ) ;
#131 = EDGE_LOOP ( 'NONE', ( #69, #146, #39 ) ) ;
#132 = CARTESIAN_POINT ( 'NONE',  ( 115.9444912979631700, 65.21684047094029800, 0.0000000000000000000 ) ) ;
#133 = CARTESIAN_POINT ( 'NONE',  ( 115.9444912979631700, 65.21684047094029800, 0.0000000000000000000 ) ) ;
#134 = DIRECTION ( 'NONE',  ( -4.314338178595166700E-015, 1.000000000000000000, 0.0000000000000000000 ) ) ;
#135 = SHAPE_DEFINITION_REPRESENTATION ( #74, #121 ) ;
#136 = CARTESIAN_POINT ( 'NONE',  ( 122.8554213155558300, 65.21684047093967300, 0.0000000000000000000 ) ) ;
#137 = ORIENTED_EDGE ( 'NONE', *, *, #147, .T. ) ;
#138 = CARTESIAN_POINT ( 'NONE',  ( 124.0320243586943700, 46.19184047093954600, -2.329890535377854100E-015 ) ) ;
#139 = UNCERTAINTY_MEASURE_WITH_UNIT (LENGTH_MEASURE( 1.000000000000000100E-005 ), #37, 'distance_accuracy_value', 'NONE');
#140 = CARTESIAN_POINT ( 'NONE',  ( 126.9970623787616500, 65.21684047094034000, 0.0000000000000000000 ) ) ;
#141 = CIRCLE ( 'NONE', #44, 19.02499999999997400 ) ;
#142 = AXIS2_PLACEMENT_3D ( 'NONE', #123, #143, #93 ) ;
#143 = DIRECTION ( 'NONE',  ( 0.0000000000000000000, 0.0000000000000000000, 1.000000000000000000 ) ) ;
#144 = APPLICATION_PROTOCOL_DEFINITION ( 'draft international standard', 'automotive_design', 1998, #91 ) ;
#145 = EDGE_CURVE ( 'NONE', #154, #119, #26, .T. ) ;
#146 = ORIENTED_EDGE ( 'NONE', *, *, #76, .T. ) ;
#147 = EDGE_CURVE ( 'NONE', #154, #114, #141, .T. ) ;
#148 = CIRCLE ( 'NONE', #30, 410.0000000000000600 ) ;
#149 = ORIENTED_EDGE ( 'NONE', *, *, #66, .T. ) ;
#150 = EDGE_CURVE ( 'NONE', #171, #103, #117, .T. ) ;
#151 = DIRECTION ( 'NONE',  ( 0.0000000000000000000, 0.0000000000000000000, -1.000000000000000000 ) ) ;
#152 = DIRECTION ( 'NONE',  ( -1.000000000000000000, -4.162564346857725200E-015, -0.0000000000000000000 ) ) ;
#153 = DIRECTION ( 'NONE',  ( 4.376700491294973000E-015, -1.000000000000000000, 0.0000000000000000000 ) ) ;
#154 = VERTEX_POINT ( 'NONE', #166 ) ;
#155 = UNCERTAINTY_MEASURE_WITH_UNIT (LENGTH_MEASURE( 1.000000000000000100E-005 ), #52, 'distance_accuracy_value', 'NONE');
#156 = PRESENTATION_LAYER_ASSIGNMENT (  '', '', ( #78 ) ) ;
#157 = PRODUCT_DEFINITION ( 'Î´Öª', '', #168, #85 ) ;
#158 = ORIENTED_EDGE ( 'NONE', *, *, #145, .F. ) ;
#159 = VECTOR ( 'NONE', #68, 1000.000000000000000 ) ;
#160 = ORIENTED_EDGE ( 'NONE', *, *, #115, .F. ) ;
#161 = DIRECTION ( 'NONE',  ( 0.0000000000000000000, -0.0000000000000000000, 1.000000000000000000 ) ) ;
#162 = DIRECTION ( 'NONE',  ( -1.000000000000000000, -4.162564346857725200E-015, -0.0000000000000000000 ) ) ;
#163 = DIRECTION ( 'NONE',  ( 4.376700491294973000E-015, -1.000000000000000000, 0.0000000000000000000 ) ) ;
#164 = MECHANICAL_DESIGN_GEOMETRIC_PRESENTATION_REPRESENTATION (  '', ( #55 ), #3 ) ;
#165 = ORIENTED_EDGE ( 'NONE', *, *, #94, .T. ) ;
#166 = CARTESIAN_POINT ( 'NONE',  ( 126.9970623787616300, 84.24184047094124100, 0.0000000000000000000 ) ) ;
#167 = MECHANICAL_DESIGN_GEOMETRIC_PRESENTATION_REPRESENTATION (  '', ( #78 ), #180 ) ;
#168 = PRODUCT_DEFINITION_FORMATION_WITH_SPECIFIED_SOURCE ( 'ÈÎºÎ', '', #11, .NOT_KNOWN. ) ;
#169 =( NAMED_UNIT ( * ) SI_UNIT ( $, .STERADIAN. ) SOLID_ANGLE_UNIT ( ) );
#170 = SPHERICAL_SURFACE ( 'NONE', #64, 154.4000000000000300 ) ;
#171 = VERTEX_POINT ( 'NONE', #138 ) ;
#172 =( NAMED_UNIT ( * ) PLANE_ANGLE_UNIT ( ) SI_UNIT ( $, .RADIAN. ) );
#173 = FILL_AREA_STYLE ('',( #73 ) ) ;
#174 = PRESENTATION_STYLE_ASSIGNMENT (( #50 ) ) ;
#175 = CLOSED_SHELL ( 'NONE', ( #54, #190, #40, #129, #130, #41 ) ) ;
#176 = CIRCLE ( 'NONE', #14, 410.0000000000000000 ) ;
#177 = AXIS2_PLACEMENT_3D ( 'NONE', #185, #25, #110 ) ;
#178 = FILL_AREA_STYLE ('',( #98 ) ) ;
#179 = CIRCLE ( 'NONE', #60, 154.4000000000000300 ) ;
#180 =( GEOMETRIC_REPRESENTATION_CONTEXT ( 3 ) GLOBAL_UNCERTAINTY_ASSIGNED_CONTEXT ( ( #6 ) ) GLOBAL_UNIT_ASSIGNED_CONTEXT ( ( #118, #34, #192 ) ) REPRESENTATION_CONTEXT ( 'NONE', 'WORKASPACE' ) );
#181 = PRODUCT_RELATED_PRODUCT_CATEGORY ( 'part', '', ( #11 ) ) ;
#182 = DIRECTION ( 'NONE',  ( 4.376700491294969800E-015, -1.000000000000000000, 0.0000000000000000000 ) ) ;
#183 = DIRECTION ( 'NONE',  ( -0.0000000000000000000, 0.0000000000000000000, 1.000000000000000000 ) ) ;
#184 = COLOUR_RGB ( '',1.000000000000000000, 1.000000000000000000, 1.000000000000000000 ) ;
#185 = CARTESIAN_POINT ( 'NONE',  ( 536.5554213155558000, 65.21684047094034000, 0.0000000000000000000 ) ) ;
#186 = CARTESIAN_POINT ( 'NONE',  ( 277.2554213155558500, 65.21684047094031200, 0.0000000000000000000 ) ) ;
#187 = SPHERICAL_SURFACE ( 'NONE', #88, 410.0000000000000000 ) ;
#188 =( NAMED_UNIT ( * ) PLANE_ANGLE_UNIT ( ) SI_UNIT ( $, .RADIAN. ) );
#189 = EDGE_LOOP ( 'NONE', ( #113, #12, #112 ) ) ;
#190 = ADVANCED_FACE ( 'NONE', ( #102 ), #96, .F. ) ;
#191 = EDGE_LOOP ( 'NONE', ( #80, #35, #128, #10 ) ) ;
#192 =( NAMED_UNIT ( * ) SI_UNIT ( $, .STERADIAN. ) SOLID_ANGLE_UNIT ( ) );
ENDSEC;
END-ISO-10303-21;
