ISO-10303-21;
HEADER;
FILE_DESCRIPTION (( 'STEP AP214' ),
    '1' );
FILE_NAME ('150050.STEP',
    '2019-07-05T08:33:39',
    ( '' ),
    ( '' ),
    'SwSTEP 2.0',
    'SolidWorks 2016',
    '' );
FILE_SCHEMA (( 'AUTOMOTIVE_DESIGN' ));
ENDSEC;

DATA;
#1 = ORIENTED_EDGE ( 'NONE', *, *, #47, .T. ) ;
#2 = AXIS2_PLACEMENT_3D ( 'NONE', #86, #75, #132 ) ;
#3 =( NAMED_UNIT ( * ) PLANE_ANGLE_UNIT ( ) SI_UNIT ( $, .RADIAN. ) );
#4 = AXIS2_PLACEMENT_3D ( 'NONE', #158, #97, #143 ) ;
#5 = CARTESIAN_POINT ( 'NONE',  ( 126.9556284973466500, 65.21684047094034000, 0.0000000000000000000 ) ) ;
#6 = CONICAL_SURFACE ( 'NONE', #95, 12.52705114039262600, 0.01432587494970502500 ) ;
#7 = UNCERTAINTY_MEASURE_WITH_UNIT (LENGTH_MEASURE( 1.000000000000000100E-005 ), #109, 'distance_accuracy_value', 'NONE');
#8 = EDGE_CURVE ( 'NONE', #65, #96, #102, .T. ) ;
#9 = PRESENTATION_LAYER_ASSIGNMENT (  '', '', ( #42 ) ) ;
#10 = EDGE_LOOP ( 'NONE', ( #131, #170, #148 ) ) ;
#11 = SURFACE_STYLE_USAGE ( .BOTH. , #84 ) ;
#12 = ADVANCED_FACE ( 'NONE', ( #72 ), #133, .F. ) ;
#13 = STYLED_ITEM ( 'NONE', ( #192 ), #175 ) ;
#14 = SURFACE_STYLE_FILL_AREA ( #56 ) ;
#15 = DIRECTION ( 'NONE',  ( -0.0000000000000000000, 0.0000000000000000000, -1.000000000000000000 ) ) ;
#16 = FACE_OUTER_BOUND ( 'NONE', #10, .T. ) ;
#17 = DIRECTION ( 'NONE',  ( -8.496118506040342700E-032, 1.224646799147353200E-016, -1.000000000000000000 ) ) ;
#18 = SURFACE_SIDE_STYLE ('',( #101 ) ) ;
#19 = PRODUCT_CONTEXT ( 'NONE', #89, 'mechanical' ) ;
#20 = SPHERICAL_SURFACE ( 'NONE', #76, 28.30000000000001800 ) ;
#21 = SPHERICAL_SURFACE ( 'NONE', #53, 28.30000000000001800 ) ;
#22 = ORIENTED_EDGE ( 'NONE', *, *, #144, .T. ) ;
#23 = ORIENTED_EDGE ( 'NONE', *, *, #26, .T. ) ;
#24 = EDGE_CURVE ( 'NONE', #70, #139, #78, .T. ) ;
#25 = CARTESIAN_POINT ( 'NONE',  ( 150.8674862451275400, 65.21684047094032600, 0.0000000000000000000 ) ) ;
#26 = EDGE_CURVE ( 'NONE', #65, #70, #171, .T. ) ;
#27 =( NAMED_UNIT ( * ) SI_UNIT ( $, .STERADIAN. ) SOLID_ANGLE_UNIT ( ) );
#28 = DIRECTION ( 'NONE',  ( 0.0000000000000000000, -1.000000000000000000, 0.0000000000000000000 ) ) ;
#29 = VERTEX_POINT ( 'NONE', #119 ) ;
#30 =( NAMED_UNIT ( * ) PLANE_ANGLE_UNIT ( ) SI_UNIT ( $, .RADIAN. ) );
#31 = ORIENTED_EDGE ( 'NONE', *, *, #8, .F. ) ;
#32 = APPLICATION_PROTOCOL_DEFINITION ( 'draft international standard', 'automotive_design', 1998, #149 ) ;
#33 = CARTESIAN_POINT ( 'NONE',  ( 126.9556284973466500, 77.74389161133294100, 0.0000000000000000000 ) ) ;
#34 = EDGE_LOOP ( 'NONE', ( #58, #141, #152 ) ) ;
#35 = CIRCLE ( 'NONE', #138, 28.30000000000001800 ) ;
#36 = PRODUCT_RELATED_PRODUCT_CATEGORY ( 'part', '', ( #37 ) ) ;
#37 = PRODUCT ( '150050', '150050', '', ( #19 ) ) ;
#38 = VECTOR ( 'NONE', #103, 1000.000000000000100 ) ;
#39 = DIRECTION ( 'NONE',  ( -8.496118506040342700E-032, 1.224646799147353200E-016, -1.000000000000000000 ) ) ;
#40 = DIRECTION ( 'NONE',  ( 0.0000000000000000000, -0.0000000000000000000, 1.000000000000000000 ) ) ;
#41 = CARTESIAN_POINT ( 'NONE',  ( 126.9556284973466500, 65.21684047094034000, 0.0000000000000000000 ) ) ;
#42 = STYLED_ITEM ( 'NONE', ( #145 ), #62 ) ;
#43 = CIRCLE ( 'NONE', #2, 12.52705114039263300 ) ;
#44 = DIRECTION ( 'NONE',  ( 0.0000000000000000000, 1.000000000000000000, 0.0000000000000000000 ) ) ;
#45 = CARTESIAN_POINT ( 'NONE',  ( 126.9556284973466500, 77.74389161133297000, 0.0000000000000000000 ) ) ;
#46 = CARTESIAN_POINT ( 'NONE',  ( 167.5674862451275000, 65.21684047094032600, 0.0000000000000000000 ) ) ;
#47 = EDGE_CURVE ( 'NONE', #29, #96, #35, .T. ) ;
#48 = ORIENTED_EDGE ( 'NONE', *, *, #155, .F. ) ;
#49 = EDGE_LOOP ( 'NONE', ( #31, #154, #1 ) ) ;
#50 =( GEOMETRIC_REPRESENTATION_CONTEXT ( 3 ) GLOBAL_UNCERTAINTY_ASSIGNED_CONTEXT ( ( #92 ) ) GLOBAL_UNIT_ASSIGNED_CONTEXT ( ( #166, #30, #147 ) ) REPRESENTATION_CONTEXT ( 'NONE', 'WORKASPACE' ) );
#51 = FACE_OUTER_BOUND ( 'NONE', #49, .T. ) ;
#52 = AXIS2_PLACEMENT_3D ( 'NONE', #5, #100, #73 ) ;
#53 = AXIS2_PLACEMENT_3D ( 'NONE', #111, #15, #173 ) ;
#54 = EDGE_CURVE ( 'NONE', #139, #93, #99, .T. ) ;
#55 = CARTESIAN_POINT ( 'NONE',  ( 150.8674862451275400, 65.21684047094032600, 0.0000000000000000000 ) ) ;
#56 = FILL_AREA_STYLE ('',( #160 ) ) ;
#57 = CARTESIAN_POINT ( 'NONE',  ( 0.0000000000000000000, 0.0000000000000000000, 0.0000000000000000000 ) ) ;
#58 = ORIENTED_EDGE ( 'NONE', *, *, #122, .F. ) ;
#59 = DIRECTION ( 'NONE',  ( 0.0000000000000000000, 0.0000000000000000000, -1.000000000000000000 ) ) ;
#60 = AXIS2_PLACEMENT_3D ( 'NONE', #71, #191, #140 ) ;
#61 = COLOUR_RGB ( '',1.000000000000000000, 1.000000000000000000, 1.000000000000000000 ) ;
#62 = MANIFOLD_SOLID_BREP ( 'Ðý×ª1', #188 ) ;
#63 = AXIS2_PLACEMENT_3D ( 'NONE', #25, #39, #189 ) ;
#64 = DIRECTION ( 'NONE',  ( -6.530723674265629100E-016, 1.000000000000000000, 0.0000000000000000000 ) ) ;
#65 = VERTEX_POINT ( 'NONE', #146 ) ;
#66 = MECHANICAL_DESIGN_GEOMETRIC_PRESENTATION_REPRESENTATION (  '', ( #13 ), #50 ) ;
#67 = CARTESIAN_POINT ( 'NONE',  ( 126.9556284973466500, 65.21684047094034000, 0.0000000000000000000 ) ) ;
#68 =( NAMED_UNIT ( * ) PLANE_ANGLE_UNIT ( ) SI_UNIT ( $, .RADIAN. ) );
#69 = PRESENTATION_LAYER_ASSIGNMENT (  '', '', ( #13 ) ) ;
#70 = VERTEX_POINT ( 'NONE', #123 ) ;
#71 = CARTESIAN_POINT ( 'NONE',  ( 125.4806395469586000, 65.21684047094032600, 0.0000000000000000000 ) ) ;
#72 = FACE_OUTER_BOUND ( 'NONE', #34, .T. ) ;
#73 = DIRECTION ( 'NONE',  ( 0.0000000000000000000, 1.000000000000000000, 0.0000000000000000000 ) ) ;
#74 = SURFACE_STYLE_USAGE ( .BOTH. , #18 ) ;
#75 = DIRECTION ( 'NONE',  ( -1.000000000000000000, -6.937607244762875000E-016, -0.0000000000000000000 ) ) ;
#76 = AXIS2_PLACEMENT_3D ( 'NONE', #55, #179, #178 ) ;
#77 = DIRECTION ( 'NONE',  ( 1.000000000000000000, 0.0000000000000000000, 0.0000000000000000000 ) ) ;
#78 = CIRCLE ( 'NONE', #187, 12.52705114039263300 ) ;
#79 = PRODUCT_DEFINITION_SHAPE ( 'NONE', 'NONE',  #130 ) ;
#80 = FACE_OUTER_BOUND ( 'NONE', #167, .T. ) ;
#81 = ADVANCED_FACE ( 'NONE', ( #80 ), #6, .T. ) ;
#82 = DIRECTION ( 'NONE',  ( 1.000000000000000000, 0.0000000000000000000, 0.0000000000000000000 ) ) ;
#83 = CARTESIAN_POINT ( 'NONE',  ( 167.5674862451275000, 65.21684047094032600, 0.0000000000000000000 ) ) ;
#84 = SURFACE_SIDE_STYLE ('',( #14 ) ) ;
#85 = CARTESIAN_POINT ( 'NONE',  ( 167.5674862451275000, 65.21684047094032600, 0.0000000000000000000 ) ) ;
#86 = CARTESIAN_POINT ( 'NONE',  ( 126.9556284973466500, 65.21684047094034000, 0.0000000000000000000 ) ) ;
#87 = EDGE_CURVE ( 'NONE', #29, #65, #117, .T. ) ;
#88 = VECTOR ( 'NONE', #121, 1000.000000000000100 ) ;
#89 = APPLICATION_CONTEXT ( 'automotive_design' ) ;
#90 = AXIS2_PLACEMENT_3D ( 'NONE', #137, #156, #64 ) ;
#91 = CIRCLE ( 'NONE', #105, 42.49999999999998600 ) ;
#92 = UNCERTAINTY_MEASURE_WITH_UNIT (LENGTH_MEASURE( 1.000000000000000100E-005 ), #166, 'distance_accuracy_value', 'NONE');
#93 = VERTEX_POINT ( 'NONE', #161 ) ;
#94 = ORIENTED_EDGE ( 'NONE', *, *, #87, .F. ) ;
#95 = AXIS2_PLACEMENT_3D ( 'NONE', #41, #125, #44 ) ;
#96 = VERTEX_POINT ( 'NONE', #177 ) ;
#97 = DIRECTION ( 'NONE',  ( -1.000000000000000000, -6.937607244762875000E-016, -0.0000000000000000000 ) ) ;
#98 = CARTESIAN_POINT ( 'NONE',  ( 126.9556284973466500, 52.68978933054771800, 1.534121308183702900E-015 ) ) ;
#99 = CIRCLE ( 'NONE', #165, 42.49999999999998600 ) ;
#100 = DIRECTION ( 'NONE',  ( 1.000000000000000000, 6.937607244762875000E-016, 0.0000000000000000000 ) ) ;
#101 = SURFACE_STYLE_FILL_AREA ( #128 ) ;
#102 = CIRCLE ( 'NONE', #63, 28.30000000000001800 ) ;
#103 = DIRECTION ( 'NONE',  ( 0.9998973864084355100, 0.01432538493652656100, 0.0000000000000000000 ) ) ;
#104 = EDGE_LOOP ( 'NONE', ( #134, #106, #185 ) ) ;
#105 = AXIS2_PLACEMENT_3D ( 'NONE', #46, #17, #113 ) ;
#106 = ORIENTED_EDGE ( 'NONE', *, *, #8, .T. ) ;
#107 = ORIENTED_EDGE ( 'NONE', *, *, #114, .F. ) ;
#108 = ADVANCED_FACE ( 'NONE', ( #51 ), #21, .T. ) ;
#109 =( LENGTH_UNIT ( ) NAMED_UNIT ( * ) SI_UNIT ( .MILLI., .METRE. ) );
#110 = AXIS2_PLACEMENT_3D ( 'NONE', #85, #59, #164 ) ;
#111 = CARTESIAN_POINT ( 'NONE',  ( 150.8674862451275400, 65.21684047094032600, 0.0000000000000000000 ) ) ;
#112 = DIRECTION ( 'NONE',  ( -1.000000000000000000, -6.937607244762875000E-016, -0.0000000000000000000 ) ) ;
#113 = DIRECTION ( 'NONE',  ( 0.0000000000000000000, 1.000000000000000000, 1.224646799147353000E-016 ) ) ;
#114 = EDGE_CURVE ( 'NONE', #65, #29, #115, .T. ) ;
#115 = CIRCLE ( 'NONE', #4, 12.50591918747560200 ) ;
#116 =( GEOMETRIC_REPRESENTATION_CONTEXT ( 3 ) GLOBAL_UNCERTAINTY_ASSIGNED_CONTEXT ( ( #150 ) ) GLOBAL_UNIT_ASSIGNED_CONTEXT ( ( #129, #3, #151 ) ) REPRESENTATION_CONTEXT ( 'NONE', 'WORKASPACE' ) );
#117 = CIRCLE ( 'NONE', #60, 12.50591918747560200 ) ;
#118 = FACE_OUTER_BOUND ( 'NONE', #190, .T. ) ;
#119 = CARTESIAN_POINT ( 'NONE',  ( 125.4806395469586000, 77.72275965841593900, 0.0000000000000000000 ) ) ;
#120 = AXIS2_PLACEMENT_3D ( 'NONE', #57, #163, #77 ) ;
#121 = DIRECTION ( 'NONE',  ( 0.9998973864084355100, -0.01432538493652517300, 1.754353680907011700E-018 ) ) ;
#122 = EDGE_CURVE ( 'NONE', #70, #93, #91, .T. ) ;
#123 = CARTESIAN_POINT ( 'NONE',  ( 126.9556284973466500, 52.68978933054769700, -1.534121308183700500E-015 ) ) ;
#124 = DIRECTION ( 'NONE',  ( -0.0000000000000000000, 0.0000000000000000000, 1.000000000000000000 ) ) ;
#125 = DIRECTION ( 'NONE',  ( 1.000000000000000000, 6.937607244762875000E-016, 0.0000000000000000000 ) ) ;
#126 = FILL_AREA_STYLE_COLOUR ( '', #186 ) ;
#127 = SPHERICAL_SURFACE ( 'NONE', #110, 42.49999999999998600 ) ;
#128 = FILL_AREA_STYLE ('',( #126 ) ) ;
#129 =( LENGTH_UNIT ( ) NAMED_UNIT ( * ) SI_UNIT ( .MILLI., .METRE. ) );
#130 = PRODUCT_DEFINITION ( 'Î´Öª', '', #162, #182 ) ;
#131 = ORIENTED_EDGE ( 'NONE', *, *, #24, .F. ) ;
#132 = DIRECTION ( 'NONE',  ( 0.0000000000000000000, -1.000000000000000000, 0.0000000000000000000 ) ) ;
#133 = SPHERICAL_SURFACE ( 'NONE', #90, 42.49999999999998600 ) ;
#134 = ORIENTED_EDGE ( 'NONE', *, *, #87, .T. ) ;
#135 = ADVANCED_FACE ( 'NONE', ( #180 ), #20, .T. ) ;
#136 = ORIENTED_EDGE ( 'NONE', *, *, #24, .T. ) ;
#137 = CARTESIAN_POINT ( 'NONE',  ( 167.5674862451275000, 65.21684047094032600, 0.0000000000000000000 ) ) ;
#138 = AXIS2_PLACEMENT_3D ( 'NONE', #176, #124, #82 ) ;
#139 = VERTEX_POINT ( 'NONE', #33 ) ;
#140 = DIRECTION ( 'NONE',  ( 0.0000000000000000000, -1.000000000000000000, 0.0000000000000000000 ) ) ;
#141 = ORIENTED_EDGE ( 'NONE', *, *, #144, .F. ) ;
#142 = DIRECTION ( 'NONE',  ( 1.000000000000000000, 0.0000000000000000000, 0.0000000000000000000 ) ) ;
#143 = DIRECTION ( 'NONE',  ( 0.0000000000000000000, -1.000000000000000000, 0.0000000000000000000 ) ) ;
#144 = EDGE_CURVE ( 'NONE', #139, #70, #43, .T. ) ;
#145 = PRESENTATION_STYLE_ASSIGNMENT (( #11 ) ) ;
#146 = CARTESIAN_POINT ( 'NONE',  ( 125.4806395469586000, 52.71092128346472800, 1.532827349258725900E-015 ) ) ;
#147 =( NAMED_UNIT ( * ) SI_UNIT ( $, .STERADIAN. ) SOLID_ANGLE_UNIT ( ) );
#148 = ORIENTED_EDGE ( 'NONE', *, *, #54, .F. ) ;
#149 = APPLICATION_CONTEXT ( 'automotive_design' ) ;
#150 = UNCERTAINTY_MEASURE_WITH_UNIT (LENGTH_MEASURE( 1.000000000000000100E-005 ), #129, 'distance_accuracy_value', 'NONE');
#151 =( NAMED_UNIT ( * ) SI_UNIT ( $, .STERADIAN. ) SOLID_ANGLE_UNIT ( ) );
#152 = ORIENTED_EDGE ( 'NONE', *, *, #54, .T. ) ;
#153 = ORIENTED_EDGE ( 'NONE', *, *, #155, .T. ) ;
#154 = ORIENTED_EDGE ( 'NONE', *, *, #114, .T. ) ;
#155 = EDGE_CURVE ( 'NONE', #29, #139, #159, .T. ) ;
#156 = DIRECTION ( 'NONE',  ( 0.0000000000000000000, 0.0000000000000000000, -1.000000000000000000 ) ) ;
#157 = ADVANCED_FACE ( 'NONE', ( #16 ), #127, .F. ) ;
#158 = CARTESIAN_POINT ( 'NONE',  ( 125.4806395469586000, 65.21684047094032600, 0.0000000000000000000 ) ) ;
#159 = LINE ( 'NONE', #45, #38 ) ;
#160 = FILL_AREA_STYLE_COLOUR ( '', #61 ) ;
#161 = CARTESIAN_POINT ( 'NONE',  ( 125.0674862451275100, 65.21684047094029800, 0.0000000000000000000 ) ) ;
#162 = PRODUCT_DEFINITION_FORMATION_WITH_SPECIFIED_SOURCE ( 'ÈÎºÎ', '', #37, .NOT_KNOWN. ) ;
#163 = DIRECTION ( 'NONE',  ( 0.0000000000000000000, 0.0000000000000000000, 1.000000000000000000 ) ) ;
#164 = DIRECTION ( 'NONE',  ( -6.530723674265629100E-016, 1.000000000000000000, 0.0000000000000000000 ) ) ;
#165 = AXIS2_PLACEMENT_3D ( 'NONE', #83, #40, #142 ) ;
#166 =( LENGTH_UNIT ( ) NAMED_UNIT ( * ) SI_UNIT ( .MILLI., .METRE. ) );
#167 = EDGE_LOOP ( 'NONE', ( #107, #23, #136, #48 ) ) ;
#168 = MECHANICAL_DESIGN_GEOMETRIC_PRESENTATION_REPRESENTATION (  '', ( #42 ), #174 ) ;
#169 = SHAPE_DEFINITION_REPRESENTATION ( #79, #175 ) ;
#170 = ORIENTED_EDGE ( 'NONE', *, *, #122, .T. ) ;
#171 = LINE ( 'NONE', #98, #88 ) ;
#172 = ADVANCED_FACE ( 'NONE', ( #118 ), #183, .T. ) ;
#173 = DIRECTION ( 'NONE',  ( -9.807623892448372100E-016, 1.000000000000000000, 0.0000000000000000000 ) ) ;
#174 =( GEOMETRIC_REPRESENTATION_CONTEXT ( 3 ) GLOBAL_UNCERTAINTY_ASSIGNED_CONTEXT ( ( #7 ) ) GLOBAL_UNIT_ASSIGNED_CONTEXT ( ( #109, #68, #27 ) ) REPRESENTATION_CONTEXT ( 'NONE', 'WORKASPACE' ) );
#175 = ADVANCED_BREP_SHAPE_REPRESENTATION ( '150050', ( #62, #120 ), #116 ) ;
#176 = CARTESIAN_POINT ( 'NONE',  ( 150.8674862451275400, 65.21684047094032600, 0.0000000000000000000 ) ) ;
#177 = CARTESIAN_POINT ( 'NONE',  ( 122.5674862451275100, 65.21684047094031200, 0.0000000000000000000 ) ) ;
#178 = DIRECTION ( 'NONE',  ( -9.807623892448372100E-016, 1.000000000000000000, 0.0000000000000000000 ) ) ;
#179 = DIRECTION ( 'NONE',  ( -0.0000000000000000000, 0.0000000000000000000, -1.000000000000000000 ) ) ;
#180 = FACE_OUTER_BOUND ( 'NONE', #104, .T. ) ;
#181 = APPLICATION_PROTOCOL_DEFINITION ( 'draft international standard', 'automotive_design', 1998, #89 ) ;
#182 = PRODUCT_DEFINITION_CONTEXT ( 'detailed design', #149, 'design' ) ;
#183 = CONICAL_SURFACE ( 'NONE', #52, 12.52705114039262600, 0.01432587494970502500 ) ;
#184 = ORIENTED_EDGE ( 'NONE', *, *, #26, .F. ) ;
#185 = ORIENTED_EDGE ( 'NONE', *, *, #47, .F. ) ;
#186 = COLOUR_RGB ( '',1.000000000000000000, 1.000000000000000000, 1.000000000000000000 ) ;
#187 = AXIS2_PLACEMENT_3D ( 'NONE', #67, #112, #28 ) ;
#188 = CLOSED_SHELL ( 'NONE', ( #135, #81, #157, #12, #172, #108 ) ) ;
#189 = DIRECTION ( 'NONE',  ( 0.0000000000000000000, 1.000000000000000000, 1.224646799147353200E-016 ) ) ;
#190 = EDGE_LOOP ( 'NONE', ( #184, #94, #153, #22 ) ) ;
#191 = DIRECTION ( 'NONE',  ( -1.000000000000000000, -6.937607244762875000E-016, -0.0000000000000000000 ) ) ;
#192 = PRESENTATION_STYLE_ASSIGNMENT (( #74 ) ) ;
ENDSEC;
END-ISO-10303-21;
