ISO-10303-21;
HEADER;
FILE_DESCRIPTION (( 'STEP AP214' ),
    '1' );
FILE_NAME ('150053.STEP',
    '2019-07-05T08:57:17',
    ( '' ),
    ( '' ),
    'SwSTEP 2.0',
    'SolidWorks 2016',
    '' );
FILE_SCHEMA (( 'AUTOMOTIVE_DESIGN' ));
ENDSEC;

DATA;
#1 =( LENGTH_UNIT ( ) NAMED_UNIT ( * ) SI_UNIT ( .MILLI., .METRE. ) );
#2 =( GEOMETRIC_REPRESENTATION_CONTEXT ( 3 ) GLOBAL_UNCERTAINTY_ASSIGNED_CONTEXT ( ( #41 ) ) GLOBAL_UNIT_ASSIGNED_CONTEXT ( ( #1, #122, #151 ) ) REPRESENTATION_CONTEXT ( 'NONE', 'WORKASPACE' ) );
#3 = ORIENTED_EDGE ( 'NONE', *, *, #23, .F. ) ;
#4 = SPHERICAL_SURFACE ( 'NONE', #49, 84.90000000000003400 ) ;
#5 = PRODUCT_DEFINITION ( 'Î´Öª', '', #53, #180 ) ;
#6 = ADVANCED_FACE ( 'NONE', ( #98 ), #51, .T. ) ;
#7 = ADVANCED_BREP_SHAPE_REPRESENTATION ( '150053', ( #82, #184 ), #169 ) ;
#8 = SPHERICAL_SURFACE ( 'NONE', #54, 56.59999999999997300 ) ;
#9 = CYLINDRICAL_SURFACE ( 'NONE', #56, 24.99999999999992500 ) ;
#10 = DIRECTION ( 'NONE',  ( -1.000000000000000000, -6.937607244762875000E-016, -0.0000000000000000000 ) ) ;
#11 = DIRECTION ( 'NONE',  ( -1.000000000000000000, -6.937607244762875000E-016, -0.0000000000000000000 ) ) ;
#12 = CARTESIAN_POINT ( 'NONE',  ( 251.0194722395622200, 130.4336809418806500, 0.0000000000000000000 ) ) ;
#13 = DIRECTION ( 'NONE',  ( 0.0000000000000000000, -1.000000000000000000, 0.0000000000000000000 ) ) ;
#14 = DIRECTION ( 'NONE',  ( 0.0000000000000000000, 1.000000000000000000, 1.224646799147353200E-016 ) ) ;
#15 = FILL_AREA_STYLE_COLOUR ( '', #136 ) ;
#16 = AXIS2_PLACEMENT_3D ( 'NONE', #84, #67, #153 ) ;
#17 = FILL_AREA_STYLE ('',( #15 ) ) ;
#18 = ORIENTED_EDGE ( 'NONE', *, *, #137, .T. ) ;
#19 = SURFACE_STYLE_FILL_AREA ( #17 ) ;
#20 = PRODUCT ( '150053', '150053', '', ( #50 ) ) ;
#21 = CARTESIAN_POINT ( 'NONE',  ( 231.8889825959263100, 155.4336809418806000, 3.061616997868374000E-015 ) ) ;
#22 = SURFACE_STYLE_FILL_AREA ( #77 ) ;
#23 = EDGE_CURVE ( 'NONE', #185, #141, #90, .T. ) ;
#24 = LINE ( 'NONE', #21, #105 ) ;
#25 = ORIENTED_EDGE ( 'NONE', *, *, #39, .F. ) ;
#26 = ORIENTED_EDGE ( 'NONE', *, *, #150, .F. ) ;
#27 = DIRECTION ( 'NONE',  ( -1.000000000000000000, -6.937607244762875000E-016, -0.0000000000000000000 ) ) ;
#28 = DIRECTION ( 'NONE',  ( 1.110223024625159900E-015, -1.000000000000000000, 0.0000000000000000000 ) ) ;
#29 = CARTESIAN_POINT ( 'NONE',  ( 301.7989956717489100, 130.4336809418805700, 0.0000000000000000000 ) ) ;
#30 = MECHANICAL_DESIGN_GEOMETRIC_PRESENTATION_REPRESENTATION (  '', ( #99 ), #2 ) ;
#31 =( LENGTH_UNIT ( ) NAMED_UNIT ( * ) SI_UNIT ( .MILLI., .METRE. ) );
#32 = ORIENTED_EDGE ( 'NONE', *, *, #182, .F. ) ;
#33 =( NAMED_UNIT ( * ) PLANE_ANGLE_UNIT ( ) SI_UNIT ( $, .RADIAN. ) );
#34 = DIRECTION ( 'NONE',  ( -9.807623892448382000E-016, 1.000000000000000000, 0.0000000000000000000 ) ) ;
#35 = DIRECTION ( 'NONE',  ( 0.0000000000000000000, 0.0000000000000000000, -1.000000000000000000 ) ) ;
#36 =( GEOMETRIC_REPRESENTATION_CONTEXT ( 3 ) GLOBAL_UNCERTAINTY_ASSIGNED_CONTEXT ( ( #158 ) ) GLOBAL_UNIT_ASSIGNED_CONTEXT ( ( #146, #144, #115 ) ) REPRESENTATION_CONTEXT ( 'NONE', 'WORKASPACE' ) );
#37 = ADVANCED_FACE ( 'NONE', ( #139 ), #8, .T. ) ;
#38 = PRESENTATION_LAYER_ASSIGNMENT (  '', '', ( #99 ) ) ;
#39 = EDGE_CURVE ( 'NONE', #185, #143, #24, .T. ) ;
#40 = DIRECTION ( 'NONE',  ( -0.0000000000000000000, 0.0000000000000000000, 1.000000000000000000 ) ) ;
#41 = UNCERTAINTY_MEASURE_WITH_UNIT (LENGTH_MEASURE( 1.000000000000000100E-005 ), #1, 'distance_accuracy_value', 'NONE');
#42 = SURFACE_STYLE_USAGE ( .BOTH. , #174 ) ;
#43 = DIRECTION ( 'NONE',  ( -1.000000000000000000, -6.937607244762875000E-016, -0.0000000000000000000 ) ) ;
#44 = ORIENTED_EDGE ( 'NONE', *, *, #137, .F. ) ;
#45 = VECTOR ( 'NONE', #130, 1000.000000000000000 ) ;
#46 = DIRECTION ( 'NONE',  ( 0.0000000000000000000, -1.000000000000000000, 0.0000000000000000000 ) ) ;
#47 = DIRECTION ( 'NONE',  ( 1.110223024625159900E-015, -1.000000000000000000, 0.0000000000000000000 ) ) ;
#48 = SURFACE_SIDE_STYLE ('',( #19 ) ) ;
#49 = AXIS2_PLACEMENT_3D ( 'NONE', #120, #188, #116 ) ;
#50 = PRODUCT_CONTEXT ( 'NONE', #80, 'mechanical' ) ;
#51 = SPHERICAL_SURFACE ( 'NONE', #62, 56.59999999999997300 ) ;
#52 = CIRCLE ( 'NONE', #145, 56.59999999999998000 ) ;
#53 = PRODUCT_DEFINITION_FORMATION_WITH_SPECIFIED_SOURCE ( 'ÈÎºÎ', '', #20, .NOT_KNOWN. ) ;
#54 = AXIS2_PLACEMENT_3D ( 'NONE', #127, #183, #123 ) ;
#55 = VERTEX_POINT ( 'NONE', #69 ) ;
#56 = AXIS2_PLACEMENT_3D ( 'NONE', #103, #43, #28 ) ;
#57 = CIRCLE ( 'NONE', #59, 56.59999999999998000 ) ;
#58 = SHAPE_DEFINITION_REPRESENTATION ( #97, #7 ) ;
#59 = AXIS2_PLACEMENT_3D ( 'NONE', #29, #40, #190 ) ;
#60 = CARTESIAN_POINT ( 'NONE',  ( 0.0000000000000000000, 0.0000000000000000000, 0.0000000000000000000 ) ) ;
#61 = CARTESIAN_POINT ( 'NONE',  ( 250.1989956717489200, 130.4336809418805400, 0.0000000000000000000 ) ) ;
#62 = AXIS2_PLACEMENT_3D ( 'NONE', #170, #138, #34 ) ;
#63 = APPLICATION_PROTOCOL_DEFINITION ( 'draft international standard', 'automotive_design', 1998, #80 ) ;
#64 = EDGE_LOOP ( 'NONE', ( #25, #18, #168, #131 ) ) ;
#65 = LINE ( 'NONE', #177, #45 ) ;
#66 = DIRECTION ( 'NONE',  ( -1.000000000000000000, -6.937607244762875000E-016, -0.0000000000000000000 ) ) ;
#67 = DIRECTION ( 'NONE',  ( 0.0000000000000000000, -0.0000000000000000000, 1.000000000000000000 ) ) ;
#68 = EDGE_LOOP ( 'NONE', ( #148, #109, #3 ) ) ;
#69 = CARTESIAN_POINT ( 'NONE',  ( 245.1989956717489200, 130.4336809418805400, 0.0000000000000000000 ) ) ;
#70 = ADVANCED_FACE ( 'NONE', ( #124 ), #72, .F. ) ;
#71 = AXIS2_PLACEMENT_3D ( 'NONE', #104, #27, #46 ) ;
#72 = SPHERICAL_SURFACE ( 'NONE', #92, 84.90000000000003400 ) ;
#73 = AXIS2_PLACEMENT_3D ( 'NONE', #129, #88, #13 ) ;
#74 = DIRECTION ( 'NONE',  ( 0.0000000000000000000, 0.0000000000000000000, 1.000000000000000000 ) ) ;
#75 = CARTESIAN_POINT ( 'NONE',  ( 251.0194722395622200, 155.4336809418806000, 3.061616997868372400E-015 ) ) ;
#76 = CARTESIAN_POINT ( 'NONE',  ( 253.9632452284332100, 130.4336809418806800, 0.0000000000000000000 ) ) ;
#77 = FILL_AREA_STYLE ('',( #87 ) ) ;
#78 = ORIENTED_EDGE ( 'NONE', *, *, #159, .T. ) ;
#79 =( NAMED_UNIT ( * ) SI_UNIT ( $, .STERADIAN. ) SOLID_ANGLE_UNIT ( ) );
#80 = APPLICATION_CONTEXT ( 'automotive_design' ) ;
#81 = CARTESIAN_POINT ( 'NONE',  ( 253.9632452284332100, 105.4336809418806800, -3.061616997868366900E-015 ) ) ;
#82 = MANIFOLD_SOLID_BREP ( 'Ðý×ª1', #96 ) ;
#83 = AXIS2_PLACEMENT_3D ( 'NONE', #147, #11, #47 ) ;
#84 = CARTESIAN_POINT ( 'NONE',  ( 335.0989956717489200, 130.4336809418806000, 0.0000000000000000000 ) ) ;
#85 = COLOUR_RGB ( '',1.000000000000000000, 1.000000000000000000, 1.000000000000000000 ) ;
#86 = CIRCLE ( 'NONE', #71, 24.99999999999992500 ) ;
#87 = FILL_AREA_STYLE_COLOUR ( '', #85 ) ;
#88 = DIRECTION ( 'NONE',  ( -1.000000000000000000, -6.937607244762875000E-016, -0.0000000000000000000 ) ) ;
#89 = AXIS2_PLACEMENT_3D ( 'NONE', #12, #117, #149 ) ;
#90 = CIRCLE ( 'NONE', #16, 84.90000000000003400 ) ;
#91 = CARTESIAN_POINT ( 'NONE',  ( 253.9632452284331500, 155.4336809418805400, 0.0000000000000000000 ) ) ;
#92 = AXIS2_PLACEMENT_3D ( 'NONE', #126, #35, #173 ) ;
#93 = APPLICATION_PROTOCOL_DEFINITION ( 'draft international standard', 'automotive_design', 1998, #106 ) ;
#94 = ORIENTED_EDGE ( 'NONE', *, *, #39, .T. ) ;
#95 = ADVANCED_FACE ( 'NONE', ( #110 ), #4, .F. ) ;
#96 = CLOSED_SHELL ( 'NONE', ( #37, #140, #95, #70, #186, #6 ) ) ;
#97 = PRODUCT_DEFINITION_SHAPE ( 'NONE', 'NONE',  #5 ) ;
#98 = FACE_OUTER_BOUND ( 'NONE', #101, .T. ) ;
#99 = STYLED_ITEM ( 'NONE', ( #162 ), #7 ) ;
#100 = STYLED_ITEM ( 'NONE', ( #133 ), #82 ) ;
#101 = EDGE_LOOP ( 'NONE', ( #26, #156, #181 ) ) ;
#102 = CYLINDRICAL_SURFACE ( 'NONE', #83, 24.99999999999992500 ) ;
#103 = CARTESIAN_POINT ( 'NONE',  ( 231.8889825959263400, 130.4336809418806500, 0.0000000000000000000 ) ) ;
#104 = CARTESIAN_POINT ( 'NONE',  ( 251.0194722395622200, 130.4336809418806500, 0.0000000000000000000 ) ) ;
#105 = VECTOR ( 'NONE', #66, 1000.000000000000000 ) ;
#106 = APPLICATION_CONTEXT ( 'automotive_design' ) ;
#107 = ORIENTED_EDGE ( 'NONE', *, *, #119, .F. ) ;
#108 = AXIS2_PLACEMENT_3D ( 'NONE', #178, #192, #14 ) ;
#109 = ORIENTED_EDGE ( 'NONE', *, *, #182, .T. ) ;
#110 = FACE_OUTER_BOUND ( 'NONE', #68, .T. ) ;
#111 = ORIENTED_EDGE ( 'NONE', *, *, #150, .T. ) ;
#112 = PRESENTATION_LAYER_ASSIGNMENT (  '', '', ( #100 ) ) ;
#113 = FACE_OUTER_BOUND ( 'NONE', #64, .T. ) ;
#114 = PRODUCT_RELATED_PRODUCT_CATEGORY ( 'part', '', ( #20 ) ) ;
#115 =( NAMED_UNIT ( * ) SI_UNIT ( $, .STERADIAN. ) SOLID_ANGLE_UNIT ( ) );
#116 = DIRECTION ( 'NONE',  ( -6.538415928298916700E-016, 1.000000000000000000, 0.0000000000000000000 ) ) ;
#117 = DIRECTION ( 'NONE',  ( -1.000000000000000000, -6.937607244762875000E-016, -0.0000000000000000000 ) ) ;
#118 = DIRECTION ( 'NONE',  ( 0.0000000000000000000, 1.000000000000000000, 1.224646799147353000E-016 ) ) ;
#119 = EDGE_CURVE ( 'NONE', #143, #55, #57, .T. ) ;
#120 = CARTESIAN_POINT ( 'NONE',  ( 335.0989956717489200, 130.4336809418806000, 0.0000000000000000000 ) ) ;
#121 = MECHANICAL_DESIGN_GEOMETRIC_PRESENTATION_REPRESENTATION (  '', ( #100 ), #36 ) ;
#122 =( NAMED_UNIT ( * ) PLANE_ANGLE_UNIT ( ) SI_UNIT ( $, .RADIAN. ) );
#123 = DIRECTION ( 'NONE',  ( -9.807623892448382000E-016, 1.000000000000000000, 0.0000000000000000000 ) ) ;
#124 = FACE_OUTER_BOUND ( 'NONE', #128, .T. ) ;
#125 = CIRCLE ( 'NONE', #73, 24.99999999999992500 ) ;
#126 = CARTESIAN_POINT ( 'NONE',  ( 335.0989956717489200, 130.4336809418806000, 0.0000000000000000000 ) ) ;
#127 = CARTESIAN_POINT ( 'NONE',  ( 301.7989956717489100, 130.4336809418805700, 0.0000000000000000000 ) ) ;
#128 = EDGE_LOOP ( 'NONE', ( #32, #44, #171 ) ) ;
#129 = CARTESIAN_POINT ( 'NONE',  ( 253.9632452284332100, 130.4336809418806800, 0.0000000000000000000 ) ) ;
#130 = DIRECTION ( 'NONE',  ( -1.000000000000000000, -6.937607244762875000E-016, -0.0000000000000000000 ) ) ;
#131 = ORIENTED_EDGE ( 'NONE', *, *, #165, .F. ) ;
#132 = DIRECTION ( 'NONE',  ( -8.496118506040342700E-032, 1.224646799147353200E-016, -1.000000000000000000 ) ) ;
#133 = PRESENTATION_STYLE_ASSIGNMENT (( #42 ) ) ;
#134 = SURFACE_STYLE_USAGE ( .BOTH. , #48 ) ;
#135 = ORIENTED_EDGE ( 'NONE', *, *, #154, .F. ) ;
#136 = COLOUR_RGB ( '',1.000000000000000000, 1.000000000000000000, 1.000000000000000000 ) ;
#137 = EDGE_CURVE ( 'NONE', #185, #187, #125, .T. ) ;
#138 = DIRECTION ( 'NONE',  ( -0.0000000000000000000, 0.0000000000000000000, -1.000000000000000000 ) ) ;
#139 = FACE_OUTER_BOUND ( 'NONE', #142, .T. ) ;
#140 = ADVANCED_FACE ( 'NONE', ( #176 ), #102, .T. ) ;
#141 = VERTEX_POINT ( 'NONE', #61 ) ;
#142 = EDGE_LOOP ( 'NONE', ( #172, #111, #107 ) ) ;
#143 = VERTEX_POINT ( 'NONE', #75 ) ;
#144 =( NAMED_UNIT ( * ) PLANE_ANGLE_UNIT ( ) SI_UNIT ( $, .RADIAN. ) );
#145 = AXIS2_PLACEMENT_3D ( 'NONE', #164, #132, #118 ) ;
#146 =( LENGTH_UNIT ( ) NAMED_UNIT ( * ) SI_UNIT ( .MILLI., .METRE. ) );
#147 = CARTESIAN_POINT ( 'NONE',  ( 231.8889825959263400, 130.4336809418806500, 0.0000000000000000000 ) ) ;
#148 = ORIENTED_EDGE ( 'NONE', *, *, #159, .F. ) ;
#149 = DIRECTION ( 'NONE',  ( 0.0000000000000000000, -1.000000000000000000, 0.0000000000000000000 ) ) ;
#150 = EDGE_CURVE ( 'NONE', #179, #55, #52, .T. ) ;
#151 =( NAMED_UNIT ( * ) SI_UNIT ( $, .STERADIAN. ) SOLID_ANGLE_UNIT ( ) );
#152 = CIRCLE ( 'NONE', #108, 84.90000000000003400 ) ;
#153 = DIRECTION ( 'NONE',  ( 1.000000000000000000, 0.0000000000000000000, 0.0000000000000000000 ) ) ;
#154 = EDGE_CURVE ( 'NONE', #179, #143, #86, .T. ) ;
#155 = EDGE_CURVE ( 'NONE', #187, #179, #65, .T. ) ;
#156 = ORIENTED_EDGE ( 'NONE', *, *, #154, .T. ) ;
#157 = CIRCLE ( 'NONE', #189, 24.99999999999992500 ) ;
#158 = UNCERTAINTY_MEASURE_WITH_UNIT (LENGTH_MEASURE( 1.000000000000000100E-005 ), #146, 'distance_accuracy_value', 'NONE');
#159 = EDGE_CURVE ( 'NONE', #187, #185, #157, .T. ) ;
#160 = CARTESIAN_POINT ( 'NONE',  ( 251.0194722395622200, 105.4336809418807200, 0.0000000000000000000 ) ) ;
#161 = ORIENTED_EDGE ( 'NONE', *, *, #155, .F. ) ;
#162 = PRESENTATION_STYLE_ASSIGNMENT (( #134 ) ) ;
#163 = DIRECTION ( 'NONE',  ( 0.0000000000000000000, -1.000000000000000000, 0.0000000000000000000 ) ) ;
#164 = CARTESIAN_POINT ( 'NONE',  ( 301.7989956717489100, 130.4336809418805700, 0.0000000000000000000 ) ) ;
#165 = EDGE_CURVE ( 'NONE', #143, #179, #191, .T. ) ;
#166 = DIRECTION ( 'NONE',  ( 1.000000000000000000, 0.0000000000000000000, 0.0000000000000000000 ) ) ;
#167 = UNCERTAINTY_MEASURE_WITH_UNIT (LENGTH_MEASURE( 1.000000000000000100E-005 ), #31, 'distance_accuracy_value', 'NONE');
#168 = ORIENTED_EDGE ( 'NONE', *, *, #155, .T. ) ;
#169 =( GEOMETRIC_REPRESENTATION_CONTEXT ( 3 ) GLOBAL_UNCERTAINTY_ASSIGNED_CONTEXT ( ( #167 ) ) GLOBAL_UNIT_ASSIGNED_CONTEXT ( ( #31, #33, #79 ) ) REPRESENTATION_CONTEXT ( 'NONE', 'WORKASPACE' ) );
#170 = CARTESIAN_POINT ( 'NONE',  ( 301.7989956717489100, 130.4336809418805700, 0.0000000000000000000 ) ) ;
#171 = ORIENTED_EDGE ( 'NONE', *, *, #23, .T. ) ;
#172 = ORIENTED_EDGE ( 'NONE', *, *, #165, .T. ) ;
#173 = DIRECTION ( 'NONE',  ( -6.538415928298916700E-016, 1.000000000000000000, 0.0000000000000000000 ) ) ;
#174 = SURFACE_SIDE_STYLE ('',( #22 ) ) ;
#175 = EDGE_LOOP ( 'NONE', ( #78, #94, #135, #161 ) ) ;
#176 = FACE_OUTER_BOUND ( 'NONE', #175, .T. ) ;
#177 = CARTESIAN_POINT ( 'NONE',  ( 231.8889825959263600, 105.4336809418807200, 0.0000000000000000000 ) ) ;
#178 = CARTESIAN_POINT ( 'NONE',  ( 335.0989956717489200, 130.4336809418806000, 0.0000000000000000000 ) ) ;
#179 = VERTEX_POINT ( 'NONE', #160 ) ;
#180 = PRODUCT_DEFINITION_CONTEXT ( 'detailed design', #106, 'design' ) ;
#181 = ORIENTED_EDGE ( 'NONE', *, *, #119, .T. ) ;
#182 = EDGE_CURVE ( 'NONE', #187, #141, #152, .T. ) ;
#183 = DIRECTION ( 'NONE',  ( -0.0000000000000000000, 0.0000000000000000000, -1.000000000000000000 ) ) ;
#184 = AXIS2_PLACEMENT_3D ( 'NONE', #60, #74, #166 ) ;
#185 = VERTEX_POINT ( 'NONE', #91 ) ;
#186 = ADVANCED_FACE ( 'NONE', ( #113 ), #9, .T. ) ;
#187 = VERTEX_POINT ( 'NONE', #81 ) ;
#188 = DIRECTION ( 'NONE',  ( 0.0000000000000000000, 0.0000000000000000000, -1.000000000000000000 ) ) ;
#189 = AXIS2_PLACEMENT_3D ( 'NONE', #76, #10, #163 ) ;
#190 = DIRECTION ( 'NONE',  ( 1.000000000000000000, 0.0000000000000000000, 0.0000000000000000000 ) ) ;
#191 = CIRCLE ( 'NONE', #89, 24.99999999999992500 ) ;
#192 = DIRECTION ( 'NONE',  ( -8.496118506040342700E-032, 1.224646799147353200E-016, -1.000000000000000000 ) ) ;
ENDSEC;
END-ISO-10303-21;
