ISO-10303-21;
HEADER;
FILE_DESCRIPTION (( 'STEP AP214' ),
    '1' );
FILE_NAME ('GLM1-025B-100.STEP',
    '2024-08-09T01:58:51',
    ( 'Windows User' ),
    ( 'P R C' ),
    'SwSTEP 2.0',
    'SolidWorks 2022',
    '' );
FILE_SCHEMA (( 'AUTOMOTIVE_DESIGN' ));
ENDSEC;

DATA;
#1 = UNCERTAINTY_MEASURE_WITH_UNIT (LENGTH_MEASURE( 1.000000000000000082E-05 ), #220, 'distance_accuracy_value', 'NONE');
#2 = SURFACE_SIDE_STYLE ('',( #275 ) ) ;
#3 = VECTOR ( 'NONE', #300, 1000.000000000000114 ) ;
#4 = FILL_AREA_STYLE ('',( #137 ) ) ;
#5 = EDGE_CURVE ( 'NONE', #201, #26, #266, .T. ) ;
#6 = EDGE_LOOP ( 'NONE', ( #57, #185, #198, #128 ) ) ;
#7 = DIRECTION ( 'NONE',  ( 0.000000000000000000, 0.000000000000000000, -1.000000000000000000 ) ) ;
#8 = AXIS2_PLACEMENT_3D ( 'NONE', #32, #207, #276 ) ;
#9 = CARTESIAN_POINT ( 'NONE',  ( 0.000000000000000000, 0.000000000000000000, 3.921783238787050596 ) ) ;
#10 = DIRECTION ( 'NONE',  ( 1.000000000000000000, 0.000000000000000000, 0.000000000000000000 ) ) ;
#11 = EDGE_CURVE ( 'NONE', #88, #96, #129, .T. ) ;
#12 = CARTESIAN_POINT ( 'NONE',  ( 12.51660009051966860, 0.000000000000000000, 3.921783238787050596 ) ) ;
#13 = DIRECTION ( 'NONE',  ( -0.7071067811865652253, 0.000000000000000000, -0.7071067811865298092 ) ) ;
#14 = CARTESIAN_POINT ( 'NONE',  ( 0.000000000000000000, 0.000000000000000000, 5.799999999999999822 ) ) ;
#15 = ORIENTED_EDGE ( 'NONE', *, *, #307, .F. ) ;
#16 = FACE_OUTER_BOUND ( 'NONE', #21, .T. ) ;
#17 = EDGE_CURVE ( 'NONE', #301, #201, #298, .T. ) ;
#18 = DIRECTION ( 'NONE',  ( -1.000000000000000000, 1.224646799147353207E-16, 0.000000000000000000 ) ) ;
#19 = DIRECTION ( 'NONE',  ( 0.000000000000000000, 1.000000000000000000, 0.000000000000000000 ) ) ;
#20 = CARTESIAN_POINT ( 'NONE',  ( 0.000000000000000000, 0.000000000000000000, 87.24335603604764344 ) ) ;
#21 = EDGE_LOOP ( 'NONE', ( #35, #33, #180, #277, #245 ) ) ;
#22 = CIRCLE ( 'NONE', #52, 12.51660009051966682 ) ;
#23 = EDGE_LOOP ( 'NONE', ( #104, #299, #31, #230 ) ) ;
#24 = MECHANICAL_DESIGN_GEOMETRIC_PRESENTATION_REPRESENTATION (  '', ( #161 ), #110 ) ;
#25 = DIRECTION ( 'NONE',  ( 0.000000000000000000, 0.000000000000000000, 1.000000000000000000 ) ) ;
#26 = VERTEX_POINT ( 'NONE', #69 ) ;
#27 = ORIENTED_EDGE ( 'NONE', *, *, #63, .F. ) ;
#28 = APPLICATION_PROTOCOL_DEFINITION ( 'draft international standard', 'automotive_design', 1998, #169 ) ;
#29 = VECTOR ( 'NONE', #13, 1000.000000000000000 ) ;
#30 = ADVANCED_FACE ( 'NONE', ( #147 ), #45, .T. ) ;
#31 = ORIENTED_EDGE ( 'NONE', *, *, #226, .T. ) ;
#32 = CARTESIAN_POINT ( 'NONE',  ( 0.000000000000000000, 0.000000000000000000, 10.00000000000000000 ) ) ;
#33 = ORIENTED_EDGE ( 'NONE', *, *, #223, .T. ) ;
#34 = DIRECTION ( 'NONE',  ( 1.000000000000000000, 0.000000000000000000, 0.000000000000000000 ) ) ;
#35 = ORIENTED_EDGE ( 'NONE', *, *, #331, .F. ) ;
#36 = DIRECTION ( 'NONE',  ( 0.000000000000000000, 1.000000000000000000, 0.000000000000000000 ) ) ;
#37 = AXIS2_PLACEMENT_3D ( 'NONE', #149, #320, #186 ) ;
#38 = ORIENTED_EDGE ( 'NONE', *, *, #259, .T. ) ;
#39 = DIRECTION ( 'NONE',  ( 1.000000000000000000, 0.000000000000000000, 0.000000000000000000 ) ) ;
#40 = CONICAL_SURFACE ( 'NONE', #189, 12.69999999999999929, 0.3791711273704264085 ) ;
#41 = AXIS2_PLACEMENT_3D ( 'NONE', #14, #121, #295 ) ;
#42 = DIRECTION ( 'NONE',  ( 0.000000000000000000, 0.000000000000000000, -1.000000000000000000 ) ) ;
#43 = DIRECTION ( 'NONE',  ( 0.000000000000000000, 1.000000000000000000, 0.000000000000000000 ) ) ;
#44 =( NAMED_UNIT ( * ) PLANE_ANGLE_UNIT ( ) SI_UNIT ( $, .RADIAN. ) );
#45 = CYLINDRICAL_SURFACE ( 'NONE', #291, 12.69999999999999929 ) ;
#46 = PRESENTATION_LAYER_ASSIGNMENT (  '', '', ( #95 ) ) ;
#47 = DIRECTION ( 'NONE',  ( 1.000000000000000000, 0.000000000000000000, 0.000000000000000000 ) ) ;
#48 = CIRCLE ( 'NONE', #249, 82.22999999999998977 ) ;
#49 = ORIENTED_EDGE ( 'NONE', *, *, #154, .T. ) ;
#50 = DIRECTION ( 'NONE',  ( 1.000000000000000000, 0.000000000000000000, 0.000000000000000000 ) ) ;
#51 = DIRECTION ( 'NONE',  ( -0.000000000000000000, -0.000000000000000000, -1.000000000000000000 ) ) ;
#52 = AXIS2_PLACEMENT_3D ( 'NONE', #182, #87, #58 ) ;
#53 = FACE_OUTER_BOUND ( 'NONE', #197, .T. ) ;
#54 = EDGE_CURVE ( 'NONE', #113, #26, #246, .T. ) ;
#55 = ORIENTED_EDGE ( 'NONE', *, *, #122, .F. ) ;
#56 = VECTOR ( 'NONE', #156, 1000.000000000000000 ) ;
#57 = ORIENTED_EDGE ( 'NONE', *, *, #166, .T. ) ;
#58 = DIRECTION ( 'NONE',  ( 1.000000000000000000, 0.000000000000000000, 0.000000000000000000 ) ) ;
#59 = ADVANCED_FACE ( 'NONE', ( #221 ), #280, .T. ) ;
#60 = SPHERICAL_SURFACE ( 'NONE', #173, 32.14000000000000057 ) ;
#61 = FACE_OUTER_BOUND ( 'NONE', #174, .T. ) ;
#62 =( GEOMETRIC_REPRESENTATION_CONTEXT ( 3 ) GLOBAL_UNCERTAINTY_ASSIGNED_CONTEXT ( ( #191 ) ) GLOBAL_UNIT_ASSIGNED_CONTEXT ( ( #225, #102, #283 ) ) REPRESENTATION_CONTEXT ( 'NONE', 'WORKASPACE' ) );
#63 = EDGE_CURVE ( 'NONE', #301, #96, #235, .T. ) ;
#64 = VERTEX_POINT ( 'NONE', #94 ) ;
#65 = SPHERICAL_SURFACE ( 'NONE', #328, 82.22999999999998977 ) ;
#66 = VECTOR ( 'NONE', #79, 1000.000000000000000 ) ;
#67 = AXIS2_PLACEMENT_3D ( 'NONE', #267, #163, #263 ) ;
#68 = DIRECTION ( 'NONE',  ( 1.000000000000000000, 0.000000000000000000, 0.000000000000000000 ) ) ;
#69 = CARTESIAN_POINT ( 'NONE',  ( -12.69999999999999929, 0.000000000000000000, 4.382064373895533826 ) ) ;
#70 = UNCERTAINTY_MEASURE_WITH_UNIT (LENGTH_MEASURE( 1.000000000000000082E-05 ), #302, 'distance_accuracy_value', 'NONE');
#71 = CARTESIAN_POINT ( 'NONE',  ( 0.000000000000000000, 0.000000000000000000, 4.382064373895533826 ) ) ;
#72 = DIRECTION ( 'NONE',  ( 1.000000000000000000, 0.000000000000000000, 0.000000000000000000 ) ) ;
#73 = AXIS2_PLACEMENT_3D ( 'NONE', #234, #231, #39 ) ;
#74 = AXIS2_PLACEMENT_3D ( 'NONE', #93, #42, #97 ) ;
#75 = DIRECTION ( 'NONE',  ( -1.000000000000000000, 0.000000000000000000, 0.000000000000000000 ) ) ;
#76 = EDGE_LOOP ( 'NONE', ( #116, #239, #279, #135 ) ) ;
#77 =( NAMED_UNIT ( * ) SI_UNIT ( $, .STERADIAN. ) SOLID_ANGLE_UNIT ( ) );
#78 = PRESENTATION_STYLE_ASSIGNMENT (( #107 ) ) ;
#79 = DIRECTION ( 'NONE',  ( -0.000000000000000000, -0.000000000000000000, -1.000000000000000000 ) ) ;
#80 = ORIENTED_EDGE ( 'NONE', *, *, #326, .T. ) ;
#81 = PRODUCT_CONTEXT ( 'NONE', #169, 'mechanical' ) ;
#82 = ORIENTED_EDGE ( 'NONE', *, *, #292, .F. ) ;
#83 = SURFACE_STYLE_USAGE ( .BOTH. , #152 ) ;
#84 = EDGE_CURVE ( 'NONE', #64, #101, #227, .T. ) ;
#85 = CARTESIAN_POINT ( 'NONE',  ( 0.000000000000000000, 0.000000000000000000, 33.52438991749025377 ) ) ;
#86 = ORIENTED_EDGE ( 'NONE', *, *, #5, .T. ) ;
#87 = DIRECTION ( 'NONE',  ( 0.000000000000000000, 0.000000000000000000, -1.000000000000000000 ) ) ;
#88 = VERTEX_POINT ( 'NONE', #168 ) ;
#89 = AXIS2_PLACEMENT_3D ( 'NONE', #105, #25, #306 ) ;
#90 = ADVANCED_FACE ( 'NONE', ( #244 ), #293, .F. ) ;
#91 = ORIENTED_EDGE ( 'NONE', *, *, #17, .T. ) ;
#92 = DIRECTION ( 'NONE',  ( -0.000000000000000000, -0.000000000000000000, 1.000000000000000000 ) ) ;
#93 = CARTESIAN_POINT ( 'NONE',  ( 0.000000000000000000, 0.000000000000000000, 5.973125799162135152 ) ) ;
#94 = CARTESIAN_POINT ( 'NONE',  ( 0.000000000000000000, 1.968007406229796560E-15, 1.384389917490250088 ) ) ;
#95 = STYLED_ITEM ( 'NONE', ( #332 ), #125 ) ;
#96 = VERTEX_POINT ( 'NONE', #294 ) ;
#97 = DIRECTION ( 'NONE',  ( -1.000000000000000000, 0.000000000000000000, 0.000000000000000000 ) ) ;
#98 = COLOUR_RGB ( '',1.000000000000000000, 1.000000000000000000, 1.000000000000000000 ) ;
#99 = EDGE_CURVE ( 'NONE', #106, #26, #165, .T. ) ;
#100 = CONICAL_SURFACE ( 'NONE', #74, 12.52687420083785597, 0.7853981633974733700 ) ;
#101 = VERTEX_POINT ( 'NONE', #308 ) ;
#102 =( NAMED_UNIT ( * ) PLANE_ANGLE_UNIT ( ) SI_UNIT ( $, .RADIAN. ) );
#103 = CIRCLE ( 'NONE', #37, 12.69999999999999929 ) ;
#104 = ORIENTED_EDGE ( 'NONE', *, *, #84, .F. ) ;
#105 = CARTESIAN_POINT ( 'NONE',  ( 0.000000000000000000, 0.000000000000000000, 0.000000000000000000 ) ) ;
#106 = VERTEX_POINT ( 'NONE', #134 ) ;
#107 = SURFACE_STYLE_USAGE ( .BOTH. , #2 ) ;
#108 = PRODUCT_RELATED_PRODUCT_CATEGORY ( 'part', '', ( #252 ) ) ;
#109 = ORIENTED_EDGE ( 'NONE', *, *, #282, .F. ) ;
#110 =( GEOMETRIC_REPRESENTATION_CONTEXT ( 3 ) GLOBAL_UNCERTAINTY_ASSIGNED_CONTEXT ( ( #70 ) ) GLOBAL_UNIT_ASSIGNED_CONTEXT ( ( #302, #175, #77 ) ) REPRESENTATION_CONTEXT ( 'NONE', 'WORKASPACE' ) );
#111 = CARTESIAN_POINT ( 'NONE',  ( 0.000000000000000000, 0.000000000000000000, 33.52438991749025377 ) ) ;
#112 = DIRECTION ( 'NONE',  ( 0.000000000000000000, 0.000000000000000000, -1.000000000000000000 ) ) ;
#113 = VERTEX_POINT ( 'NONE', #250 ) ;
#114 = CARTESIAN_POINT ( 'NONE',  ( 12.52687420083785419, 1.544700537127451106E-15, 5.973125799162120941 ) ) ;
#115 = EDGE_CURVE ( 'NONE', #269, #113, #130, .T. ) ;
#116 = ORIENTED_EDGE ( 'NONE', *, *, #196, .F. ) ;
#117 = CIRCLE ( 'NONE', #73, 12.69999999999999929 ) ;
#118 = COLOUR_RGB ( '',1.000000000000000000, 1.000000000000000000, 1.000000000000000000 ) ;
#119 = DIRECTION ( 'NONE',  ( 0.000000000000000000, 0.000000000000000000, -1.000000000000000000 ) ) ;
#120 = ORIENTED_EDGE ( 'NONE', *, *, #11, .T. ) ;
#121 = DIRECTION ( 'NONE',  ( 0.000000000000000000, 0.000000000000000000, -1.000000000000000000 ) ) ;
#122 = EDGE_CURVE ( 'NONE', #145, #113, #204, .T. ) ;
#123 = DIRECTION ( 'NONE',  ( 0.000000000000000000, 0.000000000000000000, -1.000000000000000000 ) ) ;
#124 = VECTOR ( 'NONE', #170, 1000.000000000000000 ) ;
#125 = MANIFOLD_SOLID_BREP ( 'µ¹½Ç1', #289 ) ;
#126 = CARTESIAN_POINT ( 'NONE',  ( 0.000000000000000000, 0.000000000000000000, 5.973125799162120941 ) ) ;
#127 = ADVANCED_FACE ( 'NONE', ( #274 ), #304, .T. ) ;
#128 = ORIENTED_EDGE ( 'NONE', *, *, #5, .F. ) ;
#129 = CIRCLE ( 'NONE', #303, 82.22999999999998977 ) ;
#130 = LINE ( 'NONE', #172, #3 ) ;
#131 = AXIS2_PLACEMENT_3D ( 'NONE', #210, #233, #10 ) ;
#132 = ORIENTED_EDGE ( 'NONE', *, *, #331, .T. ) ;
#133 = APPLICATION_PROTOCOL_DEFINITION ( 'draft international standard', 'automotive_design', 1998, #187 ) ;
#134 = CARTESIAN_POINT ( 'NONE',  ( -12.51660009051966860, 1.544071429311688688E-15, 3.921783238787050596 ) ) ;
#135 = ORIENTED_EDGE ( 'NONE', *, *, #282, .T. ) ;
#136 = FILL_AREA_STYLE_COLOUR ( '', #118 ) ;
#137 = FILL_AREA_STYLE_COLOUR ( '', #98 ) ;
#138 = ADVANCED_FACE ( 'NONE', ( #53 ), #40, .T. ) ;
#139 = DIRECTION ( 'NONE',  ( 1.000000000000000000, 0.000000000000000000, 0.000000000000000000 ) ) ;
#140 = EDGE_LOOP ( 'NONE', ( #184, #305, #80, #224 ) ) ;
#141 = CIRCLE ( 'NONE', #208, 12.51660009051966682 ) ;
#142 = SPHERICAL_SURFACE ( 'NONE', #315, 32.14000000000000057 ) ;
#143 = ORIENTED_EDGE ( 'NONE', *, *, #146, .F. ) ;
#144 = CARTESIAN_POINT ( 'NONE',  ( -12.69999999999999929, 0.000000000000000000, 5.799999999999999822 ) ) ;
#145 = VERTEX_POINT ( 'NONE', #313 ) ;
#146 = EDGE_CURVE ( 'NONE', #101, #106, #22, .T. ) ;
#147 = FACE_OUTER_BOUND ( 'NONE', #6, .T. ) ;
#148 = DIRECTION ( 'NONE',  ( -1.000000000000000000, 1.224646799147353207E-16, 0.000000000000000000 ) ) ;
#149 = CARTESIAN_POINT ( 'NONE',  ( 0.000000000000000000, 0.000000000000000000, 4.382064373895533826 ) ) ;
#150 = DIRECTION ( 'NONE',  ( -1.224646799147353207E-16, -1.000000000000000000, 0.000000000000000000 ) ) ;
#151 = ORIENTED_EDGE ( 'NONE', *, *, #99, .F. ) ;
#152 = SURFACE_SIDE_STYLE ('',( #199 ) ) ;
#153 = CIRCLE ( 'NONE', #193, 32.14000000000000057 ) ;
#154 = EDGE_CURVE ( 'NONE', #96, #211, #242, .T. ) ;
#155 = ORIENTED_EDGE ( 'NONE', *, *, #115, .T. ) ;
#156 = DIRECTION ( 'NONE',  ( 0.7071067811865652253, 8.659560562355149795E-17, -0.7071067811865298092 ) ) ;
#157 = VERTEX_POINT ( 'NONE', #258 ) ;
#158 = LINE ( 'NONE', #255, #56 ) ;
#159 = AXIS2_PLACEMENT_3D ( 'NONE', #219, #123, #264 ) ;
#160 = DIRECTION ( 'NONE',  ( -0.000000000000000000, -0.000000000000000000, 1.000000000000000000 ) ) ;
#161 = STYLED_ITEM ( 'NONE', ( #78 ), #319 ) ;
#162 = CARTESIAN_POINT ( 'NONE',  ( 0.000000000000000000, 0.000000000000000000, 87.24335603604764344 ) ) ;
#163 = DIRECTION ( 'NONE',  ( -0.000000000000000000, -0.000000000000000000, 1.000000000000000000 ) ) ;
#164 = CARTESIAN_POINT ( 'NONE',  ( 0.000000000000000000, 0.000000000000000000, 87.24335603604764344 ) ) ;
#165 = LINE ( 'NONE', #243, #179 ) ;
#166 = EDGE_CURVE ( 'NONE', #201, #145, #117, .T. ) ;
#167 = DIRECTION ( 'NONE',  ( 0.000000000000000000, 0.000000000000000000, -1.000000000000000000 ) ) ;
#168 = CARTESIAN_POINT ( 'NONE',  ( 0.000000000000000000, 5.035135314694341706E-15, 5.013356036047661668 ) ) ;
#169 = APPLICATION_CONTEXT ( 'automotive_design' ) ;
#170 = DIRECTION ( 'NONE',  ( -0.000000000000000000, -0.000000000000000000, -1.000000000000000000 ) ) ;
#171 = ORIENTED_EDGE ( 'NONE', *, *, #292, .T. ) ;
#172 = CARTESIAN_POINT ( 'NONE',  ( 12.69999999999999929, 0.000000000000000000, 4.382064373895533826 ) ) ;
#173 = AXIS2_PLACEMENT_3D ( 'NONE', #216, #238, #19 ) ;
#174 = EDGE_LOOP ( 'NONE', ( #151, #143, #15, #155, #317 ) ) ;
#175 =( NAMED_UNIT ( * ) PLANE_ANGLE_UNIT ( ) SI_UNIT ( $, .RADIAN. ) );
#176 = ADVANCED_FACE ( 'NONE', ( #183 ), #142, .T. ) ;
#177 = ORIENTED_EDGE ( 'NONE', *, *, #99, .T. ) ;
#178 = CARTESIAN_POINT ( 'NONE',  ( 12.69999999999999929, 1.555301434917138433E-15, 10.00000000000000000 ) ) ;
#179 = VECTOR ( 'NONE', #270, 1000.000000000000114 ) ;
#180 = ORIENTED_EDGE ( 'NONE', *, *, #166, .F. ) ;
#181 = ORIENTED_EDGE ( 'NONE', *, *, #154, .F. ) ;
#182 = CARTESIAN_POINT ( 'NONE',  ( 0.000000000000000000, 0.000000000000000000, 3.921783238787050596 ) ) ;
#183 = FACE_OUTER_BOUND ( 'NONE', #23, .T. ) ;
#184 = ORIENTED_EDGE ( 'NONE', *, *, #11, .F. ) ;
#185 = ORIENTED_EDGE ( 'NONE', *, *, #122, .T. ) ;
#186 = DIRECTION ( 'NONE',  ( -1.000000000000000000, 0.000000000000000000, 0.000000000000000000 ) ) ;
#187 = APPLICATION_CONTEXT ( 'automotive_design' ) ;
#188 = CARTESIAN_POINT ( 'NONE',  ( -12.52687420083785419, 0.000000000000000000, 5.973125799162120941 ) ) ;
#189 = AXIS2_PLACEMENT_3D ( 'NONE', #278, #229, #139 ) ;
#190 = CARTESIAN_POINT ( 'NONE',  ( 0.000000000000000000, 0.000000000000000000, 33.52438991749025377 ) ) ;
#191 = UNCERTAINTY_MEASURE_WITH_UNIT (LENGTH_MEASURE( 1.000000000000000082E-05 ), #225, 'distance_accuracy_value', 'NONE');
#192 = ORIENTED_EDGE ( 'NONE', *, *, #115, .F. ) ;
#193 = AXIS2_PLACEMENT_3D ( 'NONE', #111, #284, #7 ) ;
#194 = DIRECTION ( 'NONE',  ( -0.000000000000000000, -0.000000000000000000, 1.000000000000000000 ) ) ;
#195 = CARTESIAN_POINT ( 'NONE',  ( -12.69999999999999929, 0.000000000000000000, 10.00000000000000000 ) ) ;
#196 = EDGE_CURVE ( 'NONE', #64, #205, #153, .T. ) ;
#197 = EDGE_LOOP ( 'NONE', ( #109, #177, #285, #192, #272 ) ) ;
#198 = ORIENTED_EDGE ( 'NONE', *, *, #54, .T. ) ;
#199 = SURFACE_STYLE_FILL_AREA ( #4 ) ;
#200 = AXIS2_PLACEMENT_3D ( 'NONE', #164, #218, #324 ) ;
#201 = VERTEX_POINT ( 'NONE', #144 ) ;
#202 = FILL_AREA_STYLE ('',( #136 ) ) ;
#203 = ADVANCED_FACE ( 'NONE', ( #61 ), #268, .T. ) ;
#204 = LINE ( 'NONE', #178, #66 ) ;
#205 = VERTEX_POINT ( 'NONE', #311 ) ;
#206 = SHAPE_DEFINITION_REPRESENTATION ( #209, #319 ) ;
#207 = DIRECTION ( 'NONE',  ( -0.000000000000000000, -0.000000000000000000, -1.000000000000000000 ) ) ;
#208 = AXIS2_PLACEMENT_3D ( 'NONE', #9, #112, #212 ) ;
#209 = PRODUCT_DEFINITION_SHAPE ( 'NONE', 'NONE',  #296 ) ;
#210 = CARTESIAN_POINT ( 'NONE',  ( 0.000000000000000000, 0.000000000000000000, 4.382064373895533826 ) ) ;
#211 = VERTEX_POINT ( 'NONE', #114 ) ;
#212 = DIRECTION ( 'NONE',  ( 1.000000000000000000, 0.000000000000000000, 0.000000000000000000 ) ) ;
#213 = AXIS2_PLACEMENT_3D ( 'NONE', #251, #160, #34 ) ;
#214 = CIRCLE ( 'NONE', #316, 12.52687420083785419 ) ;
#215 = CARTESIAN_POINT ( 'NONE',  ( 0.000000000000000000, 0.000000000000000000, 87.24335603604764344 ) ) ;
#216 = CARTESIAN_POINT ( 'NONE',  ( 0.000000000000000000, 0.000000000000000000, 33.52438991749025377 ) ) ;
#217 = DIRECTION ( 'NONE',  ( -0.000000000000000000, -0.000000000000000000, 1.000000000000000000 ) ) ;
#218 = DIRECTION ( 'NONE',  ( -1.000000000000000000, 0.000000000000000000, 0.000000000000000000 ) ) ;
#219 = CARTESIAN_POINT ( 'NONE',  ( 0.000000000000000000, 0.000000000000000000, 5.973125799162135152 ) ) ;
#220 =( LENGTH_UNIT ( ) NAMED_UNIT ( * ) SI_UNIT ( .MILLI., .METRE. ) );
#221 = FACE_OUTER_BOUND ( 'NONE', #314, .T. ) ;
#222 = DIRECTION ( 'NONE',  ( -1.224646799147353207E-16, -1.000000000000000000, 0.000000000000000000 ) ) ;
#223 = EDGE_CURVE ( 'NONE', #211, #145, #158, .T. ) ;
#224 = ORIENTED_EDGE ( 'NONE', *, *, #63, .T. ) ;
#225 =( LENGTH_UNIT ( ) NAMED_UNIT ( * ) SI_UNIT ( .MILLI., .METRE. ) );
#226 = EDGE_CURVE ( 'NONE', #205, #269, #141, .T. ) ;
#227 = CIRCLE ( 'NONE', #309, 32.14000000000000057 ) ;
#228 = PRESENTATION_LAYER_ASSIGNMENT (  '', '', ( #161 ) ) ;
#229 = DIRECTION ( 'NONE',  ( -0.000000000000000000, -0.000000000000000000, 1.000000000000000000 ) ) ;
#230 = ORIENTED_EDGE ( 'NONE', *, *, #307, .T. ) ;
#231 = DIRECTION ( 'NONE',  ( 0.000000000000000000, 0.000000000000000000, -1.000000000000000000 ) ) ;
#232 = ADVANCED_FACE ( 'NONE', ( #237 ), #65, .F. ) ;
#233 = DIRECTION ( 'NONE',  ( -0.000000000000000000, -0.000000000000000000, 1.000000000000000000 ) ) ;
#234 = CARTESIAN_POINT ( 'NONE',  ( 0.000000000000000000, 0.000000000000000000, 5.799999999999999822 ) ) ;
#235 = CIRCLE ( 'NONE', #287, 12.52687420083785419 ) ;
#236 =( GEOMETRIC_REPRESENTATION_CONTEXT ( 3 ) GLOBAL_UNCERTAINTY_ASSIGNED_CONTEXT ( ( #1 ) ) GLOBAL_UNIT_ASSIGNED_CONTEXT ( ( #220, #44, #318 ) ) REPRESENTATION_CONTEXT ( 'NONE', 'WORKASPACE' ) );
#237 = FACE_OUTER_BOUND ( 'NONE', #140, .T. ) ;
#238 = DIRECTION ( 'NONE',  ( -1.000000000000000000, 0.000000000000000000, 0.000000000000000000 ) ) ;
#239 = ORIENTED_EDGE ( 'NONE', *, *, #84, .T. ) ;
#240 = CARTESIAN_POINT ( 'NONE',  ( 0.000000000000000000, 0.000000000000000000, 10.00000000000000000 ) ) ;
#241 = DIRECTION ( 'NONE',  ( 1.000000000000000000, 0.000000000000000000, 0.000000000000000000 ) ) ;
#242 = CIRCLE ( 'NONE', #213, 12.52687420083785419 ) ;
#243 = CARTESIAN_POINT ( 'NONE',  ( -12.69999999999999929, 1.555301434917138433E-15, 4.382064373895533826 ) ) ;
#244 = FACE_OUTER_BOUND ( 'NONE', #248, .T. ) ;
#245 = ORIENTED_EDGE ( 'NONE', *, *, #326, .F. ) ;
#246 = CIRCLE ( 'NONE', #323, 12.69999999999999929 ) ;
#247 = AXIS2_PLACEMENT_3D ( 'NONE', #260, #167, #241 ) ;
#248 = EDGE_LOOP ( 'NONE', ( #330, #120, #49, #132 ) ) ;
#249 = AXIS2_PLACEMENT_3D ( 'NONE', #215, #68, #119 ) ;
#250 = CARTESIAN_POINT ( 'NONE',  ( 12.69999999999999929, 1.555301434917138433E-15, 4.382064373895533826 ) ) ;
#251 = CARTESIAN_POINT ( 'NONE',  ( 0.000000000000000000, 0.000000000000000000, 5.973125799162120941 ) ) ;
#252 = PRODUCT ( 'GLM1-025B-100', 'GLM1-025B-100', '', ( #81 ) ) ;
#253 = ADVANCED_FACE ( 'NONE', ( #312 ), #60, .T. ) ;
#254 = EDGE_LOOP ( 'NONE', ( #55, #171, #86, #38 ) ) ;
#255 = CARTESIAN_POINT ( 'NONE',  ( 12.52687420083785597, 1.534099639337763779E-15, 5.973125799162135152 ) ) ;
#256 = CIRCLE ( 'NONE', #247, 12.51660009051966682 ) ;
#257 = ORIENTED_EDGE ( 'NONE', *, *, #223, .F. ) ;
#258 = CARTESIAN_POINT ( 'NONE',  ( 0.000000000000000000, 12.52687420083781511, 5.973125799162120941 ) ) ;
#259 = EDGE_CURVE ( 'NONE', #26, #113, #103, .T. ) ;
#260 = CARTESIAN_POINT ( 'NONE',  ( 0.000000000000000000, 0.000000000000000000, 3.921783238787050596 ) ) ;
#261 = AXIS2_PLACEMENT_3D ( 'NONE', #290, #327, #47 ) ;
#262 = DIRECTION ( 'NONE',  ( -1.000000000000000000, 0.000000000000000000, 0.000000000000000000 ) ) ;
#263 = DIRECTION ( 'NONE',  ( 1.000000000000000000, 0.000000000000000000, 0.000000000000000000 ) ) ;
#264 = DIRECTION ( 'NONE',  ( -1.000000000000000000, 0.000000000000000000, 0.000000000000000000 ) ) ;
#265 = PRODUCT_DEFINITION_CONTEXT ( 'detailed design', #187, 'design' ) ;
#266 = LINE ( 'NONE', #195, #124 ) ;
#267 = CARTESIAN_POINT ( 'NONE',  ( 0.000000000000000000, 0.000000000000000000, 5.973125799162120941 ) ) ;
#268 = CONICAL_SURFACE ( 'NONE', #131, 12.69999999999999929, 0.3791711273704264085 ) ;
#269 = VERTEX_POINT ( 'NONE', #12 ) ;
#270 = DIRECTION ( 'NONE',  ( -0.3701505973859326448, 4.533037442911630369E-17, 0.9289717623560131976 ) ) ;
#271 = CARTESIAN_POINT ( 'NONE',  ( -12.52687420083785597, 0.000000000000000000, 5.973125799162135152 ) ) ;
#272 = ORIENTED_EDGE ( 'NONE', *, *, #226, .F. ) ;
#273 = MECHANICAL_DESIGN_GEOMETRIC_PRESENTATION_REPRESENTATION (  '', ( #95 ), #62 ) ;
#274 = FACE_OUTER_BOUND ( 'NONE', #254, .T. ) ;
#275 = SURFACE_STYLE_FILL_AREA ( #202 ) ;
#276 = DIRECTION ( 'NONE',  ( -1.000000000000000000, 0.000000000000000000, 0.000000000000000000 ) ) ;
#277 = ORIENTED_EDGE ( 'NONE', *, *, #17, .F. ) ;
#278 = CARTESIAN_POINT ( 'NONE',  ( 0.000000000000000000, 0.000000000000000000, 4.382064373895533826 ) ) ;
#279 = ORIENTED_EDGE ( 'NONE', *, *, #146, .T. ) ;
#280 = CONICAL_SURFACE ( 'NONE', #159, 12.52687420083785597, 0.7853981633974733700 ) ;
#281 = CIRCLE ( 'NONE', #261, 12.51660009051966682 ) ;
#282 = EDGE_CURVE ( 'NONE', #106, #205, #256, .T. ) ;
#283 =( NAMED_UNIT ( * ) SI_UNIT ( $, .STERADIAN. ) SOLID_ANGLE_UNIT ( ) );
#284 = DIRECTION ( 'NONE',  ( 1.000000000000000000, -0.000000000000000000, 0.000000000000000000 ) ) ;
#285 = ORIENTED_EDGE ( 'NONE', *, *, #54, .F. ) ;
#286 = DIRECTION ( 'NONE',  ( -1.000000000000000000, 0.000000000000000000, 0.000000000000000000 ) ) ;
#287 = AXIS2_PLACEMENT_3D ( 'NONE', #325, #194, #50 ) ;
#288 = ADVANCED_FACE ( 'NONE', ( #16 ), #100, .T. ) ;
#289 = CLOSED_SHELL ( 'NONE', ( #288, #138, #90, #253, #30, #127, #176, #232, #203, #59 ) ) ;
#290 = CARTESIAN_POINT ( 'NONE',  ( 0.000000000000000000, 0.000000000000000000, 3.921783238787050596 ) ) ;
#291 = AXIS2_PLACEMENT_3D ( 'NONE', #240, #51, #75 ) ;
#292 = EDGE_CURVE ( 'NONE', #145, #201, #310, .T. ) ;
#293 = SPHERICAL_SURFACE ( 'NONE', #200, 82.22999999999998977 ) ;
#294 = CARTESIAN_POINT ( 'NONE',  ( -1.534099639337759046E-15, -12.52687420083781511, 5.973125799162120941 ) ) ;
#295 = DIRECTION ( 'NONE',  ( 1.000000000000000000, 0.000000000000000000, 0.000000000000000000 ) ) ;
#296 = PRODUCT_DEFINITION ( 'Î´Öª', '', #297, #265 ) ;
#297 = PRODUCT_DEFINITION_FORMATION_WITH_SPECIFIED_SOURCE ( 'ÈÎºÎ', '', #252, .NOT_KNOWN. ) ;
#298 = LINE ( 'NONE', #271, #29 ) ;
#299 = ORIENTED_EDGE ( 'NONE', *, *, #196, .T. ) ;
#300 = DIRECTION ( 'NONE',  ( 0.3701505973859326448, 0.000000000000000000, 0.9289717623560131976 ) ) ;
#301 = VERTEX_POINT ( 'NONE', #188 ) ;
#302 =( LENGTH_UNIT ( ) NAMED_UNIT ( * ) SI_UNIT ( .MILLI., .METRE. ) );
#303 = AXIS2_PLACEMENT_3D ( 'NONE', #20, #18, #222 ) ;
#304 = CYLINDRICAL_SURFACE ( 'NONE', #8, 12.69999999999999929 ) ;
#305 = ORIENTED_EDGE ( 'NONE', *, *, #321, .T. ) ;
#306 = DIRECTION ( 'NONE',  ( 1.000000000000000000, 0.000000000000000000, 0.000000000000000000 ) ) ;
#307 = EDGE_CURVE ( 'NONE', #269, #101, #281, .T. ) ;
#308 = CARTESIAN_POINT ( 'NONE',  ( -1.532841423706237562E-15, -12.51660009051965972, 3.921783238787048820 ) ) ;
#309 = AXIS2_PLACEMENT_3D ( 'NONE', #190, #148, #150 ) ;
#310 = CIRCLE ( 'NONE', #41, 12.69999999999999929 ) ;
#311 = CARTESIAN_POINT ( 'NONE',  ( 0.000000000000000000, 12.51660009051965972, 3.921783238787048820 ) ) ;
#312 = FACE_OUTER_BOUND ( 'NONE', #76, .T. ) ;
#313 = CARTESIAN_POINT ( 'NONE',  ( 12.69999999999999929, 1.555301434917138433E-15, 5.799999999999999822 ) ) ;
#314 = EDGE_LOOP ( 'NONE', ( #257, #181, #27, #91, #82 ) ) ;
#315 = AXIS2_PLACEMENT_3D ( 'NONE', #85, #286, #36 ) ;
#316 = AXIS2_PLACEMENT_3D ( 'NONE', #126, #92, #72 ) ;
#317 = ORIENTED_EDGE ( 'NONE', *, *, #259, .F. ) ;
#318 =( NAMED_UNIT ( * ) SI_UNIT ( $, .STERADIAN. ) SOLID_ANGLE_UNIT ( ) );
#319 = ADVANCED_BREP_SHAPE_REPRESENTATION ( 'GLM1-025B-100', ( #125, #89 ), #236 ) ;
#320 = DIRECTION ( 'NONE',  ( -0.000000000000000000, -0.000000000000000000, 1.000000000000000000 ) ) ;
#321 = EDGE_CURVE ( 'NONE', #88, #157, #48, .T. ) ;
#322 = DIRECTION ( 'NONE',  ( -1.000000000000000000, 0.000000000000000000, 0.000000000000000000 ) ) ;
#323 = AXIS2_PLACEMENT_3D ( 'NONE', #71, #217, #322 ) ;
#324 = DIRECTION ( 'NONE',  ( 0.000000000000000000, 1.000000000000000000, 0.000000000000000000 ) ) ;
#325 = CARTESIAN_POINT ( 'NONE',  ( 0.000000000000000000, 0.000000000000000000, 5.973125799162120941 ) ) ;
#326 = EDGE_CURVE ( 'NONE', #157, #301, #214, .T. ) ;
#327 = DIRECTION ( 'NONE',  ( 0.000000000000000000, 0.000000000000000000, -1.000000000000000000 ) ) ;
#328 = AXIS2_PLACEMENT_3D ( 'NONE', #162, #262, #43 ) ;
#329 = CIRCLE ( 'NONE', #67, 12.52687420083785419 ) ;
#330 = ORIENTED_EDGE ( 'NONE', *, *, #321, .F. ) ;
#331 = EDGE_CURVE ( 'NONE', #211, #157, #329, .T. ) ;
#332 = PRESENTATION_STYLE_ASSIGNMENT (( #83 ) ) ;
ENDSEC;
END-ISO-10303-21;
