ISO-10303-21;
HEADER;
FILE_DESCRIPTION (( 'STEP AP214' ),
    '1' );
FILE_NAME ('GLM1-025B-300.STEP',
    '2024-08-09T02:19:13',
    ( 'Windows User' ),
    ( 'P R C' ),
    'SwSTEP 2.0',
    'SolidWorks 2022',
    '' );
FILE_SCHEMA (( 'AUTOMOTIVE_DESIGN' ));
ENDSEC;

DATA;
#1 = PRODUCT_DEFINITION_FORMATION_WITH_SPECIFIED_SOURCE ( 'ÈÎºÎ', '', #88, .NOT_KNOWN. ) ;
#2 = DIRECTION ( 'NONE',  ( -0.000000000000000000, -0.000000000000000000, 1.000000000000000000 ) ) ;
#3 = CARTESIAN_POINT ( 'NONE',  ( 0.000000000000000000, 0.000000000000000000, 10.00000000000000000 ) ) ;
#4 = DIRECTION ( 'NONE',  ( 0.000000000000000000, 0.000000000000000000, -1.000000000000000000 ) ) ;
#5 = VERTEX_POINT ( 'NONE', #195 ) ;
#6 = CIRCLE ( 'NONE', #180, 12.69999999999999929 ) ;
#7 = ADVANCED_FACE ( 'NONE', ( #201 ), #143, .T. ) ;
#8 = PRESENTATION_STYLE_ASSIGNMENT (( #295 ) ) ;
#9 = ORIENTED_EDGE ( 'NONE', *, *, #226, .F. ) ;
#10 = EDGE_CURVE ( 'NONE', #162, #160, #268, .T. ) ;
#11 =( GEOMETRIC_REPRESENTATION_CONTEXT ( 3 ) GLOBAL_UNCERTAINTY_ASSIGNED_CONTEXT ( ( #13 ) ) GLOBAL_UNIT_ASSIGNED_CONTEXT ( ( #215, #165, #274 ) ) REPRESENTATION_CONTEXT ( 'NONE', 'WORKASPACE' ) );
#12 = APPLICATION_CONTEXT ( 'automotive_design' ) ;
#13 = UNCERTAINTY_MEASURE_WITH_UNIT (LENGTH_MEASURE( 1.000000000000000082E-05 ), #215, 'distance_accuracy_value', 'NONE');
#14 = CIRCLE ( 'NONE', #202, 12.50838802109486103 ) ;
#15 = AXIS2_PLACEMENT_3D ( 'NONE', #123, #227, #169 ) ;
#16 = ORIENTED_EDGE ( 'NONE', *, *, #216, .F. ) ;
#17 =( GEOMETRIC_REPRESENTATION_CONTEXT ( 3 ) GLOBAL_UNCERTAINTY_ASSIGNED_CONTEXT ( ( #41 ) ) GLOBAL_UNIT_ASSIGNED_CONTEXT ( ( #129, #189, #161 ) ) REPRESENTATION_CONTEXT ( 'NONE', 'WORKASPACE' ) );
#18 = ORIENTED_EDGE ( 'NONE', *, *, #214, .F. ) ;
#19 = AXIS2_PLACEMENT_3D ( 'NONE', #126, #125, #177 ) ;
#20 = ORIENTED_EDGE ( 'NONE', *, *, #256, .F. ) ;
#21 = CARTESIAN_POINT ( 'NONE',  ( 0.000000000000000000, 6.177730778298823983E-15, 3.197472243033488759 ) ) ;
#22 = LINE ( 'NONE', #52, #36 ) ;
#23 = CARTESIAN_POINT ( 'NONE',  ( 0.000000000000000000, 0.000000000000000000, 293.9200409836037124 ) ) ;
#24 = SHAPE_DEFINITION_REPRESENTATION ( #30, #329 ) ;
#25 = EDGE_CURVE ( 'NONE', #102, #218, #328, .T. ) ;
#26 = CARTESIAN_POINT ( 'NONE',  ( 0.000000000000000000, 0.000000000000000000, 293.9200409836037124 ) ) ;
#27 = DIRECTION ( 'NONE',  ( -0.000000000000000000, -0.000000000000000000, -1.000000000000000000 ) ) ;
#28 = PRESENTATION_LAYER_ASSIGNMENT (  '', '', ( #272 ) ) ;
#29 = FILL_AREA_STYLE_COLOUR ( '', #141 ) ;
#30 = PRODUCT_DEFINITION_SHAPE ( 'NONE', 'NONE',  #179 ) ;
#31 = PRODUCT_DEFINITION_CONTEXT ( 'detailed design', #50, 'design' ) ;
#32 = AXIS2_PLACEMENT_3D ( 'NONE', #156, #109, #135 ) ;
#33 = DIRECTION ( 'NONE',  ( 0.000000000000000000, 0.000000000000000000, -1.000000000000000000 ) ) ;
#34 = DIRECTION ( 'NONE',  ( 1.000000000000000000, 0.000000000000000000, 0.000000000000000000 ) ) ;
#35 = UNCERTAINTY_MEASURE_WITH_UNIT (LENGTH_MEASURE( 1.000000000000000082E-05 ), #262, 'distance_accuracy_value', 'NONE');
#36 = VECTOR ( 'NONE', #106, 1000.000000000000000 ) ;
#37 = CARTESIAN_POINT ( 'NONE',  ( 0.000000000000000000, 0.000000000000000000, 104.0874722430335027 ) ) ;
#38 = ORIENTED_EDGE ( 'NONE', *, *, #110, .T. ) ;
#39 =( NAMED_UNIT ( * ) PLANE_ANGLE_UNIT ( ) SI_UNIT ( $, .RADIAN. ) );
#40 = ORIENTED_EDGE ( 'NONE', *, *, #282, .F. ) ;
#41 = UNCERTAINTY_MEASURE_WITH_UNIT (LENGTH_MEASURE( 1.000000000000000082E-05 ), #129, 'distance_accuracy_value', 'NONE');
#42 = DIRECTION ( 'NONE',  ( -0.000000000000000000, -0.000000000000000000, 1.000000000000000000 ) ) ;
#43 = AXIS2_PLACEMENT_3D ( 'NONE', #147, #44, #251 ) ;
#44 = DIRECTION ( 'NONE',  ( -0.000000000000000000, -0.000000000000000000, -1.000000000000000000 ) ) ;
#45 = ADVANCED_FACE ( 'NONE', ( #172 ), #222, .F. ) ;
#46 =( GEOMETRIC_REPRESENTATION_CONTEXT ( 3 ) GLOBAL_UNCERTAINTY_ASSIGNED_CONTEXT ( ( #35 ) ) GLOBAL_UNIT_ASSIGNED_CONTEXT ( ( #262, #39, #241 ) ) REPRESENTATION_CONTEXT ( 'NONE', 'WORKASPACE' ) );
#47 = DIRECTION ( 'NONE',  ( 1.000000000000000000, 0.000000000000000000, 0.000000000000000000 ) ) ;
#48 = CARTESIAN_POINT ( 'NONE',  ( -12.69999999999999929, 1.555301434917138433E-15, 4.230902662384877999 ) ) ;
#49 = CIRCLE ( 'NONE', #32, 12.50176226215777930 ) ;
#50 = APPLICATION_CONTEXT ( 'automotive_design' ) ;
#51 = VERTEX_POINT ( 'NONE', #21 ) ;
#52 = CARTESIAN_POINT ( 'NONE',  ( 12.50838802109488590, 1.531835735252694865E-15, 5.991611978905131863 ) ) ;
#53 = PRODUCT_CONTEXT ( 'NONE', #12, 'mechanical' ) ;
#54 = AXIS2_PLACEMENT_3D ( 'NONE', #132, #305, #285 ) ;
#55 = CARTESIAN_POINT ( 'NONE',  ( -12.69999999999999929, 0.000000000000000000, 4.230902662384877999 ) ) ;
#56 = CARTESIAN_POINT ( 'NONE',  ( 0.000000000000000000, 0.000000000000000000, 5.991611978905075908 ) ) ;
#57 = DIRECTION ( 'NONE',  ( 1.000000000000000000, 0.000000000000000000, 0.000000000000000000 ) ) ;
#58 = DIRECTION ( 'NONE',  ( -0.000000000000000000, -0.000000000000000000, 1.000000000000000000 ) ) ;
#59 = DIRECTION ( 'NONE',  ( -1.000000000000000000, 0.000000000000000000, 0.000000000000000000 ) ) ;
#60 = CIRCLE ( 'NONE', #105, 100.8900000000000006 ) ;
#61 = FACE_OUTER_BOUND ( 'NONE', #185, .T. ) ;
#62 = ORIENTED_EDGE ( 'NONE', *, *, #238, .F. ) ;
#63 = ADVANCED_FACE ( 'NONE', ( #97 ), #76, .T. ) ;
#64 = CIRCLE ( 'NONE', #261, 12.50176226215777930 ) ;
#65 = EDGE_LOOP ( 'NONE', ( #239, #114, #140, #18 ) ) ;
#66 = PRODUCT_RELATED_PRODUCT_CATEGORY ( 'part', '', ( #88 ) ) ;
#67 = CONICAL_SURFACE ( 'NONE', #107, 12.50838802109488590, 0.7853981633974710386 ) ;
#68 = ORIENTED_EDGE ( 'NONE', *, *, #228, .T. ) ;
#69 = AXIS2_PLACEMENT_3D ( 'NONE', #149, #252, #79 ) ;
#70 = FACE_OUTER_BOUND ( 'NONE', #115, .T. ) ;
#71 = ORIENTED_EDGE ( 'NONE', *, *, #25, .T. ) ;
#72 = AXIS2_PLACEMENT_3D ( 'NONE', #111, #283, #310 ) ;
#73 = DIRECTION ( 'NONE',  ( -0.000000000000000000, -0.000000000000000000, -1.000000000000000000 ) ) ;
#74 = EDGE_CURVE ( 'NONE', #218, #242, #78, .T. ) ;
#75 = CARTESIAN_POINT ( 'NONE',  ( 0.000000000000000000, 0.000000000000000000, 3.975045240485544529 ) ) ;
#76 = CYLINDRICAL_SURFACE ( 'NONE', #43, 12.69999999999999929 ) ;
#77 = EDGE_CURVE ( 'NONE', #92, #171, #247, .T. ) ;
#78 = CIRCLE ( 'NONE', #159, 12.50838802109486103 ) ;
#79 = DIRECTION ( 'NONE',  ( 1.000000000000000000, 0.000000000000000000, 0.000000000000000000 ) ) ;
#80 = FILL_AREA_STYLE ('',( #29 ) ) ;
#81 = APPLICATION_PROTOCOL_DEFINITION ( 'draft international standard', 'automotive_design', 1998, #50 ) ;
#82 = CONICAL_SURFACE ( 'NONE', #164, 12.69999999999999929, 0.6591836576304348494 ) ;
#83 = DIRECTION ( 'NONE',  ( -0.7071067811865635599, 0.000000000000000000, -0.7071067811865314745 ) ) ;
#84 = DIRECTION ( 'NONE',  ( -1.224646799147353207E-16, -1.000000000000000000, 0.000000000000000000 ) ) ;
#85 = FACE_OUTER_BOUND ( 'NONE', #65, .T. ) ;
#86 = DIRECTION ( 'NONE',  ( -0.000000000000000000, -0.000000000000000000, -1.000000000000000000 ) ) ;
#87 = ORIENTED_EDGE ( 'NONE', *, *, #327, .T. ) ;
#88 = PRODUCT ( 'GLM1-025B-300', 'GLM1-025B-300', '', ( #53 ) ) ;
#89 = DIRECTION ( 'NONE',  ( 0.000000000000000000, 0.000000000000000000, -1.000000000000000000 ) ) ;
#90 = ORIENTED_EDGE ( 'NONE', *, *, #238, .T. ) ;
#91 = FILL_AREA_STYLE_COLOUR ( '', #93 ) ;
#92 = VERTEX_POINT ( 'NONE', #322 ) ;
#93 = COLOUR_RGB ( '',1.000000000000000000, 1.000000000000000000, 1.000000000000000000 ) ;
#94 = DIRECTION ( 'NONE',  ( 0.6124717436197836262, 0.000000000000000000, 0.7904924814742655403 ) ) ;
#95 = FILL_AREA_STYLE ('',( #91 ) ) ;
#96 = ORIENTED_EDGE ( 'NONE', *, *, #25, .F. ) ;
#97 = FACE_OUTER_BOUND ( 'NONE', #119, .T. ) ;
#98 = ORIENTED_EDGE ( 'NONE', *, *, #188, .T. ) ;
#99 = CIRCLE ( 'NONE', #213, 288.1999999999999886 ) ;
#100 = CARTESIAN_POINT ( 'NONE',  ( 0.000000000000000000, 1.764716037571336072E-14, 5.720040983603680296 ) ) ;
#101 = VERTEX_POINT ( 'NONE', #100 ) ;
#102 = VERTEX_POINT ( 'NONE', #301 ) ;
#103 = CARTESIAN_POINT ( 'NONE',  ( 0.000000000000000000, 0.000000000000000000, 104.0874722430335027 ) ) ;
#104 = APPLICATION_PROTOCOL_DEFINITION ( 'draft international standard', 'automotive_design', 1998, #12 ) ;
#105 = AXIS2_PLACEMENT_3D ( 'NONE', #235, #257, #4 ) ;
#106 = DIRECTION ( 'NONE',  ( 0.7071067811865635599, 8.659560562355128841E-17, -0.7071067811865314745 ) ) ;
#107 = AXIS2_PLACEMENT_3D ( 'NONE', #206, #89, #265 ) ;
#108 = FACE_OUTER_BOUND ( 'NONE', #287, .T. ) ;
#109 = DIRECTION ( 'NONE',  ( 0.000000000000000000, 0.000000000000000000, -1.000000000000000000 ) ) ;
#110 = EDGE_CURVE ( 'NONE', #197, #5, #64, .T. ) ;
#111 = CARTESIAN_POINT ( 'NONE',  ( 0.000000000000000000, 0.000000000000000000, 5.991611978905075908 ) ) ;
#112 = CARTESIAN_POINT ( 'NONE',  ( 0.000000000000000000, 12.50838802109430148, 5.991611978905075908 ) ) ;
#113 = DIRECTION ( 'NONE',  ( 1.000000000000000000, 0.000000000000000000, 0.000000000000000000 ) ) ;
#114 = ORIENTED_EDGE ( 'NONE', *, *, #10, .T. ) ;
#115 = EDGE_LOOP ( 'NONE', ( #198, #96, #20, #139, #240 ) ) ;
#116 = AXIS2_PLACEMENT_3D ( 'NONE', #3, #86, #153 ) ;
#117 = EDGE_LOOP ( 'NONE', ( #16, #296, #98, #190 ) ) ;
#118 = EDGE_CURVE ( 'NONE', #317, #289, #146, .T. ) ;
#119 = EDGE_LOOP ( 'NONE', ( #236, #264, #245, #90 ) ) ;
#120 = ADVANCED_FACE ( 'NONE', ( #108 ), #82, .T. ) ;
#121 = ORIENTED_EDGE ( 'NONE', *, *, #216, .T. ) ;
#122 = VECTOR ( 'NONE', #83, 1000.000000000000000 ) ;
#123 = CARTESIAN_POINT ( 'NONE',  ( 0.000000000000000000, 0.000000000000000000, 5.991611978905075908 ) ) ;
#124 = DIRECTION ( 'NONE',  ( -1.000000000000000000, 0.000000000000000000, 0.000000000000000000 ) ) ;
#125 = DIRECTION ( 'NONE',  ( -1.000000000000000000, 0.000000000000000000, 0.000000000000000000 ) ) ;
#126 = CARTESIAN_POINT ( 'NONE',  ( 0.000000000000000000, 0.000000000000000000, 104.0874722430335027 ) ) ;
#127 = EDGE_CURVE ( 'NONE', #218, #162, #22, .T. ) ;
#128 = DIRECTION ( 'NONE',  ( -1.000000000000000000, 0.000000000000000000, 0.000000000000000000 ) ) ;
#129 =( LENGTH_UNIT ( ) NAMED_UNIT ( * ) SI_UNIT ( .MILLI., .METRE. ) );
#130 = ADVANCED_FACE ( 'NONE', ( #330 ), #207, .T. ) ;
#131 = AXIS2_PLACEMENT_3D ( 'NONE', #37, #191, #292 ) ;
#132 = CARTESIAN_POINT ( 'NONE',  ( 0.000000000000000000, 0.000000000000000000, 3.975045240485544529 ) ) ;
#133 = PRESENTATION_STYLE_ASSIGNMENT (( #255 ) ) ;
#134 = CYLINDRICAL_SURFACE ( 'NONE', #116, 12.69999999999999929 ) ;
#135 = DIRECTION ( 'NONE',  ( 1.000000000000000000, 0.000000000000000000, 0.000000000000000000 ) ) ;
#136 = ORIENTED_EDGE ( 'NONE', *, *, #74, .T. ) ;
#137 = AXIS2_PLACEMENT_3D ( 'NONE', #182, #233, #57 ) ;
#138 = CARTESIAN_POINT ( 'NONE',  ( 12.69999999999999929, 0.000000000000000000, 4.230902662384877999 ) ) ;
#139 = ORIENTED_EDGE ( 'NONE', *, *, #118, .T. ) ;
#140 = ORIENTED_EDGE ( 'NONE', *, *, #226, .T. ) ;
#141 = COLOUR_RGB ( '',1.000000000000000000, 1.000000000000000000, 1.000000000000000000 ) ;
#142 = DIRECTION ( 'NONE',  ( 1.000000000000000000, 0.000000000000000000, 0.000000000000000000 ) ) ;
#143 = CONICAL_SURFACE ( 'NONE', #223, 12.50838802109488590, 0.7853981633974710386 ) ;
#144 = DIRECTION ( 'NONE',  ( -1.000000000000000000, 0.000000000000000000, 0.000000000000000000 ) ) ;
#145 = CIRCLE ( 'NONE', #131, 100.8900000000000006 ) ;
#146 = LINE ( 'NONE', #249, #122 ) ;
#147 = CARTESIAN_POINT ( 'NONE',  ( 0.000000000000000000, 0.000000000000000000, 10.00000000000000000 ) ) ;
#148 = ORIENTED_EDGE ( 'NONE', *, *, #163, .F. ) ;
#149 = CARTESIAN_POINT ( 'NONE',  ( 0.000000000000000000, 0.000000000000000000, 3.975045240485544529 ) ) ;
#150 = AXIS2_PLACEMENT_3D ( 'NONE', #183, #208, #84 ) ;
#151 = ADVANCED_FACE ( 'NONE', ( #325 ), #304, .F. ) ;
#152 = SPHERICAL_SURFACE ( 'NONE', #237, 100.8900000000000006 ) ;
#153 = DIRECTION ( 'NONE',  ( -1.000000000000000000, 0.000000000000000000, 0.000000000000000000 ) ) ;
#154 = ADVANCED_FACE ( 'NONE', ( #254 ), #152, .T. ) ;
#155 = DIRECTION ( 'NONE',  ( -0.000000000000000000, -0.000000000000000000, 1.000000000000000000 ) ) ;
#156 = CARTESIAN_POINT ( 'NONE',  ( 0.000000000000000000, 0.000000000000000000, 3.975045240485544529 ) ) ;
#157 = LINE ( 'NONE', #211, #280 ) ;
#158 = DIRECTION ( 'NONE',  ( -0.000000000000000000, -0.000000000000000000, 1.000000000000000000 ) ) ;
#159 = AXIS2_PLACEMENT_3D ( 'NONE', #230, #42, #142 ) ;
#160 = VERTEX_POINT ( 'NONE', #175 ) ;
#161 =( NAMED_UNIT ( * ) SI_UNIT ( $, .STERADIAN. ) SOLID_ANGLE_UNIT ( ) );
#162 = VERTEX_POINT ( 'NONE', #203 ) ;
#163 = EDGE_CURVE ( 'NONE', #92, #275, #209, .T. ) ;
#164 = AXIS2_PLACEMENT_3D ( 'NONE', #205, #231, #307 ) ;
#165 =( NAMED_UNIT ( * ) PLANE_ANGLE_UNIT ( ) SI_UNIT ( $, .RADIAN. ) );
#166 = ORIENTED_EDGE ( 'NONE', *, *, #163, .T. ) ;
#167 = CARTESIAN_POINT ( 'NONE',  ( -12.50838802109486103, 0.000000000000000000, 5.991611978905075908 ) ) ;
#168 = ORIENTED_EDGE ( 'NONE', *, *, #188, .F. ) ;
#169 = DIRECTION ( 'NONE',  ( 1.000000000000000000, 0.000000000000000000, 0.000000000000000000 ) ) ;
#170 = VECTOR ( 'NONE', #73, 1000.000000000000000 ) ;
#171 = VERTEX_POINT ( 'NONE', #55 ) ;
#172 = FACE_OUTER_BOUND ( 'NONE', #117, .T. ) ;
#173 = CONICAL_SURFACE ( 'NONE', #244, 12.69999999999999929, 0.6591836576304348494 ) ;
#174 = CARTESIAN_POINT ( 'NONE',  ( 0.000000000000000000, 0.000000000000000000, 5.991611978905131863 ) ) ;
#175 = CARTESIAN_POINT ( 'NONE',  ( 12.69999999999999929, 1.555301434917138433E-15, 4.230902662384877999 ) ) ;
#176 = EDGE_CURVE ( 'NONE', #101, #242, #99, .T. ) ;
#177 = DIRECTION ( 'NONE',  ( 0.000000000000000000, 1.000000000000000000, 0.000000000000000000 ) ) ;
#178 = SURFACE_STYLE_FILL_AREA ( #80 ) ;
#179 = PRODUCT_DEFINITION ( 'Î´Öª', '', #1, #31 ) ;
#180 = AXIS2_PLACEMENT_3D ( 'NONE', #286, #58, #311 ) ;
#181 = STYLED_ITEM ( 'NONE', ( #133 ), #297 ) ;
#182 = CARTESIAN_POINT ( 'NONE',  ( 0.000000000000000000, 0.000000000000000000, 5.800000000000027356 ) ) ;
#183 = CARTESIAN_POINT ( 'NONE',  ( 0.000000000000000000, 0.000000000000000000, 293.9200409836037124 ) ) ;
#184 = CARTESIAN_POINT ( 'NONE',  ( 0.000000000000000000, 0.000000000000000000, 4.230902662384877999 ) ) ;
#185 = EDGE_LOOP ( 'NONE', ( #148, #243, #9, #187, #312 ) ) ;
#186 = CIRCLE ( 'NONE', #318, 12.69999999999999929 ) ;
#187 = ORIENTED_EDGE ( 'NONE', *, *, #314, .F. ) ;
#188 = EDGE_CURVE ( 'NONE', #242, #317, #225, .T. ) ;
#189 =( NAMED_UNIT ( * ) PLANE_ANGLE_UNIT ( ) SI_UNIT ( $, .RADIAN. ) );
#190 = ORIENTED_EDGE ( 'NONE', *, *, #256, .T. ) ;
#191 = DIRECTION ( 'NONE',  ( -1.000000000000000000, 1.224646799147353207E-16, 0.000000000000000000 ) ) ;
#192 = ORIENTED_EDGE ( 'NONE', *, *, #281, .T. ) ;
#193 = SURFACE_STYLE_FILL_AREA ( #95 ) ;
#194 = ORIENTED_EDGE ( 'NONE', *, *, #246, .F. ) ;
#195 = CARTESIAN_POINT ( 'NONE',  ( -1.531024313805262852E-15, -12.50176226215772068, 3.975045240485544529 ) ) ;
#196 = CIRCLE ( 'NONE', #54, 12.50176226215777930 ) ;
#197 = VERTEX_POINT ( 'NONE', #212 ) ;
#198 = ORIENTED_EDGE ( 'NONE', *, *, #127, .F. ) ;
#199 = EDGE_LOOP ( 'NONE', ( #323, #324, #194, #267, #168 ) ) ;
#200 = DIRECTION ( 'NONE',  ( 1.000000000000000000, 0.000000000000000000, 0.000000000000000000 ) ) ;
#201 = FACE_OUTER_BOUND ( 'NONE', #199, .T. ) ;
#202 = AXIS2_PLACEMENT_3D ( 'NONE', #56, #155, #284 ) ;
#203 = CARTESIAN_POINT ( 'NONE',  ( 12.69999999999999929, 1.555301434917138433E-15, 5.800000000000027356 ) ) ;
#204 = VECTOR ( 'NONE', #250, 1000.000000000000000 ) ;
#205 = CARTESIAN_POINT ( 'NONE',  ( 0.000000000000000000, 0.000000000000000000, 4.230902662384877999 ) ) ;
#206 = CARTESIAN_POINT ( 'NONE',  ( 0.000000000000000000, 0.000000000000000000, 5.991611978905131863 ) ) ;
#207 = SPHERICAL_SURFACE ( 'NONE', #19, 100.8900000000000006 ) ;
#208 = DIRECTION ( 'NONE',  ( -1.000000000000000000, 1.224646799147353207E-16, 0.000000000000000000 ) ) ;
#209 = CIRCLE ( 'NONE', #69, 12.50176226215777930 ) ;
#210 = EDGE_CURVE ( 'NONE', #162, #289, #299, .T. ) ;
#211 = CARTESIAN_POINT ( 'NONE',  ( -12.69999999999999929, 0.000000000000000000, 10.00000000000000000 ) ) ;
#212 = CARTESIAN_POINT ( 'NONE',  ( 12.50176226215777930, 0.000000000000000000, 3.975045240485544529 ) ) ;
#213 = AXIS2_PLACEMENT_3D ( 'NONE', #26, #309, #259 ) ;
#214 = EDGE_CURVE ( 'NONE', #289, #171, #157, .T. ) ;
#215 =( LENGTH_UNIT ( ) NAMED_UNIT ( * ) SI_UNIT ( .MILLI., .METRE. ) );
#216 = EDGE_CURVE ( 'NONE', #101, #102, #321, .T. ) ;
#217 = AXIS2_PLACEMENT_3D ( 'NONE', #270, #124, #229 ) ;
#218 = VERTEX_POINT ( 'NONE', #234 ) ;
#219 = MECHANICAL_DESIGN_GEOMETRIC_PRESENTATION_REPRESENTATION (  '', ( #272 ), #11 ) ;
#220 = ORIENTED_EDGE ( 'NONE', *, *, #282, .T. ) ;
#221 = AXIS2_PLACEMENT_3D ( 'NONE', #332, #33, #113 ) ;
#222 = SPHERICAL_SURFACE ( 'NONE', #217, 288.1999999999999886 ) ;
#223 = AXIS2_PLACEMENT_3D ( 'NONE', #174, #302, #144 ) ;
#224 = ORIENTED_EDGE ( 'NONE', *, *, #77, .F. ) ;
#225 = CIRCLE ( 'NONE', #72, 12.50838802109486103 ) ;
#226 = EDGE_CURVE ( 'NONE', #160, #171, #6, .T. ) ;
#227 = DIRECTION ( 'NONE',  ( -0.000000000000000000, -0.000000000000000000, 1.000000000000000000 ) ) ;
#228 = EDGE_CURVE ( 'NONE', #5, #92, #196, .T. ) ;
#229 = DIRECTION ( 'NONE',  ( 0.000000000000000000, 1.000000000000000000, 0.000000000000000000 ) ) ;
#230 = CARTESIAN_POINT ( 'NONE',  ( 0.000000000000000000, 0.000000000000000000, 5.991611978905075908 ) ) ;
#231 = DIRECTION ( 'NONE',  ( -0.000000000000000000, -0.000000000000000000, 1.000000000000000000 ) ) ;
#232 = DIRECTION ( 'NONE',  ( 0.000000000000000000, 1.000000000000000000, 0.000000000000000000 ) ) ;
#233 = DIRECTION ( 'NONE',  ( 0.000000000000000000, 0.000000000000000000, -1.000000000000000000 ) ) ;
#234 = CARTESIAN_POINT ( 'NONE',  ( 12.50838802109486103, 1.543568585084915170E-15, 5.991611978905075908 ) ) ;
#235 = CARTESIAN_POINT ( 'NONE',  ( 0.000000000000000000, 0.000000000000000000, 104.0874722430335027 ) ) ;
#236 = ORIENTED_EDGE ( 'NONE', *, *, #10, .F. ) ;
#237 = AXIS2_PLACEMENT_3D ( 'NONE', #103, #276, #278 ) ;
#238 = EDGE_CURVE ( 'NONE', #171, #160, #186, .T. ) ;
#239 = ORIENTED_EDGE ( 'NONE', *, *, #246, .T. ) ;
#240 = ORIENTED_EDGE ( 'NONE', *, *, #210, .F. ) ;
#241 =( NAMED_UNIT ( * ) SI_UNIT ( $, .STERADIAN. ) SOLID_ANGLE_UNIT ( ) );
#242 = VERTEX_POINT ( 'NONE', #112 ) ;
#243 = ORIENTED_EDGE ( 'NONE', *, *, #77, .T. ) ;
#244 = AXIS2_PLACEMENT_3D ( 'NONE', #184, #158, #34 ) ;
#245 = ORIENTED_EDGE ( 'NONE', *, *, #214, .T. ) ;
#246 = EDGE_CURVE ( 'NONE', #289, #162, #303, .T. ) ;
#247 = LINE ( 'NONE', #48, #204 ) ;
#248 = PRESENTATION_LAYER_ASSIGNMENT (  '', '', ( #181 ) ) ;
#249 = CARTESIAN_POINT ( 'NONE',  ( -12.50838802109488590, 0.000000000000000000, 5.991611978905131863 ) ) ;
#250 = DIRECTION ( 'NONE',  ( -0.6124717436197836262, 7.500615603921663668E-17, 0.7904924814742655403 ) ) ;
#251 = DIRECTION ( 'NONE',  ( -1.000000000000000000, 0.000000000000000000, 0.000000000000000000 ) ) ;
#252 = DIRECTION ( 'NONE',  ( 0.000000000000000000, 0.000000000000000000, -1.000000000000000000 ) ) ;
#253 = AXIS2_PLACEMENT_3D ( 'NONE', #23, #128, #232 ) ;
#254 = FACE_OUTER_BOUND ( 'NONE', #291, .T. ) ;
#255 = SURFACE_STYLE_USAGE ( .BOTH. , #279 ) ;
#256 = EDGE_CURVE ( 'NONE', #317, #102, #14, .T. ) ;
#257 = DIRECTION ( 'NONE',  ( 1.000000000000000000, -0.000000000000000000, 0.000000000000000000 ) ) ;
#258 = CARTESIAN_POINT ( 'NONE',  ( 0.000000000000000000, 0.000000000000000000, 4.230902662384877999 ) ) ;
#259 = DIRECTION ( 'NONE',  ( 0.000000000000000000, 0.000000000000000000, -1.000000000000000000 ) ) ;
#260 = ORIENTED_EDGE ( 'NONE', *, *, #110, .F. ) ;
#261 = AXIS2_PLACEMENT_3D ( 'NONE', #75, #271, #47 ) ;
#262 =( LENGTH_UNIT ( ) NAMED_UNIT ( * ) SI_UNIT ( .MILLI., .METRE. ) );
#263 = ADVANCED_FACE ( 'NONE', ( #85 ), #134, .T. ) ;
#264 = ORIENTED_EDGE ( 'NONE', *, *, #210, .T. ) ;
#265 = DIRECTION ( 'NONE',  ( -1.000000000000000000, 0.000000000000000000, 0.000000000000000000 ) ) ;
#266 = LINE ( 'NONE', #138, #290 ) ;
#267 = ORIENTED_EDGE ( 'NONE', *, *, #118, .F. ) ;
#268 = LINE ( 'NONE', #273, #170 ) ;
#269 = ADVANCED_FACE ( 'NONE', ( #61 ), #173, .T. ) ;
#270 = CARTESIAN_POINT ( 'NONE',  ( 0.000000000000000000, 0.000000000000000000, 293.9200409836037124 ) ) ;
#271 = DIRECTION ( 'NONE',  ( 0.000000000000000000, 0.000000000000000000, -1.000000000000000000 ) ) ;
#272 = STYLED_ITEM ( 'NONE', ( #8 ), #329 ) ;
#273 = CARTESIAN_POINT ( 'NONE',  ( 12.69999999999999929, 1.555301434917138433E-15, 10.00000000000000000 ) ) ;
#274 =( NAMED_UNIT ( * ) SI_UNIT ( $, .STERADIAN. ) SOLID_ANGLE_UNIT ( ) );
#275 = VERTEX_POINT ( 'NONE', #308 ) ;
#276 = DIRECTION ( 'NONE',  ( -1.000000000000000000, 0.000000000000000000, 0.000000000000000000 ) ) ;
#277 = DIRECTION ( 'NONE',  ( 0.000000000000000000, 0.000000000000000000, 1.000000000000000000 ) ) ;
#278 = DIRECTION ( 'NONE',  ( 0.000000000000000000, 1.000000000000000000, 0.000000000000000000 ) ) ;
#279 = SURFACE_SIDE_STYLE ('',( #178 ) ) ;
#280 = VECTOR ( 'NONE', #27, 1000.000000000000000 ) ;
#281 = EDGE_CURVE ( 'NONE', #275, #197, #49, .T. ) ;
#282 = EDGE_CURVE ( 'NONE', #51, #275, #60, .T. ) ;
#283 = DIRECTION ( 'NONE',  ( -0.000000000000000000, -0.000000000000000000, 1.000000000000000000 ) ) ;
#284 = DIRECTION ( 'NONE',  ( 1.000000000000000000, 0.000000000000000000, 0.000000000000000000 ) ) ;
#285 = DIRECTION ( 'NONE',  ( 1.000000000000000000, 0.000000000000000000, 0.000000000000000000 ) ) ;
#286 = CARTESIAN_POINT ( 'NONE',  ( 0.000000000000000000, 0.000000000000000000, 4.230902662384877999 ) ) ;
#287 = EDGE_LOOP ( 'NONE', ( #224, #313, #260, #294, #62 ) ) ;
#288 = CLOSED_SHELL ( 'NONE', ( #7, #269, #151, #130, #263, #63, #154, #45, #120, #306 ) ) ;
#289 = VERTEX_POINT ( 'NONE', #331 ) ;
#290 = VECTOR ( 'NONE', #94, 1000.000000000000000 ) ;
#291 = EDGE_LOOP ( 'NONE', ( #298, #220, #192, #38 ) ) ;
#292 = DIRECTION ( 'NONE',  ( -1.224646799147353454E-16, -1.000000000000000000, 0.000000000000000000 ) ) ;
#293 = AXIS2_PLACEMENT_3D ( 'NONE', #326, #277, #200 ) ;
#294 = ORIENTED_EDGE ( 'NONE', *, *, #314, .T. ) ;
#295 = SURFACE_STYLE_USAGE ( .BOTH. , #316 ) ;
#296 = ORIENTED_EDGE ( 'NONE', *, *, #176, .T. ) ;
#297 = MANIFOLD_SOLID_BREP ( 'µ¹½Ç1', #288 ) ;
#298 = ORIENTED_EDGE ( 'NONE', *, *, #327, .F. ) ;
#299 = CIRCLE ( 'NONE', #137, 12.69999999999999929 ) ;
#300 = EDGE_LOOP ( 'NONE', ( #40, #87, #68, #166 ) ) ;
#301 = CARTESIAN_POINT ( 'NONE',  ( -1.531835735252623078E-15, -12.50838802109430148, 5.991611978905075908 ) ) ;
#302 = DIRECTION ( 'NONE',  ( 0.000000000000000000, 0.000000000000000000, -1.000000000000000000 ) ) ;
#303 = CIRCLE ( 'NONE', #221, 12.69999999999999929 ) ;
#304 = SPHERICAL_SURFACE ( 'NONE', #253, 288.1999999999999886 ) ;
#305 = DIRECTION ( 'NONE',  ( 0.000000000000000000, 0.000000000000000000, -1.000000000000000000 ) ) ;
#306 = ADVANCED_FACE ( 'NONE', ( #70 ), #67, .T. ) ;
#307 = DIRECTION ( 'NONE',  ( 1.000000000000000000, 0.000000000000000000, 0.000000000000000000 ) ) ;
#308 = CARTESIAN_POINT ( 'NONE',  ( 0.000000000000000000, 12.50176226215772068, 3.975045240485544529 ) ) ;
#309 = DIRECTION ( 'NONE',  ( 1.000000000000000000, 0.000000000000000000, 0.000000000000000000 ) ) ;
#310 = DIRECTION ( 'NONE',  ( 1.000000000000000000, 0.000000000000000000, 0.000000000000000000 ) ) ;
#311 = DIRECTION ( 'NONE',  ( -1.000000000000000000, 0.000000000000000000, 0.000000000000000000 ) ) ;
#312 = ORIENTED_EDGE ( 'NONE', *, *, #281, .F. ) ;
#313 = ORIENTED_EDGE ( 'NONE', *, *, #228, .F. ) ;
#314 = EDGE_CURVE ( 'NONE', #197, #160, #266, .T. ) ;
#315 = MECHANICAL_DESIGN_GEOMETRIC_PRESENTATION_REPRESENTATION (  '', ( #181 ), #17 ) ;
#316 = SURFACE_SIDE_STYLE ('',( #193 ) ) ;
#317 = VERTEX_POINT ( 'NONE', #167 ) ;
#318 = AXIS2_PLACEMENT_3D ( 'NONE', #258, #2, #59 ) ;
#319 = ORIENTED_EDGE ( 'NONE', *, *, #176, .F. ) ;
#320 = EDGE_LOOP ( 'NONE', ( #319, #121, #71, #136 ) ) ;
#321 = CIRCLE ( 'NONE', #150, 288.1999999999999886 ) ;
#322 = CARTESIAN_POINT ( 'NONE',  ( -12.50176226215777930, 1.543162874361204192E-15, 3.975045240485544529 ) ) ;
#323 = ORIENTED_EDGE ( 'NONE', *, *, #74, .F. ) ;
#324 = ORIENTED_EDGE ( 'NONE', *, *, #127, .T. ) ;
#325 = FACE_OUTER_BOUND ( 'NONE', #320, .T. ) ;
#326 = CARTESIAN_POINT ( 'NONE',  ( 0.000000000000000000, 0.000000000000000000, 0.000000000000000000 ) ) ;
#327 = EDGE_CURVE ( 'NONE', #51, #5, #145, .T. ) ;
#328 = CIRCLE ( 'NONE', #15, 12.50838802109486103 ) ;
#329 = ADVANCED_BREP_SHAPE_REPRESENTATION ( 'GLM1-025B-300', ( #297, #293 ), #46 ) ;
#330 = FACE_OUTER_BOUND ( 'NONE', #300, .T. ) ;
#331 = CARTESIAN_POINT ( 'NONE',  ( -12.69999999999999929, 0.000000000000000000, 5.800000000000027356 ) ) ;
#332 = CARTESIAN_POINT ( 'NONE',  ( 0.000000000000000000, 0.000000000000000000, 5.800000000000027356 ) ) ;
ENDSEC;
END-ISO-10303-21;
