ISO-10303-21;
HEADER;
FILE_DESCRIPTION (( 'STEP AP214' ),
    '1' );
FILE_NAME ('GLM1-050B-100.STEP',
    '2024-08-09T02:21:16',
    ( 'Windows User' ),
    ( 'P R C' ),
    'SwSTEP 2.0',
    'SolidWorks 2022',
    '' );
FILE_SCHEMA (( 'AUTOMOTIVE_DESIGN' ));
ENDSEC;

DATA;
#1 = EDGE_LOOP ( 'NONE', ( #281, #19, #117, #209 ) ) ;
#2 = PRESENTATION_LAYER_ASSIGNMENT (  '', '', ( #275 ) ) ;
#3 = APPLICATION_PROTOCOL_DEFINITION ( 'draft international standard', 'automotive_design', 1998, #273 ) ;
#4 = ORIENTED_EDGE ( 'NONE', *, *, #124, .F. ) ;
#5 = EDGE_CURVE ( 'NONE', #215, #104, #257, .T. ) ;
#6 = SPHERICAL_SURFACE ( 'NONE', #140, 65.79999999999999716 ) ;
#7 = DIRECTION ( 'NONE',  ( -1.000000000000000000, 0.000000000000000000, 0.000000000000000000 ) ) ;
#8 = CLOSED_SHELL ( 'NONE', ( #149, #246, #98, #114, #133, #81, #84, #213 ) ) ;
#9 = CARTESIAN_POINT ( 'NONE',  ( 0.000000000000000000, 0.000000000000000000, 16.90000000000001279 ) ) ;
#10 = CARTESIAN_POINT ( 'NONE',  ( 0.000000000000000000, 0.000000000000000000, 77.79991762762121255 ) ) ;
#11 = CARTESIAN_POINT ( 'NONE',  ( -25.25886542154865921, 0.000000000000000000, 17.04113457845134860 ) ) ;
#12 = AXIS2_PLACEMENT_3D ( 'NONE', #85, #241, #47 ) ;
#13 = CARTESIAN_POINT ( 'NONE',  ( 25.25886542154867342, 3.093318868859334493E-15, 17.04113457845133439 ) ) ;
#14 = EDGE_CURVE ( 'NONE', #104, #64, #242, .T. ) ;
#15 = STYLED_ITEM ( 'NONE', ( #182 ), #106 ) ;
#16 =( NAMED_UNIT ( * ) PLANE_ANGLE_UNIT ( ) SI_UNIT ( $, .RADIAN. ) );
#17 = VERTEX_POINT ( 'NONE', #147 ) ;
#18 =( LENGTH_UNIT ( ) NAMED_UNIT ( * ) SI_UNIT ( .MILLI., .METRE. ) );
#19 = ORIENTED_EDGE ( 'NONE', *, *, #76, .T. ) ;
#20 = CONICAL_SURFACE ( 'NONE', #261, 25.25886542154867342, 0.7853981633974606025 ) ;
#21 = CARTESIAN_POINT ( 'NONE',  ( 0.000000000000000000, 0.000000000000000000, 32.59384223138210501 ) ) ;
#22 = EDGE_LOOP ( 'NONE', ( #259, #123, #88, #164, #160 ) ) ;
#23 = ORIENTED_EDGE ( 'NONE', *, *, #176, .F. ) ;
#24 = SURFACE_STYLE_USAGE ( .BOTH. , #63 ) ;
#25 = ORIENTED_EDGE ( 'NONE', *, *, #50, .T. ) ;
#26 = AXIS2_PLACEMENT_3D ( 'NONE', #201, #264, #68 ) ;
#27 = AXIS2_PLACEMENT_3D ( 'NONE', #111, #74, #155 ) ;
#28 = DIRECTION ( 'NONE',  ( -1.224646799147353207E-16, -1.000000000000000000, 0.000000000000000000 ) ) ;
#29 = EDGE_CURVE ( 'NONE', #103, #142, #49, .T. ) ;
#30 = PRODUCT_CONTEXT ( 'NONE', #205, 'mechanical' ) ;
#31 = CARTESIAN_POINT ( 'NONE',  ( -25.39999999999999503, 0.000000000000000000, 16.00000000000000000 ) ) ;
#32 = CARTESIAN_POINT ( 'NONE',  ( 0.000000000000000000, 0.000000000000000000, 17.04113457845134860 ) ) ;
#33 = MANIFOLD_SOLID_BREP ( 'µ¹½Ç1', #8 ) ;
#34 = CARTESIAN_POINT ( 'NONE',  ( 0.000000000000000000, 0.000000000000000000, 17.04113457845133439 ) ) ;
#35 = CARTESIAN_POINT ( 'NONE',  ( 0.000000000000000000, 0.000000000000000000, 17.04113457845134860 ) ) ;
#36 = CIRCLE ( 'NONE', #181, 25.25886542154865921 ) ;
#37 = FACE_OUTER_BOUND ( 'NONE', #80, .T. ) ;
#38 = LINE ( 'NONE', #238, #172 ) ;
#39 = VERTEX_POINT ( 'NONE', #52 ) ;
#40 = ORIENTED_EDGE ( 'NONE', *, *, #72, .T. ) ;
#41 = DIRECTION ( 'NONE',  ( -1.000000000000000000, 0.000000000000000000, 0.000000000000000000 ) ) ;
#42 = ORIENTED_EDGE ( 'NONE', *, *, #180, .F. ) ;
#43 = AXIS2_PLACEMENT_3D ( 'NONE', #35, #113, #132 ) ;
#44 = DIRECTION ( 'NONE',  ( 1.000000000000000000, 0.000000000000000000, 0.000000000000000000 ) ) ;
#45 = ORIENTED_EDGE ( 'NONE', *, *, #236, .T. ) ;
#46 = FILL_AREA_STYLE ('',( #208 ) ) ;
#47 = DIRECTION ( 'NONE',  ( 0.000000000000000000, 0.000000000000000000, -1.000000000000000000 ) ) ;
#48 = DIRECTION ( 'NONE',  ( -1.000000000000000000, 0.000000000000000000, 0.000000000000000000 ) ) ;
#49 = CIRCLE ( 'NONE', #12, 30.33999999999999986 ) ;
#50 = EDGE_CURVE ( 'NONE', #39, #157, #216, .T. ) ;
#51 = CARTESIAN_POINT ( 'NONE',  ( 0.000000000000000000, 0.000000000000000000, 32.59384223138210501 ) ) ;
#52 = CARTESIAN_POINT ( 'NONE',  ( 25.39999999999999858, 3.110602869834276865E-15, 16.90000000000001279 ) ) ;
#53 = DIRECTION ( 'NONE',  ( -0.000000000000000000, -0.000000000000000000, 1.000000000000000000 ) ) ;
#54 = EDGE_CURVE ( 'NONE', #115, #183, #135, .T. ) ;
#55 = LINE ( 'NONE', #13, #230 ) ;
#56 = DIRECTION ( 'NONE',  ( 1.000000000000000000, 0.000000000000000000, 0.000000000000000000 ) ) ;
#57 = CARTESIAN_POINT ( 'NONE',  ( 0.000000000000000000, 0.000000000000000000, 16.00000000000000000 ) ) ;
#58 = UNCERTAINTY_MEASURE_WITH_UNIT (LENGTH_MEASURE( 1.000000000000000082E-05 ), #18, 'distance_accuracy_value', 'NONE');
#59 = DIRECTION ( 'NONE',  ( -0.000000000000000000, -0.000000000000000000, 1.000000000000000000 ) ) ;
#60 = CIRCLE ( 'NONE', #237, 25.39999999999999503 ) ;
#61 = EDGE_LOOP ( 'NONE', ( #189, #212, #23, #4 ) ) ;
#62 = ORIENTED_EDGE ( 'NONE', *, *, #54, .T. ) ;
#63 = SURFACE_SIDE_STYLE ('',( #122 ) ) ;
#64 = VERTEX_POINT ( 'NONE', #219 ) ;
#65 = AXIS2_PLACEMENT_3D ( 'NONE', #243, #91, #225 ) ;
#66 = CARTESIAN_POINT ( 'NONE',  ( 0.000000000000000000, 0.000000000000000000, 16.00000000000000000 ) ) ;
#67 = DIRECTION ( 'NONE',  ( 1.000000000000000000, 0.000000000000000000, 0.000000000000000000 ) ) ;
#68 = DIRECTION ( 'NONE',  ( -1.000000000000000000, 0.000000000000000000, 0.000000000000000000 ) ) ;
#69 = CIRCLE ( 'NONE', #97, 25.39999999999999503 ) ;
#70 = DIRECTION ( 'NONE',  ( 0.000000000000000000, 0.000000000000000000, -1.000000000000000000 ) ) ;
#71 = CARTESIAN_POINT ( 'NONE',  ( 0.000000000000000000, 0.000000000000000000, 17.04113457845134860 ) ) ;
#72 = EDGE_CURVE ( 'NONE', #17, #115, #252, .T. ) ;
#73 = DIRECTION ( 'NONE',  ( 0.000000000000000000, 0.000000000000000000, -1.000000000000000000 ) ) ;
#74 = DIRECTION ( 'NONE',  ( -0.000000000000000000, -0.000000000000000000, -1.000000000000000000 ) ) ;
#75 = ORIENTED_EDGE ( 'NONE', *, *, #221, .F. ) ;
#76 = EDGE_CURVE ( 'NONE', #103, #64, #153, .T. ) ;
#77 = UNCERTAINTY_MEASURE_WITH_UNIT (LENGTH_MEASURE( 1.000000000000000082E-05 ), #169, 'distance_accuracy_value', 'NONE');
#78 = CARTESIAN_POINT ( 'NONE',  ( -25.39999999999999858, 0.000000000000000000, 16.90000000000001279 ) ) ;
#79 = VECTOR ( 'NONE', #150, 1000.000000000000000 ) ;
#80 = EDGE_LOOP ( 'NONE', ( #235, #42, #119, #45, #75 ) ) ;
#81 = ADVANCED_FACE ( 'NONE', ( #199 ), #196, .F. ) ;
#82 = ORIENTED_EDGE ( 'NONE', *, *, #92, .T. ) ;
#83 = ORIENTED_EDGE ( 'NONE', *, *, #221, .T. ) ;
#84 = ADVANCED_FACE ( 'NONE', ( #202 ), #268, .T. ) ;
#85 = CARTESIAN_POINT ( 'NONE',  ( 0.000000000000000000, 0.000000000000000000, 32.59384223138210501 ) ) ;
#86 = ORIENTED_EDGE ( 'NONE', *, *, #50, .F. ) ;
#87 =( GEOMETRIC_REPRESENTATION_CONTEXT ( 3 ) GLOBAL_UNCERTAINTY_ASSIGNED_CONTEXT ( ( #58 ) ) GLOBAL_UNIT_ASSIGNED_CONTEXT ( ( #18, #191, #185 ) ) REPRESENTATION_CONTEXT ( 'NONE', 'WORKASPACE' ) );
#88 = ORIENTED_EDGE ( 'NONE', *, *, #92, .F. ) ;
#89 = FACE_OUTER_BOUND ( 'NONE', #277, .T. ) ;
#90 = DIRECTION ( 'NONE',  ( 0.000000000000000000, 0.000000000000000000, 1.000000000000000000 ) ) ;
#91 = DIRECTION ( 'NONE',  ( 1.000000000000000000, 0.000000000000000000, 0.000000000000000000 ) ) ;
#92 = EDGE_CURVE ( 'NONE', #215, #39, #280, .T. ) ;
#93 = DIRECTION ( 'NONE',  ( -1.000000000000000000, 1.224646799147353207E-16, 0.000000000000000000 ) ) ;
#94 = DIRECTION ( 'NONE',  ( 0.000000000000000000, 1.000000000000000000, 0.000000000000000000 ) ) ;
#95 = DIRECTION ( 'NONE',  ( -1.000000000000000000, 0.000000000000000000, 0.000000000000000000 ) ) ;
#96 = CARTESIAN_POINT ( 'NONE',  ( 25.25886542154865921, 3.101960869346804496E-15, 17.04113457845134860 ) ) ;
#97 = AXIS2_PLACEMENT_3D ( 'NONE', #250, #269, #56 ) ;
#98 = ADVANCED_FACE ( 'NONE', ( #223 ), #6, .F. ) ;
#99 = SURFACE_STYLE_USAGE ( .BOTH. , #207 ) ;
#100 = EDGE_LOOP ( 'NONE', ( #240, #40, #62, #105 ) ) ;
#101 = AXIS2_PLACEMENT_3D ( 'NONE', #198, #7, #94 ) ;
#102 = PRODUCT_DEFINITION_FORMATION_WITH_SPECIFIED_SOURCE ( 'ÈÎºÎ', '', #255, .NOT_KNOWN. ) ;
#103 = VERTEX_POINT ( 'NONE', #151 ) ;
#104 = VERTEX_POINT ( 'NONE', #31 ) ;
#105 = ORIENTED_EDGE ( 'NONE', *, *, #129, .T. ) ;
#106 = ADVANCED_BREP_SHAPE_REPRESENTATION ( 'GLM1-050B-100', ( #33, #154 ), #200 ) ;
#107 = DIRECTION ( 'NONE',  ( 0.000000000000000000, 1.000000000000000000, 0.000000000000000000 ) ) ;
#108 = CYLINDRICAL_SURFACE ( 'NONE', #26, 25.39999999999999858 ) ;
#109 = PRODUCT_DEFINITION_CONTEXT ( 'detailed design', #273, 'design' ) ;
#110 = DIRECTION ( 'NONE',  ( -0.000000000000000000, -0.000000000000000000, 1.000000000000000000 ) ) ;
#111 = CARTESIAN_POINT ( 'NONE',  ( 0.000000000000000000, 0.000000000000000000, 20.00000000000000000 ) ) ;
#112 = VECTOR ( 'NONE', #262, 1000.000000000000000 ) ;
#113 = DIRECTION ( 'NONE',  ( -0.000000000000000000, -0.000000000000000000, 1.000000000000000000 ) ) ;
#114 = ADVANCED_FACE ( 'NONE', ( #89 ), #108, .T. ) ;
#115 = VERTEX_POINT ( 'NONE', #148 ) ;
#116 = FACE_OUTER_BOUND ( 'NONE', #1, .T. ) ;
#117 = ORIENTED_EDGE ( 'NONE', *, *, #14, .F. ) ;
#118 = EDGE_CURVE ( 'NONE', #17, #260, #171, .T. ) ;
#119 = ORIENTED_EDGE ( 'NONE', *, *, #129, .F. ) ;
#120 = DIRECTION ( 'NONE',  ( 0.000000000000000000, 1.000000000000000000, 0.000000000000000000 ) ) ;
#121 = DIRECTION ( 'NONE',  ( -0.000000000000000000, -0.000000000000000000, 1.000000000000000000 ) ) ;
#122 = SURFACE_STYLE_FILL_AREA ( #46 ) ;
#123 = ORIENTED_EDGE ( 'NONE', *, *, #190, .T. ) ;
#124 = EDGE_CURVE ( 'NONE', #64, #157, #60, .T. ) ;
#125 = CARTESIAN_POINT ( 'NONE',  ( 25.39999999999999858, 3.110602869834276865E-15, 20.00000000000000000 ) ) ;
#126 = AXIS2_PLACEMENT_3D ( 'NONE', #51, #128, #28 ) ;
#127 = DIRECTION ( 'NONE',  ( 1.000000000000000000, 0.000000000000000000, 0.000000000000000000 ) ) ;
#128 = DIRECTION ( 'NONE',  ( -1.000000000000000000, 1.224646799147353207E-16, 0.000000000000000000 ) ) ;
#129 = EDGE_CURVE ( 'NONE', #183, #260, #210, .T. ) ;
#130 = CARTESIAN_POINT ( 'NONE',  ( 0.000000000000000000, 0.000000000000000000, 77.79991762762121255 ) ) ;
#131 = DIRECTION ( 'NONE',  ( 1.000000000000000000, 0.000000000000000000, 0.000000000000000000 ) ) ;
#132 = DIRECTION ( 'NONE',  ( 1.000000000000000000, 0.000000000000000000, 0.000000000000000000 ) ) ;
#133 = ADVANCED_FACE ( 'NONE', ( #134 ), #228, .T. ) ;
#134 = FACE_OUTER_BOUND ( 'NONE', #278, .T. ) ;
#135 = CIRCLE ( 'NONE', #279, 25.25886542154865921 ) ;
#136 = DIRECTION ( 'NONE',  ( 0.7071067811865561215, 8.659560562355038861E-17, -0.7071067811865388020 ) ) ;
#137 = PRODUCT_RELATED_PRODUCT_CATEGORY ( 'part', '', ( #255 ) ) ;
#138 = ORIENTED_EDGE ( 'NONE', *, *, #118, .T. ) ;
#139 = DIRECTION ( 'NONE',  ( -0.7071067811865561215, 0.000000000000000000, -0.7071067811865388020 ) ) ;
#140 = AXIS2_PLACEMENT_3D ( 'NONE', #130, #224, #267 ) ;
#141 = FILL_AREA_STYLE ('',( #263 ) ) ;
#142 = VERTEX_POINT ( 'NONE', #231 ) ;
#143 = ORIENTED_EDGE ( 'NONE', *, *, #72, .F. ) ;
#144 = ORIENTED_EDGE ( 'NONE', *, *, #176, .T. ) ;
#145 = COLOUR_RGB ( '',1.000000000000000000, 1.000000000000000000, 1.000000000000000000 ) ;
#146 =( NAMED_UNIT ( * ) SI_UNIT ( $, .STERADIAN. ) SOLID_ANGLE_UNIT ( ) );
#147 = CARTESIAN_POINT ( 'NONE',  ( 0.000000000000000000, 4.029087969194792054E-15, 11.99991762762121716 ) ) ;
#148 = CARTESIAN_POINT ( 'NONE',  ( 0.000000000000000000, 25.25886542154867698, 17.04113457845135216 ) ) ;
#149 = ADVANCED_FACE ( 'NONE', ( #226 ), #254, .T. ) ;
#150 = DIRECTION ( 'NONE',  ( -0.000000000000000000, -0.000000000000000000, -1.000000000000000000 ) ) ;
#151 = CARTESIAN_POINT ( 'NONE',  ( 0.000000000000000000, 1.857789194306534769E-15, 2.253842231382106931 ) ) ;
#152 = DIRECTION ( 'NONE',  ( -1.224646799147353207E-16, -1.000000000000000000, 0.000000000000000000 ) ) ;
#153 = CIRCLE ( 'NONE', #126, 30.33999999999999986 ) ;
#154 = AXIS2_PLACEMENT_3D ( 'NONE', #244, #90, #222 ) ;
#155 = DIRECTION ( 'NONE',  ( -1.000000000000000000, 0.000000000000000000, 0.000000000000000000 ) ) ;
#156 = CARTESIAN_POINT ( 'NONE',  ( 25.39999999999999503, 3.110602869834276471E-15, 16.00000000000000000 ) ) ;
#157 = VERTEX_POINT ( 'NONE', #156 ) ;
#158 = DIRECTION ( 'NONE',  ( 0.000000000000000000, 0.000000000000000000, -1.000000000000000000 ) ) ;
#159 = EDGE_CURVE ( 'NONE', #192, #115, #36, .T. ) ;
#160 = ORIENTED_EDGE ( 'NONE', *, *, #54, .F. ) ;
#161 = UNCERTAINTY_MEASURE_WITH_UNIT (LENGTH_MEASURE( 1.000000000000000082E-05 ), #233, 'distance_accuracy_value', 'NONE');
#162 = ORIENTED_EDGE ( 'NONE', *, *, #14, .T. ) ;
#163 = ORIENTED_EDGE ( 'NONE', *, *, #124, .T. ) ;
#164 = ORIENTED_EDGE ( 'NONE', *, *, #236, .F. ) ;
#165 = ORIENTED_EDGE ( 'NONE', *, *, #5, .T. ) ;
#166 = MECHANICAL_DESIGN_GEOMETRIC_PRESENTATION_REPRESENTATION (  '', ( #15 ), #87 ) ;
#167 = EDGE_LOOP ( 'NONE', ( #143, #138, #187, #272 ) ) ;
#168 = CARTESIAN_POINT ( 'NONE',  ( 0.000000000000000000, 0.000000000000000000, 32.59384223138210501 ) ) ;
#169 =( LENGTH_UNIT ( ) NAMED_UNIT ( * ) SI_UNIT ( .MILLI., .METRE. ) );
#170 = MECHANICAL_DESIGN_GEOMETRIC_PRESENTATION_REPRESENTATION (  '', ( #275 ), #256 ) ;
#171 = CIRCLE ( 'NONE', #177, 65.79999999999999716 ) ;
#172 = VECTOR ( 'NONE', #139, 1000.000000000000114 ) ;
#173 =( NAMED_UNIT ( * ) SI_UNIT ( $, .STERADIAN. ) SOLID_ANGLE_UNIT ( ) );
#174 =( NAMED_UNIT ( * ) PLANE_ANGLE_UNIT ( ) SI_UNIT ( $, .RADIAN. ) );
#175 = DIRECTION ( 'NONE',  ( -0.000000000000000000, -0.000000000000000000, 1.000000000000000000 ) ) ;
#176 = EDGE_CURVE ( 'NONE', #157, #142, #69, .T. ) ;
#177 = AXIS2_PLACEMENT_3D ( 'NONE', #10, #93, #152 ) ;
#178 = CARTESIAN_POINT ( 'NONE',  ( 0.000000000000000000, 0.000000000000000000, 16.90000000000001279 ) ) ;
#179 = DIRECTION ( 'NONE',  ( 1.000000000000000000, 0.000000000000000000, 0.000000000000000000 ) ) ;
#180 = EDGE_CURVE ( 'NONE', #260, #192, #195, .T. ) ;
#181 = AXIS2_PLACEMENT_3D ( 'NONE', #249, #204, #179 ) ;
#182 = PRESENTATION_STYLE_ASSIGNMENT (( #24 ) ) ;
#183 = VERTEX_POINT ( 'NONE', #11 ) ;
#184 = CARTESIAN_POINT ( 'NONE',  ( -25.39999999999999858, 0.000000000000000000, 20.00000000000000000 ) ) ;
#185 =( NAMED_UNIT ( * ) SI_UNIT ( $, .STERADIAN. ) SOLID_ANGLE_UNIT ( ) );
#186 = AXIS2_PLACEMENT_3D ( 'NONE', #203, #73, #271 ) ;
#187 = ORIENTED_EDGE ( 'NONE', *, *, #180, .T. ) ;
#188 = APPLICATION_PROTOCOL_DEFINITION ( 'draft international standard', 'automotive_design', 1998, #205 ) ;
#189 = ORIENTED_EDGE ( 'NONE', *, *, #76, .F. ) ;
#190 = EDGE_CURVE ( 'NONE', #192, #39, #55, .T. ) ;
#191 =( NAMED_UNIT ( * ) PLANE_ANGLE_UNIT ( ) SI_UNIT ( $, .RADIAN. ) );
#192 = VERTEX_POINT ( 'NONE', #96 ) ;
#193 = AXIS2_PLACEMENT_3D ( 'NONE', #168, #48, #107 ) ;
#194 = ORIENTED_EDGE ( 'NONE', *, *, #5, .F. ) ;
#195 = CIRCLE ( 'NONE', #43, 25.25886542154865921 ) ;
#196 = SPHERICAL_SURFACE ( 'NONE', #101, 65.79999999999999716 ) ;
#197 = SHAPE_DEFINITION_REPRESENTATION ( #227, #106 ) ;
#198 = CARTESIAN_POINT ( 'NONE',  ( 0.000000000000000000, 0.000000000000000000, 77.79991762762121255 ) ) ;
#199 = FACE_OUTER_BOUND ( 'NONE', #100, .T. ) ;
#200 =( GEOMETRIC_REPRESENTATION_CONTEXT ( 3 ) GLOBAL_UNCERTAINTY_ASSIGNED_CONTEXT ( ( #161 ) ) GLOBAL_UNIT_ASSIGNED_CONTEXT ( ( #233, #16, #146 ) ) REPRESENTATION_CONTEXT ( 'NONE', 'WORKASPACE' ) );
#201 = CARTESIAN_POINT ( 'NONE',  ( 0.000000000000000000, 0.000000000000000000, 20.00000000000000000 ) ) ;
#202 = FACE_OUTER_BOUND ( 'NONE', #61, .T. ) ;
#203 = CARTESIAN_POINT ( 'NONE',  ( 0.000000000000000000, 0.000000000000000000, 17.04113457845133439 ) ) ;
#204 = DIRECTION ( 'NONE',  ( -0.000000000000000000, -0.000000000000000000, 1.000000000000000000 ) ) ;
#205 = APPLICATION_CONTEXT ( 'automotive_design' ) ;
#206 = SPHERICAL_SURFACE ( 'NONE', #211, 30.33999999999999986 ) ;
#207 = SURFACE_SIDE_STYLE ('',( #232 ) ) ;
#208 = FILL_AREA_STYLE_COLOUR ( '', #145 ) ;
#209 = ORIENTED_EDGE ( 'NONE', *, *, #229, .F. ) ;
#210 = CIRCLE ( 'NONE', #218, 25.25886542154865921 ) ;
#211 = AXIS2_PLACEMENT_3D ( 'NONE', #21, #41, #120 ) ;
#212 = ORIENTED_EDGE ( 'NONE', *, *, #29, .T. ) ;
#213 = ADVANCED_FACE ( 'NONE', ( #37 ), #20, .T. ) ;
#214 = CARTESIAN_POINT ( 'NONE',  ( -3.093318868859335282E-15, -25.25886542154867698, 17.04113457845135216 ) ) ;
#215 = VERTEX_POINT ( 'NONE', #78 ) ;
#216 = LINE ( 'NONE', #125, #79 ) ;
#217 = COLOUR_RGB ( '',1.000000000000000000, 1.000000000000000000, 1.000000000000000000 ) ;
#218 = AXIS2_PLACEMENT_3D ( 'NONE', #32, #175, #67 ) ;
#219 = CARTESIAN_POINT ( 'NONE',  ( -3.110602869834276076E-15, -25.39999999999999503, 16.00000000000000000 ) ) ;
#220 = PRESENTATION_STYLE_ASSIGNMENT (( #99 ) ) ;
#221 = EDGE_CURVE ( 'NONE', #39, #215, #253, .T. ) ;
#222 = DIRECTION ( 'NONE',  ( 1.000000000000000000, 0.000000000000000000, 0.000000000000000000 ) ) ;
#223 = FACE_OUTER_BOUND ( 'NONE', #167, .T. ) ;
#224 = DIRECTION ( 'NONE',  ( -1.000000000000000000, 0.000000000000000000, 0.000000000000000000 ) ) ;
#225 = DIRECTION ( 'NONE',  ( 0.000000000000000000, 0.000000000000000000, -1.000000000000000000 ) ) ;
#226 = FACE_OUTER_BOUND ( 'NONE', #22, .T. ) ;
#227 = PRODUCT_DEFINITION_SHAPE ( 'NONE', 'NONE',  #258 ) ;
#228 = CYLINDRICAL_SURFACE ( 'NONE', #27, 25.39999999999999858 ) ;
#229 = EDGE_CURVE ( 'NONE', #142, #104, #248, .T. ) ;
#230 = VECTOR ( 'NONE', #136, 1000.000000000000114 ) ;
#231 = CARTESIAN_POINT ( 'NONE',  ( 0.000000000000000000, 25.39999999999999503, 16.00000000000000000 ) ) ;
#232 = SURFACE_STYLE_FILL_AREA ( #141 ) ;
#233 =( LENGTH_UNIT ( ) NAMED_UNIT ( * ) SI_UNIT ( .MILLI., .METRE. ) );
#234 = ORIENTED_EDGE ( 'NONE', *, *, #229, .T. ) ;
#235 = ORIENTED_EDGE ( 'NONE', *, *, #190, .F. ) ;
#236 = EDGE_CURVE ( 'NONE', #183, #215, #38, .T. ) ;
#237 = AXIS2_PLACEMENT_3D ( 'NONE', #247, #53, #131 ) ;
#238 = CARTESIAN_POINT ( 'NONE',  ( -25.25886542154867342, 0.000000000000000000, 17.04113457845133439 ) ) ;
#239 = PRESENTATION_LAYER_ASSIGNMENT (  '', '', ( #15 ) ) ;
#240 = ORIENTED_EDGE ( 'NONE', *, *, #118, .F. ) ;
#241 = DIRECTION ( 'NONE',  ( 1.000000000000000000, -0.000000000000000000, 0.000000000000000000 ) ) ;
#242 = CIRCLE ( 'NONE', #265, 25.39999999999999503 ) ;
#243 = CARTESIAN_POINT ( 'NONE',  ( 0.000000000000000000, 0.000000000000000000, 77.79991762762121255 ) ) ;
#244 = CARTESIAN_POINT ( 'NONE',  ( 0.000000000000000000, 0.000000000000000000, 0.000000000000000000 ) ) ;
#245 = DIRECTION ( 'NONE',  ( 1.000000000000000000, 0.000000000000000000, 0.000000000000000000 ) ) ;
#246 = ADVANCED_FACE ( 'NONE', ( #116 ), #206, .T. ) ;
#247 = CARTESIAN_POINT ( 'NONE',  ( 0.000000000000000000, 0.000000000000000000, 16.00000000000000000 ) ) ;
#248 = CIRCLE ( 'NONE', #266, 25.39999999999999503 ) ;
#249 = CARTESIAN_POINT ( 'NONE',  ( 0.000000000000000000, 0.000000000000000000, 17.04113457845134860 ) ) ;
#250 = CARTESIAN_POINT ( 'NONE',  ( 0.000000000000000000, 0.000000000000000000, 16.00000000000000000 ) ) ;
#251 = DIRECTION ( 'NONE',  ( 1.000000000000000000, 0.000000000000000000, 0.000000000000000000 ) ) ;
#252 = CIRCLE ( 'NONE', #65, 65.79999999999999716 ) ;
#253 = CIRCLE ( 'NONE', #276, 25.39999999999999858 ) ;
#254 = CONICAL_SURFACE ( 'NONE', #186, 25.25886542154867342, 0.7853981633974606025 ) ;
#255 = PRODUCT ( 'GLM1-050B-100', 'GLM1-050B-100', '', ( #30 ) ) ;
#256 =( GEOMETRIC_REPRESENTATION_CONTEXT ( 3 ) GLOBAL_UNCERTAINTY_ASSIGNED_CONTEXT ( ( #77 ) ) GLOBAL_UNIT_ASSIGNED_CONTEXT ( ( #169, #174, #173 ) ) REPRESENTATION_CONTEXT ( 'NONE', 'WORKASPACE' ) );
#257 = LINE ( 'NONE', #184, #112 ) ;
#258 = PRODUCT_DEFINITION ( 'Î´Öª', '', #102, #109 ) ;
#259 = ORIENTED_EDGE ( 'NONE', *, *, #159, .F. ) ;
#260 = VERTEX_POINT ( 'NONE', #214 ) ;
#261 = AXIS2_PLACEMENT_3D ( 'NONE', #34, #274, #95 ) ;
#262 = DIRECTION ( 'NONE',  ( -0.000000000000000000, -0.000000000000000000, -1.000000000000000000 ) ) ;
#263 = FILL_AREA_STYLE_COLOUR ( '', #217 ) ;
#264 = DIRECTION ( 'NONE',  ( -0.000000000000000000, -0.000000000000000000, -1.000000000000000000 ) ) ;
#265 = AXIS2_PLACEMENT_3D ( 'NONE', #66, #121, #282 ) ;
#266 = AXIS2_PLACEMENT_3D ( 'NONE', #57, #59, #44 ) ;
#267 = DIRECTION ( 'NONE',  ( 0.000000000000000000, 1.000000000000000000, 0.000000000000000000 ) ) ;
#268 = SPHERICAL_SURFACE ( 'NONE', #193, 30.33999999999999986 ) ;
#269 = DIRECTION ( 'NONE',  ( -0.000000000000000000, -0.000000000000000000, 1.000000000000000000 ) ) ;
#270 = AXIS2_PLACEMENT_3D ( 'NONE', #9, #70, #245 ) ;
#271 = DIRECTION ( 'NONE',  ( -1.000000000000000000, 0.000000000000000000, 0.000000000000000000 ) ) ;
#272 = ORIENTED_EDGE ( 'NONE', *, *, #159, .T. ) ;
#273 = APPLICATION_CONTEXT ( 'automotive_design' ) ;
#274 = DIRECTION ( 'NONE',  ( 0.000000000000000000, 0.000000000000000000, -1.000000000000000000 ) ) ;
#275 = STYLED_ITEM ( 'NONE', ( #220 ), #33 ) ;
#276 = AXIS2_PLACEMENT_3D ( 'NONE', #178, #158, #251 ) ;
#277 = EDGE_LOOP ( 'NONE', ( #82, #25, #144, #234, #194 ) ) ;
#278 = EDGE_LOOP ( 'NONE', ( #86, #83, #165, #162, #163 ) ) ;
#279 = AXIS2_PLACEMENT_3D ( 'NONE', #71, #110, #127 ) ;
#280 = CIRCLE ( 'NONE', #270, 25.39999999999999858 ) ;
#281 = ORIENTED_EDGE ( 'NONE', *, *, #29, .F. ) ;
#282 = DIRECTION ( 'NONE',  ( 1.000000000000000000, 0.000000000000000000, 0.000000000000000000 ) ) ;
ENDSEC;
END-ISO-10303-21;
