ISO-10303-21;
HEADER;
FILE_DESCRIPTION (( 'STEP AP214' ),
    '1' );
FILE_NAME ('GLM1-025B-150-VIS.STEP',
    '2024-08-09T02:16:00',
    ( 'Windows User' ),
    ( 'P R C' ),
    'SwSTEP 2.0',
    'SolidWorks 2022',
    '' );
FILE_SCHEMA (( 'AUTOMOTIVE_DESIGN' ));
ENDSEC;

DATA;
#1 = ADVANCED_FACE ( 'NONE', ( #46 ), #140, .T. ) ;
#2 =( LENGTH_UNIT ( ) NAMED_UNIT ( * ) SI_UNIT ( .MILLI., .METRE. ) );
#3 = VECTOR ( 'NONE', #26, 1000.000000000000000 ) ;
#4 = APPLICATION_PROTOCOL_DEFINITION ( 'draft international standard', 'automotive_design', 1998, #193 ) ;
#5 = DIRECTION ( 'NONE',  ( 0.000000000000000000, 0.000000000000000000, -1.000000000000000000 ) ) ;
#6 = AXIS2_PLACEMENT_3D ( 'NONE', #177, #228, #285 ) ;
#7 = AXIS2_PLACEMENT_3D ( 'NONE', #153, #232, #129 ) ;
#8 = ADVANCED_FACE ( 'NONE', ( #187 ), #118, .F. ) ;
#9 = EDGE_LOOP ( 'NONE', ( #114, #198, #43, #158, #35 ) ) ;
#10 = AXIS2_PLACEMENT_3D ( 'NONE', #224, #95, #200 ) ;
#11 = DIRECTION ( 'NONE',  ( -0.000000000000000000, -0.000000000000000000, -1.000000000000000000 ) ) ;
#12 = VERTEX_POINT ( 'NONE', #159 ) ;
#13 = EDGE_LOOP ( 'NONE', ( #133, #94, #87, #64, #298 ) ) ;
#14 = DIRECTION ( 'NONE',  ( -0.000000000000000000, -0.000000000000000000, 1.000000000000000000 ) ) ;
#15 = ORIENTED_EDGE ( 'NONE', *, *, #27, .T. ) ;
#16 = DIRECTION ( 'NONE',  ( 1.000000000000000000, 0.000000000000000000, 0.000000000000000000 ) ) ;
#17 = CIRCLE ( 'NONE', #162, 12.69999999999999929 ) ;
#18 = LINE ( 'NONE', #299, #37 ) ;
#19 = ORIENTED_EDGE ( 'NONE', *, *, #132, .T. ) ;
#20 = EDGE_CURVE ( 'NONE', #62, #237, #83, .T. ) ;
#21 = DIRECTION ( 'NONE',  ( -1.000000000000000000, 0.000000000000000000, 0.000000000000000000 ) ) ;
#22 = LINE ( 'NONE', #328, #209 ) ;
#23 = FILL_AREA_STYLE ('',( #67 ) ) ;
#24 = CARTESIAN_POINT ( 'NONE',  ( 0.000000000000000000, 0.000000000000000000, 5.982434512500911516 ) ) ;
#25 = FILL_AREA_STYLE_COLOUR ( '', #253 ) ;
#26 = DIRECTION ( 'NONE',  ( 0.7071067811865777708, 8.659560562355303869E-17, -0.7071067811865172636 ) ) ;
#27 = EDGE_CURVE ( 'NONE', #138, #41, #72, .T. ) ;
#28 = SURFACE_SIDE_STYLE ('',( #254 ) ) ;
#29 = CARTESIAN_POINT ( 'NONE',  ( 0.000000000000000000, 0.000000000000000000, 51.38769460524535049 ) ) ;
#30 = MECHANICAL_DESIGN_GEOMETRIC_PRESENTATION_REPRESENTATION (  '', ( #122 ), #329 ) ;
#31 =( NAMED_UNIT ( * ) PLANE_ANGLE_UNIT ( ) SI_UNIT ( $, .RADIAN. ) );
#32 = AXIS2_PLACEMENT_3D ( 'NONE', #251, #297, #121 ) ;
#33 = EDGE_CURVE ( 'NONE', #212, #62, #18, .T. ) ;
#34 = UNCERTAINTY_MEASURE_WITH_UNIT (LENGTH_MEASURE( 1.000000000000000082E-05 ), #2, 'distance_accuracy_value', 'NONE');
#35 = ORIENTED_EDGE ( 'NONE', *, *, #210, .F. ) ;
#36 = CYLINDRICAL_SURFACE ( 'NONE', #155, 12.69999999999999929 ) ;
#37 = VECTOR ( 'NONE', #40, 1000.000000000000000 ) ;
#38 = ORIENTED_EDGE ( 'NONE', *, *, #210, .T. ) ;
#39 =( GEOMETRIC_REPRESENTATION_CONTEXT ( 3 ) GLOBAL_UNCERTAINTY_ASSIGNED_CONTEXT ( ( #219 ) ) GLOBAL_UNIT_ASSIGNED_CONTEXT ( ( #106, #31, #80 ) ) REPRESENTATION_CONTEXT ( 'NONE', 'WORKASPACE' ) );
#40 = DIRECTION ( 'NONE',  ( -0.7071067811865777708, 0.000000000000000000, -0.7071067811865172636 ) ) ;
#41 = VERTEX_POINT ( 'NONE', #136 ) ;
#42 = DIRECTION ( 'NONE',  ( -1.000000000000000000, 1.224646799147353207E-16, 0.000000000000000000 ) ) ;
#43 = ORIENTED_EDGE ( 'NONE', *, *, #109, .F. ) ;
#44 = ORIENTED_EDGE ( 'NONE', *, *, #68, .T. ) ;
#45 = CIRCLE ( 'NONE', #154, 12.50710445798774728 ) ;
#46 = FACE_OUTER_BOUND ( 'NONE', #317, .T. ) ;
#47 = CARTESIAN_POINT ( 'NONE',  ( 0.000000000000000000, 0.000000000000000000, 136.9455749538715850 ) ) ;
#48 = DIRECTION ( 'NONE',  ( -0.000000000000000000, -0.000000000000000000, -1.000000000000000000 ) ) ;
#49 = CARTESIAN_POINT ( 'NONE',  ( 0.000000000000000000, 0.000000000000000000, 5.982434512500911516 ) ) ;
#50 = CARTESIAN_POINT ( 'NONE',  ( -12.51756548749907694, 0.000000000000000000, 5.982434512500911516 ) ) ;
#51 = AXIS2_PLACEMENT_3D ( 'NONE', #258, #303, #225 ) ;
#52 = ADVANCED_FACE ( 'NONE', ( #113 ), #179, .T. ) ;
#53 = DIRECTION ( 'NONE',  ( 0.000000000000000000, 0.000000000000000000, -1.000000000000000000 ) ) ;
#54 = CARTESIAN_POINT ( 'NONE',  ( 0.000000000000000000, 0.000000000000000000, 3.948723936848863580 ) ) ;
#55 = ADVANCED_FACE ( 'NONE', ( #248 ), #36, .T. ) ;
#56 =( GEOMETRIC_REPRESENTATION_CONTEXT ( 3 ) GLOBAL_UNCERTAINTY_ASSIGNED_CONTEXT ( ( #34 ) ) GLOBAL_UNIT_ASSIGNED_CONTEXT ( ( #2, #149, #309 ) ) REPRESENTATION_CONTEXT ( 'NONE', 'WORKASPACE' ) );
#57 = AXIS2_PLACEMENT_3D ( 'NONE', #205, #21, #167 ) ;
#58 = ORIENTED_EDGE ( 'NONE', *, *, #259, .F. ) ;
#59 = ORIENTED_EDGE ( 'NONE', *, *, #197, .T. ) ;
#60 = DIRECTION ( 'NONE',  ( -1.000000000000000000, 0.000000000000000000, 0.000000000000000000 ) ) ;
#61 = CIRCLE ( 'NONE', #284, 49.05999999999999517 ) ;
#62 = VERTEX_POINT ( 'NONE', #332 ) ;
#63 = AXIS2_PLACEMENT_3D ( 'NONE', #99, #247, #240 ) ;
#64 = ORIENTED_EDGE ( 'NONE', *, *, #33, .F. ) ;
#65 = DIRECTION ( 'NONE',  ( 0.000000000000000000, 0.000000000000000000, -1.000000000000000000 ) ) ;
#66 = VERTEX_POINT ( 'NONE', #286 ) ;
#67 = FILL_AREA_STYLE_COLOUR ( '', #184 ) ;
#68 = EDGE_CURVE ( 'NONE', #237, #41, #256, .T. ) ;
#69 = CARTESIAN_POINT ( 'NONE',  ( 0.000000000000000000, 0.000000000000000000, 4.282866881517001900 ) ) ;
#70 = UNCERTAINTY_MEASURE_WITH_UNIT (LENGTH_MEASURE( 1.000000000000000082E-05 ), #271, 'distance_accuracy_value', 'NONE');
#71 = DIRECTION ( 'NONE',  ( 1.000000000000000000, -0.000000000000000000, 0.000000000000000000 ) ) ;
#72 = LINE ( 'NONE', #268, #260 ) ;
#73 = DIRECTION ( 'NONE',  ( -0.000000000000000000, -0.000000000000000000, 1.000000000000000000 ) ) ;
#74 = DIRECTION ( 'NONE',  ( -0.4999572784161532835, 6.122710807227642125E-17, 0.8660500676974242085 ) ) ;
#75 = CARTESIAN_POINT ( 'NONE',  ( 0.000000000000000000, 3.004058598308457002E-15, 2.327694605245358872 ) ) ;
#76 = FACE_OUTER_BOUND ( 'NONE', #85, .T. ) ;
#77 = DIRECTION ( 'NONE',  ( 1.000000000000000000, 0.000000000000000000, 0.000000000000000000 ) ) ;
#78 = CIRCLE ( 'NONE', #208, 12.51756548749907694 ) ;
#79 = CARTESIAN_POINT ( 'NONE',  ( -1.531678544107628650E-15, -12.50710445798775083, 3.948723936848860028 ) ) ;
#80 =( NAMED_UNIT ( * ) SI_UNIT ( $, .STERADIAN. ) SOLID_ANGLE_UNIT ( ) );
#81 = ADVANCED_FACE ( 'NONE', ( #97 ), #261, .T. ) ;
#82 = CONICAL_SURFACE ( 'NONE', #315, 12.69999999999999929, 0.5235494456648849271 ) ;
#83 = CIRCLE ( 'NONE', #277, 12.69999999999999929 ) ;
#84 = CIRCLE ( 'NONE', #246, 12.50710445798774728 ) ;
#85 = EDGE_LOOP ( 'NONE', ( #266, #270, #320, #59 ) ) ;
#86 = ORIENTED_EDGE ( 'NONE', *, *, #20, .T. ) ;
#87 = ORIENTED_EDGE ( 'NONE', *, *, #20, .F. ) ;
#88 = ORIENTED_EDGE ( 'NONE', *, *, #132, .F. ) ;
#89 = DIRECTION ( 'NONE',  ( -1.000000000000000000, 0.000000000000000000, 0.000000000000000000 ) ) ;
#90 = AXIS2_PLACEMENT_3D ( 'NONE', #54, #102, #331 ) ;
#91 = DIRECTION ( 'NONE',  ( -1.224646799147353207E-16, -1.000000000000000000, 0.000000000000000000 ) ) ;
#92 = ORIENTED_EDGE ( 'NONE', *, *, #288, .F. ) ;
#93 = DIRECTION ( 'NONE',  ( -0.000000000000000000, -0.000000000000000000, -1.000000000000000000 ) ) ;
#94 = ORIENTED_EDGE ( 'NONE', *, *, #245, .T. ) ;
#95 = DIRECTION ( 'NONE',  ( -1.000000000000000000, 1.224646799147353207E-16, 0.000000000000000000 ) ) ;
#96 = CIRCLE ( 'NONE', #10, 49.05999999999999517 ) ;
#97 = FACE_OUTER_BOUND ( 'NONE', #13, .T. ) ;
#98 = PRODUCT_DEFINITION_FORMATION_WITH_SPECIFIED_SOURCE ( 'ÈÎºÎ', '', #216, .NOT_KNOWN. ) ;
#99 = CARTESIAN_POINT ( 'NONE',  ( 0.000000000000000000, 0.000000000000000000, 5.799999999999999822 ) ) ;
#100 = CARTESIAN_POINT ( 'NONE',  ( 0.000000000000000000, 0.000000000000000000, 5.982434512500911516 ) ) ;
#101 = ADVANCED_FACE ( 'NONE', ( #206 ), #82, .T. ) ;
#102 = DIRECTION ( 'NONE',  ( 0.000000000000000000, 0.000000000000000000, -1.000000000000000000 ) ) ;
#103 = SPHERICAL_SURFACE ( 'NONE', #57, 49.05999999999999517 ) ;
#104 = CIRCLE ( 'NONE', #63, 12.69999999999999929 ) ;
#105 = DIRECTION ( 'NONE',  ( 1.000000000000000000, 0.000000000000000000, 0.000000000000000000 ) ) ;
#106 =( LENGTH_UNIT ( ) NAMED_UNIT ( * ) SI_UNIT ( .MILLI., .METRE. ) );
#107 = PRODUCT_CONTEXT ( 'NONE', #193, 'mechanical' ) ;
#108 = STYLED_ITEM ( 'NONE', ( #305 ), #168 ) ;
#109 = EDGE_CURVE ( 'NONE', #41, #66, #17, .T. ) ;
#110 = MECHANICAL_DESIGN_GEOMETRIC_PRESENTATION_REPRESENTATION (  '', ( #108 ), #56 ) ;
#111 = EDGE_CURVE ( 'NONE', #221, #324, #128, .T. ) ;
#112 = VERTEX_POINT ( 'NONE', #233 ) ;
#113 = FACE_OUTER_BOUND ( 'NONE', #9, .T. ) ;
#114 = ORIENTED_EDGE ( 'NONE', *, *, #141, .F. ) ;
#115 = SURFACE_SIDE_STYLE ('',( #202 ) ) ;
#116 = CARTESIAN_POINT ( 'NONE',  ( 0.000000000000000000, 0.000000000000000000, 10.00000000000000000 ) ) ;
#117 = ORIENTED_EDGE ( 'NONE', *, *, #156, .T. ) ;
#118 = SPHERICAL_SURFACE ( 'NONE', #244, 131.5600000000000023 ) ;
#119 = DIRECTION ( 'NONE',  ( 1.000000000000000000, 0.000000000000000000, 0.000000000000000000 ) ) ;
#120 = DIRECTION ( 'NONE',  ( -0.000000000000000000, -0.000000000000000000, 1.000000000000000000 ) ) ;
#121 = DIRECTION ( 'NONE',  ( 1.000000000000000000, 0.000000000000000000, 0.000000000000000000 ) ) ;
#122 = STYLED_ITEM ( 'NONE', ( #196 ), #264 ) ;
#123 = DIRECTION ( 'NONE',  ( -0.000000000000000000, -0.000000000000000000, 1.000000000000000000 ) ) ;
#124 = SPHERICAL_SURFACE ( 'NONE', #6, 131.5600000000000023 ) ;
#125 = APPLICATION_PROTOCOL_DEFINITION ( 'draft international standard', 'automotive_design', 1998, #181 ) ;
#126 = FACE_OUTER_BOUND ( 'NONE', #166, .T. ) ;
#127 = DIRECTION ( 'NONE',  ( -1.000000000000000000, 0.000000000000000000, 0.000000000000000000 ) ) ;
#128 = CIRCLE ( 'NONE', #51, 131.5600000000000023 ) ;
#129 = DIRECTION ( 'NONE',  ( 1.000000000000000000, 0.000000000000000000, 0.000000000000000000 ) ) ;
#130 = SURFACE_STYLE_USAGE ( .BOTH. , #28 ) ;
#131 = CIRCLE ( 'NONE', #32, 12.50710445798774728 ) ;
#132 = EDGE_CURVE ( 'NONE', #62, #66, #250, .T. ) ;
#133 = ORIENTED_EDGE ( 'NONE', *, *, #197, .F. ) ;
#134 = CARTESIAN_POINT ( 'NONE',  ( 0.000000000000000000, 0.000000000000000000, 10.00000000000000000 ) ) ;
#135 = ORIENTED_EDGE ( 'NONE', *, *, #313, .T. ) ;
#136 = CARTESIAN_POINT ( 'NONE',  ( 12.69999999999999929, 1.555301434917138433E-15, 4.282866881517001900 ) ) ;
#137 = CARTESIAN_POINT ( 'NONE',  ( 0.000000000000000000, 0.000000000000000000, 5.982434512500911516 ) ) ;
#138 = VERTEX_POINT ( 'NONE', #146 ) ;
#139 = CARTESIAN_POINT ( 'NONE',  ( 0.000000000000000000, 0.000000000000000000, 3.948723936848863580 ) ) ;
#140 = CYLINDRICAL_SURFACE ( 'NONE', #183, 12.69999999999999929 ) ;
#141 = EDGE_CURVE ( 'NONE', #314, #12, #84, .T. ) ;
#142 = AXIS2_PLACEMENT_3D ( 'NONE', #29, #252, #283 ) ;
#143 = EDGE_LOOP ( 'NONE', ( #275, #292, #238, #300, #58 ) ) ;
#144 = FACE_OUTER_BOUND ( 'NONE', #143, .T. ) ;
#145 = DIRECTION ( 'NONE',  ( -0.000000000000000000, -0.000000000000000000, 1.000000000000000000 ) ) ;
#146 = CARTESIAN_POINT ( 'NONE',  ( 12.50710445798774728, 0.000000000000000000, 3.948723936848863580 ) ) ;
#147 = PRESENTATION_LAYER_ASSIGNMENT (  '', '', ( #122 ) ) ;
#148 = CARTESIAN_POINT ( 'NONE',  ( 12.69999999999999929, 1.555301434917138433E-15, 5.799999999999999822 ) ) ;
#149 =( NAMED_UNIT ( * ) PLANE_ANGLE_UNIT ( ) SI_UNIT ( $, .RADIAN. ) );
#150 = LINE ( 'NONE', #257, #3 ) ;
#151 = ADVANCED_FACE ( 'NONE', ( #126 ), #203, .T. ) ;
#152 = FILL_AREA_STYLE ('',( #25 ) ) ;
#153 = CARTESIAN_POINT ( 'NONE',  ( 0.000000000000000000, 0.000000000000000000, 0.000000000000000000 ) ) ;
#154 = AXIS2_PLACEMENT_3D ( 'NONE', #139, #327, #119 ) ;
#155 = AXIS2_PLACEMENT_3D ( 'NONE', #134, #11, #127 ) ;
#156 = EDGE_CURVE ( 'NONE', #212, #326, #170, .T. ) ;
#157 = ORIENTED_EDGE ( 'NONE', *, *, #263, .T. ) ;
#158 = ORIENTED_EDGE ( 'NONE', *, *, #27, .F. ) ;
#159 = CARTESIAN_POINT ( 'NONE',  ( 0.000000000000000000, 12.50710445798775083, 3.948723936848860028 ) ) ;
#160 = CLOSED_SHELL ( 'NONE', ( #81, #52, #222, #151, #55, #1, #255, #8, #101, #308 ) ) ;
#161 = AXIS2_PLACEMENT_3D ( 'NONE', #69, #169, #215 ) ;
#162 = AXIS2_PLACEMENT_3D ( 'NONE', #311, #172, #282 ) ;
#163 = ORIENTED_EDGE ( 'NONE', *, *, #287, .T. ) ;
#164 = EDGE_LOOP ( 'NONE', ( #213, #163, #38, #319 ) ) ;
#165 = CARTESIAN_POINT ( 'NONE',  ( 0.000000000000000000, 12.51756548749897568, 5.982434512500911516 ) ) ;
#166 = EDGE_LOOP ( 'NONE', ( #276, #135, #322, #267 ) ) ;
#167 = DIRECTION ( 'NONE',  ( 0.000000000000000000, 1.000000000000000000, 0.000000000000000000 ) ) ;
#168 = ADVANCED_BREP_SHAPE_REPRESENTATION ( 'GLM1-025B-150-VIS', ( #264, #7 ), #39 ) ;
#169 = DIRECTION ( 'NONE',  ( -0.000000000000000000, -0.000000000000000000, 1.000000000000000000 ) ) ;
#170 = CIRCLE ( 'NONE', #204, 12.51756548749907694 ) ;
#171 = DIRECTION ( 'NONE',  ( 0.000000000000000000, 0.000000000000000000, -1.000000000000000000 ) ) ;
#172 = DIRECTION ( 'NONE',  ( -0.000000000000000000, -0.000000000000000000, 1.000000000000000000 ) ) ;
#173 = CARTESIAN_POINT ( 'NONE',  ( 12.69999999999999929, 1.555301434917138433E-15, 10.00000000000000000 ) ) ;
#174 = DIRECTION ( 'NONE',  ( 1.000000000000000000, 0.000000000000000000, 0.000000000000000000 ) ) ;
#175 = AXIS2_PLACEMENT_3D ( 'NONE', #47, #42, #91 ) ;
#176 = PRESENTATION_LAYER_ASSIGNMENT (  '', '', ( #108 ) ) ;
#177 = CARTESIAN_POINT ( 'NONE',  ( 0.000000000000000000, 0.000000000000000000, 136.9455749538715850 ) ) ;
#178 = DIRECTION ( 'NONE',  ( -0.000000000000000000, -0.000000000000000000, -1.000000000000000000 ) ) ;
#179 = CONICAL_SURFACE ( 'NONE', #161, 12.69999999999999929, 0.5235494456648849271 ) ;
#180 = AXIS2_PLACEMENT_3D ( 'NONE', #100, #123, #227 ) ;
#181 = APPLICATION_CONTEXT ( 'automotive_design' ) ;
#182 = EDGE_CURVE ( 'NONE', #314, #66, #22, .T. ) ;
#183 = AXIS2_PLACEMENT_3D ( 'NONE', #116, #93, #89 ) ;
#184 = COLOUR_RGB ( '',1.000000000000000000, 1.000000000000000000, 1.000000000000000000 ) ;
#185 = VERTEX_POINT ( 'NONE', #79 ) ;
#186 = ORIENTED_EDGE ( 'NONE', *, *, #274, .T. ) ;
#187 = FACE_OUTER_BOUND ( 'NONE', #265, .T. ) ;
#188 = ORIENTED_EDGE ( 'NONE', *, *, #263, .F. ) ;
#189 = ORIENTED_EDGE ( 'NONE', *, *, #182, .F. ) ;
#190 = AXIS2_PLACEMENT_3D ( 'NONE', #49, #53, #306 ) ;
#191 = CARTESIAN_POINT ( 'NONE',  ( 0.000000000000000000, 0.000000000000000000, 5.982434512500911516 ) ) ;
#192 = DIRECTION ( 'NONE',  ( 0.4999572784161532835, 0.000000000000000000, 0.8660500676974242085 ) ) ;
#193 = APPLICATION_CONTEXT ( 'automotive_design' ) ;
#194 = DIRECTION ( 'NONE',  ( -1.000000000000000000, 0.000000000000000000, 0.000000000000000000 ) ) ;
#195 = DIRECTION ( 'NONE',  ( 1.000000000000000000, 0.000000000000000000, 0.000000000000000000 ) ) ;
#196 = PRESENTATION_STYLE_ASSIGNMENT (( #330 ) ) ;
#197 = EDGE_CURVE ( 'NONE', #112, #324, #235, .T. ) ;
#198 = ORIENTED_EDGE ( 'NONE', *, *, #182, .T. ) ;
#199 = CIRCLE ( 'NONE', #262, 12.51756548749907694 ) ;
#200 = DIRECTION ( 'NONE',  ( -1.224646799147353207E-16, -1.000000000000000000, 0.000000000000000000 ) ) ;
#201 = CARTESIAN_POINT ( 'NONE',  ( 0.000000000000000000, 0.000000000000000000, 4.282866881517001900 ) ) ;
#202 = SURFACE_STYLE_FILL_AREA ( #23 ) ;
#203 = SPHERICAL_SURFACE ( 'NONE', #142, 49.05999999999999517 ) ;
#204 = AXIS2_PLACEMENT_3D ( 'NONE', #24, #145, #77 ) ;
#205 = CARTESIAN_POINT ( 'NONE',  ( 0.000000000000000000, 0.000000000000000000, 51.38769460524535049 ) ) ;
#206 = FACE_OUTER_BOUND ( 'NONE', #294, .T. ) ;
#207 = SHAPE_DEFINITION_REPRESENTATION ( #211, #168 ) ;
#208 = AXIS2_PLACEMENT_3D ( 'NONE', #325, #14, #281 ) ;
#209 = VECTOR ( 'NONE', #74, 1000.000000000000000 ) ;
#210 = EDGE_CURVE ( 'NONE', #12, #138, #307, .T. ) ;
#211 = PRODUCT_DEFINITION_SHAPE ( 'NONE', 'NONE',  #234 ) ;
#212 = VERTEX_POINT ( 'NONE', #50 ) ;
#213 = ORIENTED_EDGE ( 'NONE', *, *, #313, .F. ) ;
#214 = ORIENTED_EDGE ( 'NONE', *, *, #111, .T. ) ;
#215 = DIRECTION ( 'NONE',  ( 1.000000000000000000, 0.000000000000000000, 0.000000000000000000 ) ) ;
#216 = PRODUCT ( 'GLM1-025B-150-VIS', 'GLM1-025B-150-VIS', '', ( #107 ) ) ;
#217 =( NAMED_UNIT ( * ) PLANE_ANGLE_UNIT ( ) SI_UNIT ( $, .RADIAN. ) );
#218 = DIRECTION ( 'NONE',  ( 0.000000000000000000, 0.000000000000000000, -1.000000000000000000 ) ) ;
#219 = UNCERTAINTY_MEASURE_WITH_UNIT (LENGTH_MEASURE( 1.000000000000000082E-05 ), #106, 'distance_accuracy_value', 'NONE');
#220 =( NAMED_UNIT ( * ) SI_UNIT ( $, .STERADIAN. ) SOLID_ANGLE_UNIT ( ) );
#221 = VERTEX_POINT ( 'NONE', #310 ) ;
#222 = ADVANCED_FACE ( 'NONE', ( #76 ), #124, .F. ) ;
#223 = ORIENTED_EDGE ( 'NONE', *, *, #291, .F. ) ;
#224 = CARTESIAN_POINT ( 'NONE',  ( 0.000000000000000000, 0.000000000000000000, 51.38769460524535049 ) ) ;
#225 = DIRECTION ( 'NONE',  ( 0.000000000000000000, 0.000000000000000000, -1.000000000000000000 ) ) ;
#226 = CARTESIAN_POINT ( 'NONE',  ( 0.000000000000000000, 0.000000000000000000, 4.282866881517001900 ) ) ;
#227 = DIRECTION ( 'NONE',  ( 1.000000000000000000, 0.000000000000000000, 0.000000000000000000 ) ) ;
#228 = DIRECTION ( 'NONE',  ( -1.000000000000000000, 0.000000000000000000, 0.000000000000000000 ) ) ;
#229 = PRODUCT_RELATED_PRODUCT_CATEGORY ( 'part', '', ( #216 ) ) ;
#230 = FACE_OUTER_BOUND ( 'NONE', #164, .T. ) ;
#231 = CONICAL_SURFACE ( 'NONE', #301, 12.51756548749907161, 0.7853981633974911336 ) ;
#232 = DIRECTION ( 'NONE',  ( 0.000000000000000000, 0.000000000000000000, 1.000000000000000000 ) ) ;
#233 = CARTESIAN_POINT ( 'NONE',  ( 12.51756548749907694, 1.544130542827725172E-15, 5.982434512500911516 ) ) ;
#234 = PRODUCT_DEFINITION ( 'Î´Öª', '', #98, #316 ) ;
#235 = CIRCLE ( 'NONE', #180, 12.51756548749907694 ) ;
#236 = ORIENTED_EDGE ( 'NONE', *, *, #312, .F. ) ;
#237 = VERTEX_POINT ( 'NONE', #148 ) ;
#238 = ORIENTED_EDGE ( 'NONE', *, *, #156, .F. ) ;
#239 = ORIENTED_EDGE ( 'NONE', *, *, #259, .T. ) ;
#240 = DIRECTION ( 'NONE',  ( 1.000000000000000000, 0.000000000000000000, 0.000000000000000000 ) ) ;
#241 = DIRECTION ( 'NONE',  ( 0.000000000000000000, 1.000000000000000000, 0.000000000000000000 ) ) ;
#242 = DIRECTION ( 'NONE',  ( -1.000000000000000000, 0.000000000000000000, 0.000000000000000000 ) ) ;
#243 = CARTESIAN_POINT ( 'NONE',  ( 0.000000000000000000, 0.000000000000000000, 5.799999999999999822 ) ) ;
#244 = AXIS2_PLACEMENT_3D ( 'NONE', #272, #60, #241 ) ;
#245 = EDGE_CURVE ( 'NONE', #112, #237, #150, .T. ) ;
#246 = AXIS2_PLACEMENT_3D ( 'NONE', #304, #5, #105 ) ;
#247 = DIRECTION ( 'NONE',  ( 0.000000000000000000, 0.000000000000000000, -1.000000000000000000 ) ) ;
#248 = FACE_OUTER_BOUND ( 'NONE', #293, .T. ) ;
#249 = CARTESIAN_POINT ( 'NONE',  ( 0.000000000000000000, 0.000000000000000000, 51.38769460524535049 ) ) ;
#250 = LINE ( 'NONE', #280, #269 ) ;
#251 = CARTESIAN_POINT ( 'NONE',  ( 0.000000000000000000, 0.000000000000000000, 3.948723936848863580 ) ) ;
#252 = DIRECTION ( 'NONE',  ( -1.000000000000000000, 0.000000000000000000, 0.000000000000000000 ) ) ;
#253 = COLOUR_RGB ( '',1.000000000000000000, 1.000000000000000000, 1.000000000000000000 ) ;
#254 = SURFACE_STYLE_FILL_AREA ( #152 ) ;
#255 = ADVANCED_FACE ( 'NONE', ( #230 ), #103, .T. ) ;
#256 = LINE ( 'NONE', #173, #278 ) ;
#257 = CARTESIAN_POINT ( 'NONE',  ( 12.51756548749907161, 1.532959650738311713E-15, 5.982434512500911516 ) ) ;
#258 = CARTESIAN_POINT ( 'NONE',  ( 0.000000000000000000, 0.000000000000000000, 136.9455749538715850 ) ) ;
#259 = EDGE_CURVE ( 'NONE', #237, #62, #104, .T. ) ;
#260 = VECTOR ( 'NONE', #192, 1000.000000000000000 ) ;
#261 = CONICAL_SURFACE ( 'NONE', #190, 12.51756548749907161, 0.7853981633974911336 ) ;
#262 = AXIS2_PLACEMENT_3D ( 'NONE', #137, #73, #16 ) ;
#263 = EDGE_CURVE ( 'NONE', #66, #41, #295, .T. ) ;
#264 = MANIFOLD_SOLID_BREP ( 'µ¹½Ç1', #160 ) ;
#265 = EDGE_LOOP ( 'NONE', ( #223, #214, #186, #117 ) ) ;
#266 = ORIENTED_EDGE ( 'NONE', *, *, #111, .F. ) ;
#267 = ORIENTED_EDGE ( 'NONE', *, *, #141, .T. ) ;
#268 = CARTESIAN_POINT ( 'NONE',  ( 12.69999999999999929, 0.000000000000000000, 4.282866881517001900 ) ) ;
#269 = VECTOR ( 'NONE', #48, 1000.000000000000000 ) ;
#270 = ORIENTED_EDGE ( 'NONE', *, *, #291, .T. ) ;
#271 =( LENGTH_UNIT ( ) NAMED_UNIT ( * ) SI_UNIT ( .MILLI., .METRE. ) );
#272 = CARTESIAN_POINT ( 'NONE',  ( 0.000000000000000000, 0.000000000000000000, 136.9455749538715850 ) ) ;
#273 = CARTESIAN_POINT ( 'NONE',  ( -1.532959650738299683E-15, -12.51756548749897568, 5.982434512500911516 ) ) ;
#274 = EDGE_CURVE ( 'NONE', #324, #212, #78, .T. ) ;
#275 = ORIENTED_EDGE ( 'NONE', *, *, #245, .F. ) ;
#276 = ORIENTED_EDGE ( 'NONE', *, *, #287, .F. ) ;
#277 = AXIS2_PLACEMENT_3D ( 'NONE', #243, #218, #195 ) ;
#278 = VECTOR ( 'NONE', #178, 1000.000000000000000 ) ;
#279 = DIRECTION ( 'NONE',  ( -0.000000000000000000, -0.000000000000000000, 1.000000000000000000 ) ) ;
#280 = CARTESIAN_POINT ( 'NONE',  ( -12.69999999999999929, 0.000000000000000000, 10.00000000000000000 ) ) ;
#281 = DIRECTION ( 'NONE',  ( 1.000000000000000000, 0.000000000000000000, 0.000000000000000000 ) ) ;
#282 = DIRECTION ( 'NONE',  ( -1.000000000000000000, 0.000000000000000000, 0.000000000000000000 ) ) ;
#283 = DIRECTION ( 'NONE',  ( 0.000000000000000000, 1.000000000000000000, 0.000000000000000000 ) ) ;
#284 = AXIS2_PLACEMENT_3D ( 'NONE', #249, #71, #171 ) ;
#285 = DIRECTION ( 'NONE',  ( 0.000000000000000000, 1.000000000000000000, 0.000000000000000000 ) ) ;
#286 = CARTESIAN_POINT ( 'NONE',  ( -12.69999999999999929, 0.000000000000000000, 4.282866881517001900 ) ) ;
#287 = EDGE_CURVE ( 'NONE', #318, #12, #61, .T. ) ;
#288 = EDGE_CURVE ( 'NONE', #138, #185, #131, .T. ) ;
#289 = AXIS2_PLACEMENT_3D ( 'NONE', #226, #279, #194 ) ;
#290 = ORIENTED_EDGE ( 'NONE', *, *, #109, .T. ) ;
#291 = EDGE_CURVE ( 'NONE', #221, #326, #321, .T. ) ;
#292 = ORIENTED_EDGE ( 'NONE', *, *, #323, .F. ) ;
#293 = EDGE_LOOP ( 'NONE', ( #86, #44, #290, #88 ) ) ;
#294 = EDGE_LOOP ( 'NONE', ( #189, #236, #92, #15, #188 ) ) ;
#295 = CIRCLE ( 'NONE', #289, 12.69999999999999929 ) ;
#296 = ORIENTED_EDGE ( 'NONE', *, *, #68, .F. ) ;
#297 = DIRECTION ( 'NONE',  ( 0.000000000000000000, 0.000000000000000000, -1.000000000000000000 ) ) ;
#298 = ORIENTED_EDGE ( 'NONE', *, *, #274, .F. ) ;
#299 = CARTESIAN_POINT ( 'NONE',  ( -12.51756548749907161, 0.000000000000000000, 5.982434512500911516 ) ) ;
#300 = ORIENTED_EDGE ( 'NONE', *, *, #33, .T. ) ;
#301 = AXIS2_PLACEMENT_3D ( 'NONE', #191, #65, #242 ) ;
#302 = CARTESIAN_POINT ( 'NONE',  ( -12.50710445798774728, 1.543489989512383738E-15, 3.948723936848863580 ) ) ;
#303 = DIRECTION ( 'NONE',  ( 1.000000000000000000, 0.000000000000000000, 0.000000000000000000 ) ) ;
#304 = CARTESIAN_POINT ( 'NONE',  ( 0.000000000000000000, 0.000000000000000000, 3.948723936848863580 ) ) ;
#305 = PRESENTATION_STYLE_ASSIGNMENT (( #130 ) ) ;
#306 = DIRECTION ( 'NONE',  ( -1.000000000000000000, 0.000000000000000000, 0.000000000000000000 ) ) ;
#307 = CIRCLE ( 'NONE', #90, 12.50710445798774728 ) ;
#308 = ADVANCED_FACE ( 'NONE', ( #144 ), #231, .T. ) ;
#309 =( NAMED_UNIT ( * ) SI_UNIT ( $, .STERADIAN. ) SOLID_ANGLE_UNIT ( ) );
#310 = CARTESIAN_POINT ( 'NONE',  ( 0.000000000000000000, 8.055726644791288963E-15, 5.385574953871569370 ) ) ;
#311 = CARTESIAN_POINT ( 'NONE',  ( 0.000000000000000000, 0.000000000000000000, 4.282866881517001900 ) ) ;
#312 = EDGE_CURVE ( 'NONE', #185, #314, #45, .T. ) ;
#313 = EDGE_CURVE ( 'NONE', #318, #185, #96, .T. ) ;
#314 = VERTEX_POINT ( 'NONE', #302 ) ;
#315 = AXIS2_PLACEMENT_3D ( 'NONE', #201, #120, #174 ) ;
#316 = PRODUCT_DEFINITION_CONTEXT ( 'detailed design', #181, 'design' ) ;
#317 = EDGE_LOOP ( 'NONE', ( #296, #239, #19, #157 ) ) ;
#318 = VERTEX_POINT ( 'NONE', #75 ) ;
#319 = ORIENTED_EDGE ( 'NONE', *, *, #288, .T. ) ;
#320 = ORIENTED_EDGE ( 'NONE', *, *, #323, .T. ) ;
#321 = CIRCLE ( 'NONE', #175, 131.5600000000000023 ) ;
#322 = ORIENTED_EDGE ( 'NONE', *, *, #312, .T. ) ;
#323 = EDGE_CURVE ( 'NONE', #326, #112, #199, .T. ) ;
#324 = VERTEX_POINT ( 'NONE', #165 ) ;
#325 = CARTESIAN_POINT ( 'NONE',  ( 0.000000000000000000, 0.000000000000000000, 5.982434512500911516 ) ) ;
#326 = VERTEX_POINT ( 'NONE', #273 ) ;
#327 = DIRECTION ( 'NONE',  ( 0.000000000000000000, 0.000000000000000000, -1.000000000000000000 ) ) ;
#328 = CARTESIAN_POINT ( 'NONE',  ( -12.69999999999999929, 1.555301434917138433E-15, 4.282866881517001900 ) ) ;
#329 =( GEOMETRIC_REPRESENTATION_CONTEXT ( 3 ) GLOBAL_UNCERTAINTY_ASSIGNED_CONTEXT ( ( #70 ) ) GLOBAL_UNIT_ASSIGNED_CONTEXT ( ( #271, #217, #220 ) ) REPRESENTATION_CONTEXT ( 'NONE', 'WORKASPACE' ) );
#330 = SURFACE_STYLE_USAGE ( .BOTH. , #115 ) ;
#331 = DIRECTION ( 'NONE',  ( 1.000000000000000000, 0.000000000000000000, 0.000000000000000000 ) ) ;
#332 = CARTESIAN_POINT ( 'NONE',  ( -12.69999999999999929, 0.000000000000000000, 5.799999999999999822 ) ) ;
ENDSEC;
END-ISO-10303-21;
