ISO-10303-21;
HEADER;
FILE_DESCRIPTION (( 'STEP AP214' ),
    '1' );
FILE_NAME ('GLM1-050B-200-VIS.STEP',
    '2024-08-09T02:26:00',
    ( 'Windows User' ),
    ( 'P R C' ),
    'SwSTEP 2.0',
    'SolidWorks 2022',
    '' );
FILE_SCHEMA (( 'AUTOMOTIVE_DESIGN' ));
ENDSEC;

DATA;
#1 = ORIENTED_EDGE ( 'NONE', *, *, #45, .T. ) ;
#2 = CARTESIAN_POINT ( 'NONE',  ( 0.000000000000000000, 0.000000000000000000, 73.00554641031111203 ) ) ;
#3 = ORIENTED_EDGE ( 'NONE', *, *, #86, .T. ) ;
#4 = SURFACE_STYLE_USAGE ( .BOTH. , #75 ) ;
#5 = EDGE_CURVE ( 'NONE', #89, #69, #159, .T. ) ;
#6 = DIRECTION ( 'NONE',  ( 0.000000000000000000, 0.000000000000000000, -1.000000000000000000 ) ) ;
#7 = AXIS2_PLACEMENT_3D ( 'NONE', #265, #70, #50 ) ;
#8 = ORIENTED_EDGE ( 'NONE', *, *, #239, .F. ) ;
#9 = DIRECTION ( 'NONE',  ( 0.000000000000000000, 0.000000000000000000, -1.000000000000000000 ) ) ;
#10 = APPLICATION_CONTEXT ( 'automotive_design' ) ;
#11 = CARTESIAN_POINT ( 'NONE',  ( 0.000000000000000000, 0.000000000000000000, 13.00000000000000000 ) ) ;
#12 = CIRCLE ( 'NONE', #92, 25.39999999999999503 ) ;
#13 =( GEOMETRIC_REPRESENTATION_CONTEXT ( 3 ) GLOBAL_UNCERTAINTY_ASSIGNED_CONTEXT ( ( #264 ) ) GLOBAL_UNIT_ASSIGNED_CONTEXT ( ( #101, #214, #127 ) ) REPRESENTATION_CONTEXT ( 'NONE', 'WORKASPACE' ) );
#14 =( LENGTH_UNIT ( ) NAMED_UNIT ( * ) SI_UNIT ( .MILLI., .METRE. ) );
#15 = CARTESIAN_POINT ( 'NONE',  ( 0.000000000000000000, 0.000000000000000000, 185.6097522242018840 ) ) ;
#16 = CARTESIAN_POINT ( 'NONE',  ( 0.000000000000000000, 0.000000000000000000, 13.00000000000000000 ) ) ;
#17 = SURFACE_STYLE_FILL_AREA ( #105 ) ;
#18 = EDGE_CURVE ( 'NONE', #256, #219, #12, .T. ) ;
#19 = FACE_OUTER_BOUND ( 'NONE', #96, .T. ) ;
#20 = CARTESIAN_POINT ( 'NONE',  ( 25.22595727592941373, 3.089288783339484453E-15, 15.87404272407055927 ) ) ;
#21 = MECHANICAL_DESIGN_GEOMETRIC_PRESENTATION_REPRESENTATION (  '', ( #72 ), #13 ) ;
#22 = ORIENTED_EDGE ( 'NONE', *, *, #129, .T. ) ;
#23 = AXIS2_PLACEMENT_3D ( 'NONE', #60, #254, #143 ) ;
#24 = ADVANCED_BREP_SHAPE_REPRESENTATION ( 'GLM1-050B-200-VIS', ( #81, #120 ), #267 ) ;
#25 = EDGE_LOOP ( 'NONE', ( #114, #27, #47, #64, #28 ) ) ;
#26 = EDGE_CURVE ( 'NONE', #88, #40, #240, .T. ) ;
#27 = ORIENTED_EDGE ( 'NONE', *, *, #76, .T. ) ;
#28 = ORIENTED_EDGE ( 'NONE', *, *, #129, .F. ) ;
#29 = DIRECTION ( 'NONE',  ( 0.000000000000000000, 0.000000000000000000, -1.000000000000000000 ) ) ;
#30 =( NAMED_UNIT ( * ) PLANE_ANGLE_UNIT ( ) SI_UNIT ( $, .RADIAN. ) );
#31 = CARTESIAN_POINT ( 'NONE',  ( 0.000000000000000000, 0.000000000000000000, 15.87404272407055927 ) ) ;
#32 = AXIS2_PLACEMENT_3D ( 'NONE', #11, #167, #251 ) ;
#33 = DIRECTION ( 'NONE',  ( 1.000000000000000000, 0.000000000000000000, 0.000000000000000000 ) ) ;
#34 = FACE_OUTER_BOUND ( 'NONE', #112, .T. ) ;
#35 = AXIS2_PLACEMENT_3D ( 'NONE', #67, #46, #135 ) ;
#36 = DIRECTION ( 'NONE',  ( -1.000000000000000000, 0.000000000000000000, 0.000000000000000000 ) ) ;
#37 = DIRECTION ( 'NONE',  ( 0.000000000000000000, 1.000000000000000000, 0.000000000000000000 ) ) ;
#38 = ADVANCED_FACE ( 'NONE', ( #242 ), #122, .T. ) ;
#39 = SHAPE_DEFINITION_REPRESENTATION ( #41, #24 ) ;
#40 = VERTEX_POINT ( 'NONE', #113 ) ;
#41 = PRODUCT_DEFINITION_SHAPE ( 'NONE', 'NONE',  #237 ) ;
#42 = VERTEX_POINT ( 'NONE', #202 ) ;
#43 = DIRECTION ( 'NONE',  ( 0.7071067811865263675, 8.659560562354675246E-17, -0.7071067811865686670 ) ) ;
#44 = VECTOR ( 'NONE', #247, 1000.000000000000000 ) ;
#45 = EDGE_CURVE ( 'NONE', #85, #130, #71, .T. ) ;
#46 = DIRECTION ( 'NONE',  ( 0.000000000000000000, 0.000000000000000000, -1.000000000000000000 ) ) ;
#47 = ORIENTED_EDGE ( 'NONE', *, *, #18, .T. ) ;
#48 = AXIS2_PLACEMENT_3D ( 'NONE', #2, #97, #229 ) ;
#49 = CIRCLE ( 'NONE', #172, 25.22595727592940662 ) ;
#50 = DIRECTION ( 'NONE',  ( 0.000000000000000000, 1.000000000000000000, 0.000000000000000000 ) ) ;
#51 = CARTESIAN_POINT ( 'NONE',  ( -3.110602869834275682E-15, -25.39999999999998437, 12.99999999999999822 ) ) ;
#52 = CARTESIAN_POINT ( 'NONE',  ( 25.39999999999999858, 3.110602869834276865E-15, 20.00000000000000000 ) ) ;
#53 = LINE ( 'NONE', #52, #109 ) ;
#54 = CARTESIAN_POINT ( 'NONE',  ( 0.000000000000000000, 3.989899271622076049E-15, 7.845546410311113661 ) ) ;
#55 = CARTESIAN_POINT ( 'NONE',  ( 0.000000000000000000, 0.000000000000000000, 15.87404272407055927 ) ) ;
#56 = EDGE_CURVE ( 'NONE', #69, #42, #233, .T. ) ;
#57 = DIRECTION ( 'NONE',  ( 0.000000000000000000, 1.000000000000000000, 0.000000000000000000 ) ) ;
#58 = AXIS2_PLACEMENT_3D ( 'NONE', #185, #270, #204 ) ;
#59 = DIRECTION ( 'NONE',  ( 1.000000000000000000, 0.000000000000000000, 0.000000000000000000 ) ) ;
#60 = CARTESIAN_POINT ( 'NONE',  ( 0.000000000000000000, 0.000000000000000000, 20.00000000000000000 ) ) ;
#61 = DIRECTION ( 'NONE',  ( 1.000000000000000000, 0.000000000000000000, 0.000000000000000000 ) ) ;
#62 = AXIS2_PLACEMENT_3D ( 'NONE', #15, #36, #193 ) ;
#63 = ORIENTED_EDGE ( 'NONE', *, *, #5, .F. ) ;
#64 = ORIENTED_EDGE ( 'NONE', *, *, #179, .T. ) ;
#65 = DIRECTION ( 'NONE',  ( 1.000000000000000000, 0.000000000000000000, 0.000000000000000000 ) ) ;
#66 = ADVANCED_FACE ( 'NONE', ( #209 ), #180, .T. ) ;
#67 = CARTESIAN_POINT ( 'NONE',  ( 0.000000000000000000, 0.000000000000000000, 15.87404272407055927 ) ) ;
#68 = AXIS2_PLACEMENT_3D ( 'NONE', #205, #6, #162 ) ;
#69 = VERTEX_POINT ( 'NONE', #138 ) ;
#70 = DIRECTION ( 'NONE',  ( -1.000000000000000000, 0.000000000000000000, 0.000000000000000000 ) ) ;
#71 = CIRCLE ( 'NONE', #48, 65.15999999999999659 ) ;
#72 = STYLED_ITEM ( 'NONE', ( #125 ), #24 ) ;
#73 = CARTESIAN_POINT ( 'NONE',  ( 25.22595727592940662, 3.099945826586880264E-15, 15.87404272407055927 ) ) ;
#74 = DIRECTION ( 'NONE',  ( -1.000000000000000000, 1.224646799147353207E-16, 0.000000000000000000 ) ) ;
#75 = SURFACE_SIDE_STYLE ('',( #186 ) ) ;
#76 = EDGE_CURVE ( 'NONE', #40, #256, #53, .T. ) ;
#77 = FILL_AREA_STYLE_COLOUR ( '', #146 ) ;
#78 = CARTESIAN_POINT ( 'NONE',  ( 0.000000000000000000, 0.000000000000000000, 15.87404272407055927 ) ) ;
#79 = FACE_OUTER_BOUND ( 'NONE', #25, .T. ) ;
#80 = CARTESIAN_POINT ( 'NONE',  ( -25.39999999999999858, 0.000000000000000000, 15.69999999999996376 ) ) ;
#81 = MANIFOLD_SOLID_BREP ( 'µ¹½Ç1', #279 ) ;
#82 = CARTESIAN_POINT ( 'NONE',  ( 0.000000000000000000, 0.000000000000000000, 0.000000000000000000 ) ) ;
#83 = AXIS2_PLACEMENT_3D ( 'NONE', #268, #74, #206 ) ;
#84 = CIRCLE ( 'NONE', #124, 25.39999999999999503 ) ;
#85 = VERTEX_POINT ( 'NONE', #54 ) ;
#86 = EDGE_CURVE ( 'NONE', #42, #199, #266, .T. ) ;
#87 = ORIENTED_EDGE ( 'NONE', *, *, #176, .F. ) ;
#88 = VERTEX_POINT ( 'NONE', #73 ) ;
#89 = VERTEX_POINT ( 'NONE', #142 ) ;
#90 = FILL_AREA_STYLE ('',( #248 ) ) ;
#91 = PRESENTATION_STYLE_ASSIGNMENT (( #4 ) ) ;
#92 = AXIS2_PLACEMENT_3D ( 'NONE', #151, #261, #65 ) ;
#93 = FACE_OUTER_BOUND ( 'NONE', #154, .T. ) ;
#94 = CIRCLE ( 'NONE', #68, 25.39999999999999858 ) ;
#95 = DIRECTION ( 'NONE',  ( -0.000000000000000000, -0.000000000000000000, 1.000000000000000000 ) ) ;
#96 = EDGE_LOOP ( 'NONE', ( #281, #1, #133, #225 ) ) ;
#97 = DIRECTION ( 'NONE',  ( -1.000000000000000000, 1.224646799147353207E-16, 0.000000000000000000 ) ) ;
#98 =( NAMED_UNIT ( * ) PLANE_ANGLE_UNIT ( ) SI_UNIT ( $, .RADIAN. ) );
#99 = DIRECTION ( 'NONE',  ( 1.000000000000000000, 0.000000000000000000, 0.000000000000000000 ) ) ;
#100 = EDGE_CURVE ( 'NONE', #42, #238, #255, .T. ) ;
#101 =( LENGTH_UNIT ( ) NAMED_UNIT ( * ) SI_UNIT ( .MILLI., .METRE. ) );
#102 = CYLINDRICAL_SURFACE ( 'NONE', #23, 25.39999999999999858 ) ;
#103 = FACE_OUTER_BOUND ( 'NONE', #173, .T. ) ;
#104 = SURFACE_SIDE_STYLE ('',( #17 ) ) ;
#105 = FILL_AREA_STYLE ('',( #77 ) ) ;
#106 = EDGE_LOOP ( 'NONE', ( #131, #175, #236, #177, #188 ) ) ;
#107 = AXIS2_PLACEMENT_3D ( 'NONE', #31, #9, #183 ) ;
#108 = ORIENTED_EDGE ( 'NONE', *, *, #139, .T. ) ;
#109 = VECTOR ( 'NONE', #227, 1000.000000000000000 ) ;
#110 = CIRCLE ( 'NONE', #280, 65.15999999999999659 ) ;
#111 = ORIENTED_EDGE ( 'NONE', *, *, #100, .F. ) ;
#112 = EDGE_LOOP ( 'NONE', ( #198, #117, #208, #153 ) ) ;
#113 = CARTESIAN_POINT ( 'NONE',  ( 25.39999999999999858, 3.110602869834276865E-15, 15.69999999999996376 ) ) ;
#114 = ORIENTED_EDGE ( 'NONE', *, *, #150, .T. ) ;
#115 = FACE_OUTER_BOUND ( 'NONE', #259, .T. ) ;
#116 = CARTESIAN_POINT ( 'NONE',  ( -25.22595727592941373, 0.000000000000000000, 15.87404272407055927 ) ) ;
#117 = ORIENTED_EDGE ( 'NONE', *, *, #5, .T. ) ;
#118 = CARTESIAN_POINT ( 'NONE',  ( 0.000000000000000000, 0.000000000000000000, 15.87404272407055927 ) ) ;
#119 = LINE ( 'NONE', #178, #44 ) ;
#120 = AXIS2_PLACEMENT_3D ( 'NONE', #82, #253, #59 ) ;
#121 = CARTESIAN_POINT ( 'NONE',  ( 25.39999999999999503, 3.110602869834276471E-15, 13.00000000000000000 ) ) ;
#122 = CONICAL_SURFACE ( 'NONE', #35, 25.22595727592941373, 0.7853981633974184140 ) ;
#123 = CARTESIAN_POINT ( 'NONE',  ( -3.089288783339482875E-15, -25.22595727592939951, 15.87404272407055927 ) ) ;
#124 = AXIS2_PLACEMENT_3D ( 'NONE', #16, #148, #61 ) ;
#125 = PRESENTATION_STYLE_ASSIGNMENT (( #128 ) ) ;
#126 = CARTESIAN_POINT ( 'NONE',  ( 0.000000000000000000, 0.000000000000000000, 13.00000000000000000 ) ) ;
#127 =( NAMED_UNIT ( * ) SI_UNIT ( $, .STERADIAN. ) SOLID_ANGLE_UNIT ( ) );
#128 = SURFACE_STYLE_USAGE ( .BOTH. , #104 ) ;
#129 = EDGE_CURVE ( 'NONE', #199, #224, #119, .T. ) ;
#130 = VERTEX_POINT ( 'NONE', #51 ) ;
#131 = ORIENTED_EDGE ( 'NONE', *, *, #213, .F. ) ;
#132 = MECHANICAL_DESIGN_GEOMETRIC_PRESENTATION_REPRESENTATION (  '', ( #181 ), #134 ) ;
#133 = ORIENTED_EDGE ( 'NONE', *, *, #200, .F. ) ;
#134 =( GEOMETRIC_REPRESENTATION_CONTEXT ( 3 ) GLOBAL_UNCERTAINTY_ASSIGNED_CONTEXT ( ( #249 ) ) GLOBAL_UNIT_ASSIGNED_CONTEXT ( ( #163, #30, #245 ) ) REPRESENTATION_CONTEXT ( 'NONE', 'WORKASPACE' ) );
#135 = DIRECTION ( 'NONE',  ( -1.000000000000000000, 0.000000000000000000, 0.000000000000000000 ) ) ;
#136 = ORIENTED_EDGE ( 'NONE', *, *, #26, .F. ) ;
#137 = CARTESIAN_POINT ( 'NONE',  ( 0.000000000000000000, 0.000000000000000000, 15.69999999999996376 ) ) ;
#138 = CARTESIAN_POINT ( 'NONE',  ( 0.000000000000000000, 25.22595727592939951, 15.87404272407055927 ) ) ;
#139 = EDGE_CURVE ( 'NONE', #40, #199, #94, .T. ) ;
#140 = DIRECTION ( 'NONE',  ( -0.7071067811865263675, 0.000000000000000000, -0.7071067811865686670 ) ) ;
#141 = DIRECTION ( 'NONE',  ( 1.000000000000000000, 0.000000000000000000, 0.000000000000000000 ) ) ;
#142 = CARTESIAN_POINT ( 'NONE',  ( 0.000000000000000000, 1.050746953668428865E-14, 14.00975222420192168 ) ) ;
#143 = DIRECTION ( 'NONE',  ( -1.000000000000000000, 0.000000000000000000, 0.000000000000000000 ) ) ;
#144 = COLOUR_RGB ( '',1.000000000000000000, 1.000000000000000000, 1.000000000000000000 ) ;
#145 = DIRECTION ( 'NONE',  ( -0.000000000000000000, -0.000000000000000000, 1.000000000000000000 ) ) ;
#146 = COLOUR_RGB ( '',1.000000000000000000, 1.000000000000000000, 1.000000000000000000 ) ;
#147 = CONICAL_SURFACE ( 'NONE', #107, 25.22595727592941373, 0.7853981633974184140 ) ;
#148 = DIRECTION ( 'NONE',  ( -0.000000000000000000, -0.000000000000000000, 1.000000000000000000 ) ) ;
#149 = ADVANCED_FACE ( 'NONE', ( #93 ), #226, .F. ) ;
#150 = EDGE_CURVE ( 'NONE', #199, #40, #276, .T. ) ;
#151 = CARTESIAN_POINT ( 'NONE',  ( 0.000000000000000000, 0.000000000000000000, 13.00000000000000000 ) ) ;
#152 = ORIENTED_EDGE ( 'NONE', *, *, #45, .F. ) ;
#153 = ORIENTED_EDGE ( 'NONE', *, *, #100, .T. ) ;
#154 = EDGE_LOOP ( 'NONE', ( #63, #203, #156, #263 ) ) ;
#155 = AXIS2_PLACEMENT_3D ( 'NONE', #161, #231, #33 ) ;
#156 = ORIENTED_EDGE ( 'NONE', *, *, #176, .T. ) ;
#157 = PRODUCT_DEFINITION_FORMATION_WITH_SPECIFIED_SOURCE ( 'ÈÎºÎ', '', #244, .NOT_KNOWN. ) ;
#158 = DIRECTION ( 'NONE',  ( 1.000000000000000000, 0.000000000000000000, 0.000000000000000000 ) ) ;
#159 = CIRCLE ( 'NONE', #197, 171.5999999999999659 ) ;
#160 = ADVANCED_FACE ( 'NONE', ( #115 ), #147, .T. ) ;
#161 = CARTESIAN_POINT ( 'NONE',  ( 0.000000000000000000, 0.000000000000000000, 15.87404272407055927 ) ) ;
#162 = DIRECTION ( 'NONE',  ( 1.000000000000000000, 0.000000000000000000, 0.000000000000000000 ) ) ;
#163 =( LENGTH_UNIT ( ) NAMED_UNIT ( * ) SI_UNIT ( .MILLI., .METRE. ) );
#164 = SPHERICAL_SURFACE ( 'NONE', #62, 171.5999999999999659 ) ;
#165 = UNCERTAINTY_MEASURE_WITH_UNIT (LENGTH_MEASURE( 1.000000000000000082E-05 ), #14, 'distance_accuracy_value', 'NONE');
#166 = PRODUCT_CONTEXT ( 'NONE', #10, 'mechanical' ) ;
#167 = DIRECTION ( 'NONE',  ( -0.000000000000000000, -0.000000000000000000, 1.000000000000000000 ) ) ;
#168 = APPLICATION_PROTOCOL_DEFINITION ( 'draft international standard', 'automotive_design', 1998, #274 ) ;
#169 = CARTESIAN_POINT ( 'NONE',  ( -25.39999999999999503, 0.000000000000000000, 13.00000000000000000 ) ) ;
#170 = EDGE_CURVE ( 'NONE', #89, #238, #207, .T. ) ;
#171 = CARTESIAN_POINT ( 'NONE',  ( 0.000000000000000000, 0.000000000000000000, 185.6097522242018840 ) ) ;
#172 = AXIS2_PLACEMENT_3D ( 'NONE', #78, #272, #232 ) ;
#173 = EDGE_LOOP ( 'NONE', ( #152, #174, #201, #8 ) ) ;
#174 = ORIENTED_EDGE ( 'NONE', *, *, #278, .T. ) ;
#175 = ORIENTED_EDGE ( 'NONE', *, *, #26, .T. ) ;
#176 = EDGE_CURVE ( 'NONE', #238, #88, #196, .T. ) ;
#177 = ORIENTED_EDGE ( 'NONE', *, *, #86, .F. ) ;
#178 = CARTESIAN_POINT ( 'NONE',  ( -25.39999999999999858, 0.000000000000000000, 20.00000000000000000 ) ) ;
#179 = EDGE_CURVE ( 'NONE', #219, #224, #241, .T. ) ;
#180 = CYLINDRICAL_SURFACE ( 'NONE', #58, 25.39999999999999858 ) ;
#181 = STYLED_ITEM ( 'NONE', ( #91 ), #81 ) ;
#182 = AXIS2_PLACEMENT_3D ( 'NONE', #277, #216, #37 ) ;
#183 = DIRECTION ( 'NONE',  ( -1.000000000000000000, 0.000000000000000000, 0.000000000000000000 ) ) ;
#184 = AXIS2_PLACEMENT_3D ( 'NONE', #126, #215, #99 ) ;
#185 = CARTESIAN_POINT ( 'NONE',  ( 0.000000000000000000, 0.000000000000000000, 20.00000000000000000 ) ) ;
#186 = SURFACE_STYLE_FILL_AREA ( #90 ) ;
#187 = CARTESIAN_POINT ( 'NONE',  ( 0.000000000000000000, 25.39999999999998437, 12.99999999999999822 ) ) ;
#188 = ORIENTED_EDGE ( 'NONE', *, *, #56, .F. ) ;
#189 = APPLICATION_PROTOCOL_DEFINITION ( 'draft international standard', 'automotive_design', 1998, #10 ) ;
#190 = CARTESIAN_POINT ( 'NONE',  ( 0.000000000000000000, 0.000000000000000000, 73.00554641031111203 ) ) ;
#191 = PRODUCT_RELATED_PRODUCT_CATEGORY ( 'part', '', ( #244 ) ) ;
#192 = DIRECTION ( 'NONE',  ( 0.000000000000000000, 0.000000000000000000, -1.000000000000000000 ) ) ;
#193 = DIRECTION ( 'NONE',  ( 0.000000000000000000, 1.000000000000000000, 0.000000000000000000 ) ) ;
#194 = ADVANCED_FACE ( 'NONE', ( #79 ), #102, .T. ) ;
#195 = PRODUCT_DEFINITION_CONTEXT ( 'detailed design', #274, 'design' ) ;
#196 = CIRCLE ( 'NONE', #262, 25.22595727592940662 ) ;
#197 = AXIS2_PLACEMENT_3D ( 'NONE', #171, #282, #260 ) ;
#198 = ORIENTED_EDGE ( 'NONE', *, *, #170, .F. ) ;
#199 = VERTEX_POINT ( 'NONE', #80 ) ;
#200 = EDGE_CURVE ( 'NONE', #224, #130, #269, .T. ) ;
#201 = ORIENTED_EDGE ( 'NONE', *, *, #18, .F. ) ;
#202 = CARTESIAN_POINT ( 'NONE',  ( -25.22595727592940662, 0.000000000000000000, 15.87404272407055927 ) ) ;
#203 = ORIENTED_EDGE ( 'NONE', *, *, #170, .T. ) ;
#204 = DIRECTION ( 'NONE',  ( -1.000000000000000000, 0.000000000000000000, 0.000000000000000000 ) ) ;
#205 = CARTESIAN_POINT ( 'NONE',  ( 0.000000000000000000, 0.000000000000000000, 15.69999999999996376 ) ) ;
#206 = DIRECTION ( 'NONE',  ( -1.224646799147353207E-16, -1.000000000000000000, 0.000000000000000000 ) ) ;
#207 = CIRCLE ( 'NONE', #83, 171.5999999999999659 ) ;
#208 = ORIENTED_EDGE ( 'NONE', *, *, #56, .T. ) ;
#209 = FACE_OUTER_BOUND ( 'NONE', #243, .T. ) ;
#210 = VECTOR ( 'NONE', #43, 1000.000000000000000 ) ;
#211 = SPHERICAL_SURFACE ( 'NONE', #182, 65.15999999999999659 ) ;
#212 = SPHERICAL_SURFACE ( 'NONE', #234, 65.15999999999999659 ) ;
#213 = EDGE_CURVE ( 'NONE', #88, #69, #49, .T. ) ;
#214 =( NAMED_UNIT ( * ) PLANE_ANGLE_UNIT ( ) SI_UNIT ( $, .RADIAN. ) );
#215 = DIRECTION ( 'NONE',  ( -0.000000000000000000, -0.000000000000000000, 1.000000000000000000 ) ) ;
#216 = DIRECTION ( 'NONE',  ( -1.000000000000000000, 0.000000000000000000, 0.000000000000000000 ) ) ;
#217 =( NAMED_UNIT ( * ) SI_UNIT ( $, .STERADIAN. ) SOLID_ANGLE_UNIT ( ) );
#218 = CARTESIAN_POINT ( 'NONE',  ( 0.000000000000000000, 0.000000000000000000, 73.00554641031111203 ) ) ;
#219 = VERTEX_POINT ( 'NONE', #187 ) ;
#220 = ORIENTED_EDGE ( 'NONE', *, *, #239, .T. ) ;
#221 = ADVANCED_FACE ( 'NONE', ( #34 ), #164, .F. ) ;
#222 = VECTOR ( 'NONE', #140, 1000.000000000000000 ) ;
#223 = ORIENTED_EDGE ( 'NONE', *, *, #200, .T. ) ;
#224 = VERTEX_POINT ( 'NONE', #169 ) ;
#225 = ORIENTED_EDGE ( 'NONE', *, *, #179, .F. ) ;
#226 = SPHERICAL_SURFACE ( 'NONE', #7, 171.5999999999999659 ) ;
#227 = DIRECTION ( 'NONE',  ( -0.000000000000000000, -0.000000000000000000, -1.000000000000000000 ) ) ;
#228 = ADVANCED_FACE ( 'NONE', ( #103 ), #212, .T. ) ;
#229 = DIRECTION ( 'NONE',  ( -1.224646799147352961E-16, -1.000000000000000000, 0.000000000000000000 ) ) ;
#230 = AXIS2_PLACEMENT_3D ( 'NONE', #137, #29, #141 ) ;
#231 = DIRECTION ( 'NONE',  ( -0.000000000000000000, -0.000000000000000000, 1.000000000000000000 ) ) ;
#232 = DIRECTION ( 'NONE',  ( 1.000000000000000000, 0.000000000000000000, 0.000000000000000000 ) ) ;
#233 = CIRCLE ( 'NONE', #246, 25.22595727592940662 ) ;
#234 = AXIS2_PLACEMENT_3D ( 'NONE', #190, #273, #57 ) ;
#235 = DIRECTION ( 'NONE',  ( 1.000000000000000000, 0.000000000000000000, 0.000000000000000000 ) ) ;
#236 = ORIENTED_EDGE ( 'NONE', *, *, #150, .F. ) ;
#237 = PRODUCT_DEFINITION ( 'Î´Öª', '', #157, #195 ) ;
#238 = VERTEX_POINT ( 'NONE', #123 ) ;
#239 = EDGE_CURVE ( 'NONE', #130, #256, #84, .T. ) ;
#240 = LINE ( 'NONE', #20, #210 ) ;
#241 = CIRCLE ( 'NONE', #32, 25.39999999999999503 ) ;
#242 = FACE_OUTER_BOUND ( 'NONE', #106, .T. ) ;
#243 = EDGE_LOOP ( 'NONE', ( #258, #108, #22, #223, #220 ) ) ;
#244 = PRODUCT ( 'GLM1-050B-200-VIS', 'GLM1-050B-200-VIS', '', ( #166 ) ) ;
#245 =( NAMED_UNIT ( * ) SI_UNIT ( $, .STERADIAN. ) SOLID_ANGLE_UNIT ( ) );
#246 = AXIS2_PLACEMENT_3D ( 'NONE', #118, #95, #158 ) ;
#247 = DIRECTION ( 'NONE',  ( -0.000000000000000000, -0.000000000000000000, -1.000000000000000000 ) ) ;
#248 = FILL_AREA_STYLE_COLOUR ( '', #144 ) ;
#249 = UNCERTAINTY_MEASURE_WITH_UNIT (LENGTH_MEASURE( 1.000000000000000082E-05 ), #163, 'distance_accuracy_value', 'NONE');
#250 = DIRECTION ( 'NONE',  ( 1.000000000000000000, -0.000000000000000000, 0.000000000000000000 ) ) ;
#251 = DIRECTION ( 'NONE',  ( 1.000000000000000000, 0.000000000000000000, 0.000000000000000000 ) ) ;
#252 = PRESENTATION_LAYER_ASSIGNMENT (  '', '', ( #181 ) ) ;
#253 = DIRECTION ( 'NONE',  ( 0.000000000000000000, 0.000000000000000000, 1.000000000000000000 ) ) ;
#254 = DIRECTION ( 'NONE',  ( -0.000000000000000000, -0.000000000000000000, -1.000000000000000000 ) ) ;
#255 = CIRCLE ( 'NONE', #155, 25.22595727592940662 ) ;
#256 = VERTEX_POINT ( 'NONE', #121 ) ;
#257 = PRESENTATION_LAYER_ASSIGNMENT (  '', '', ( #72 ) ) ;
#258 = ORIENTED_EDGE ( 'NONE', *, *, #76, .F. ) ;
#259 = EDGE_LOOP ( 'NONE', ( #136, #87, #111, #3, #271 ) ) ;
#260 = DIRECTION ( 'NONE',  ( 0.000000000000000000, 0.000000000000000000, -1.000000000000000000 ) ) ;
#261 = DIRECTION ( 'NONE',  ( -0.000000000000000000, -0.000000000000000000, 1.000000000000000000 ) ) ;
#262 = AXIS2_PLACEMENT_3D ( 'NONE', #55, #145, #235 ) ;
#263 = ORIENTED_EDGE ( 'NONE', *, *, #213, .T. ) ;
#264 = UNCERTAINTY_MEASURE_WITH_UNIT (LENGTH_MEASURE( 1.000000000000000082E-05 ), #101, 'distance_accuracy_value', 'NONE');
#265 = CARTESIAN_POINT ( 'NONE',  ( 0.000000000000000000, 0.000000000000000000, 185.6097522242018840 ) ) ;
#266 = LINE ( 'NONE', #116, #222 ) ;
#267 =( GEOMETRIC_REPRESENTATION_CONTEXT ( 3 ) GLOBAL_UNCERTAINTY_ASSIGNED_CONTEXT ( ( #165 ) ) GLOBAL_UNIT_ASSIGNED_CONTEXT ( ( #14, #98, #217 ) ) REPRESENTATION_CONTEXT ( 'NONE', 'WORKASPACE' ) );
#268 = CARTESIAN_POINT ( 'NONE',  ( 0.000000000000000000, 0.000000000000000000, 185.6097522242018840 ) ) ;
#269 = CIRCLE ( 'NONE', #184, 25.39999999999999503 ) ;
#270 = DIRECTION ( 'NONE',  ( -0.000000000000000000, -0.000000000000000000, -1.000000000000000000 ) ) ;
#271 = ORIENTED_EDGE ( 'NONE', *, *, #139, .F. ) ;
#272 = DIRECTION ( 'NONE',  ( -0.000000000000000000, -0.000000000000000000, 1.000000000000000000 ) ) ;
#273 = DIRECTION ( 'NONE',  ( -1.000000000000000000, 0.000000000000000000, 0.000000000000000000 ) ) ;
#274 = APPLICATION_CONTEXT ( 'automotive_design' ) ;
#275 = ADVANCED_FACE ( 'NONE', ( #19 ), #211, .T. ) ;
#276 = CIRCLE ( 'NONE', #230, 25.39999999999999858 ) ;
#277 = CARTESIAN_POINT ( 'NONE',  ( 0.000000000000000000, 0.000000000000000000, 73.00554641031111203 ) ) ;
#278 = EDGE_CURVE ( 'NONE', #85, #219, #110, .T. ) ;
#279 = CLOSED_SHELL ( 'NONE', ( #38, #149, #275, #194, #66, #228, #221, #160 ) ) ;
#280 = AXIS2_PLACEMENT_3D ( 'NONE', #218, #250, #192 ) ;
#281 = ORIENTED_EDGE ( 'NONE', *, *, #278, .F. ) ;
#282 = DIRECTION ( 'NONE',  ( 1.000000000000000000, 0.000000000000000000, 0.000000000000000000 ) ) ;
ENDSEC;
END-ISO-10303-21;
