ISO-10303-21;
HEADER;
FILE_DESCRIPTION (( 'STEP AP214' ),
    '1' );
FILE_NAME ('GLM1-025B-125-SWIR.STEP',
    '2024-08-09T02:14:08',
    ( 'Windows User' ),
    ( 'P R C' ),
    'SwSTEP 2.0',
    'SolidWorks 2022',
    '' );
FILE_SCHEMA (( 'AUTOMOTIVE_DESIGN' ));
ENDSEC;

DATA;
#1 = CARTESIAN_POINT ( 'NONE',  ( 0.000000000000000000, 0.000000000000000000, 4.313967534857077624 ) ) ;
#2 =( GEOMETRIC_REPRESENTATION_CONTEXT ( 3 ) GLOBAL_UNCERTAINTY_ASSIGNED_CONTEXT ( ( #304 ) ) GLOBAL_UNIT_ASSIGNED_CONTEXT ( ( #211, #292, #141 ) ) REPRESENTATION_CONTEXT ( 'NONE', 'WORKASPACE' ) );
#3 = ORIENTED_EDGE ( 'NONE', *, *, #72, .T. ) ;
#4 = DIRECTION ( 'NONE',  ( 0.000000000000000000, 1.000000000000000000, 0.000000000000000000 ) ) ;
#5 = ORIENTED_EDGE ( 'NONE', *, *, #41, .F. ) ;
#6 = EDGE_LOOP ( 'NONE', ( #46, #135, #228, #330 ) ) ;
#7 = EDGE_CURVE ( 'NONE', #137, #83, #73, .T. ) ;
#8 = DIRECTION ( 'NONE',  ( 1.000000000000000000, 0.000000000000000000, 0.000000000000000000 ) ) ;
#9 = FACE_OUTER_BOUND ( 'NONE', #207, .T. ) ;
#10 = AXIS2_PLACEMENT_3D ( 'NONE', #1, #204, #235 ) ;
#11 = CARTESIAN_POINT ( 'NONE',  ( 0.000000000000000000, 0.000000000000000000, 112.1429225148808655 ) ) ;
#12 = DIRECTION ( 'NONE',  ( -0.000000000000000000, -0.000000000000000000, -1.000000000000000000 ) ) ;
#13 = AXIS2_PLACEMENT_3D ( 'NONE', #214, #145, #320 ) ;
#14 = COLOUR_RGB ( '',1.000000000000000000, 1.000000000000000000, 1.000000000000000000 ) ;
#15 = FACE_OUTER_BOUND ( 'NONE', #86, .T. ) ;
#16 = ADVANCED_FACE ( 'NONE', ( #206 ), #286, .T. ) ;
#17 = CARTESIAN_POINT ( 'NONE',  ( 0.000000000000000000, 0.000000000000000000, 4.313967534857077624 ) ) ;
#18 = ORIENTED_EDGE ( 'NONE', *, *, #246, .T. ) ;
#19 = FACE_OUTER_BOUND ( 'NONE', #6, .T. ) ;
#20 = AXIS2_PLACEMENT_3D ( 'NONE', #328, #238, #264 ) ;
#21 = ORIENTED_EDGE ( 'NONE', *, *, #305, .F. ) ;
#22 = EDGE_LOOP ( 'NONE', ( #29, #18, #177, #313 ) ) ;
#23 = DIRECTION ( 'NONE',  ( -1.000000000000000000, 0.000000000000000000, 0.000000000000000000 ) ) ;
#24 = CARTESIAN_POINT ( 'NONE',  ( 0.000000000000000000, 0.000000000000000000, 3.938057364562333351 ) ) ;
#25 = ORIENTED_EDGE ( 'NONE', *, *, #237, .F. ) ;
#26 = ORIENTED_EDGE ( 'NONE', *, *, #290, .T. ) ;
#27 = ORIENTED_EDGE ( 'NONE', *, *, #134, .F. ) ;
#28 = DIRECTION ( 'NONE',  ( -1.000000000000000000, 0.000000000000000000, 0.000000000000000000 ) ) ;
#29 = ORIENTED_EDGE ( 'NONE', *, *, #102, .F. ) ;
#30 =( NAMED_UNIT ( * ) PLANE_ANGLE_UNIT ( ) SI_UNIT ( $, .RADIAN. ) );
#31 = SURFACE_SIDE_STYLE ('',( #323 ) ) ;
#32 = CARTESIAN_POINT ( 'NONE',  ( 12.51034897911231170, 0.000000000000000000, 3.938057364562333351 ) ) ;
#33 = PRODUCT_DEFINITION_SHAPE ( 'NONE', 'NONE',  #77 ) ;
#34 = DIRECTION ( 'NONE',  ( 0.000000000000000000, 0.000000000000000000, 1.000000000000000000 ) ) ;
#35 = SURFACE_STYLE_FILL_AREA ( #87 ) ;
#36 = PRODUCT_DEFINITION_FORMATION_WITH_SPECIFIED_SOURCE ( 'ÈÎºÎ', '', #57, .NOT_KNOWN. ) ;
#37 = PRODUCT_RELATED_PRODUCT_CATEGORY ( 'part', '', ( #57 ) ) ;
#38 = DIRECTION ( 'NONE',  ( 0.000000000000000000, 0.000000000000000000, -1.000000000000000000 ) ) ;
#39 = CARTESIAN_POINT ( 'NONE',  ( 0.000000000000000000, 0.000000000000000000, 112.1429225148808655 ) ) ;
#40 = APPLICATION_CONTEXT ( 'automotive_design' ) ;
#41 = EDGE_CURVE ( 'NONE', #152, #83, #201, .T. ) ;
#42 = CARTESIAN_POINT ( 'NONE',  ( 0.000000000000000000, 0.000000000000000000, 5.799999999999999822 ) ) ;
#43 = DIRECTION ( 'NONE',  ( 0.000000000000000000, 1.000000000000000000, 0.000000000000000000 ) ) ;
#44 = DIRECTION ( 'NONE',  ( -1.224646799147353454E-16, -1.000000000000000000, 0.000000000000000000 ) ) ;
#45 = VERTEX_POINT ( 'NONE', #285 ) ;
#46 = ORIENTED_EDGE ( 'NONE', *, *, #118, .T. ) ;
#47 = VERTEX_POINT ( 'NONE', #180 ) ;
#48 =( GEOMETRIC_REPRESENTATION_CONTEXT ( 3 ) GLOBAL_UNCERTAINTY_ASSIGNED_CONTEXT ( ( #62 ) ) GLOBAL_UNIT_ASSIGNED_CONTEXT ( ( #242, #217, #51 ) ) REPRESENTATION_CONTEXT ( 'NONE', 'WORKASPACE' ) );
#49 = LINE ( 'NONE', #71, #251 ) ;
#50 = ORIENTED_EDGE ( 'NONE', *, *, #67, .T. ) ;
#51 =( NAMED_UNIT ( * ) SI_UNIT ( $, .STERADIAN. ) SOLID_ANGLE_UNIT ( ) );
#52 = EDGE_LOOP ( 'NONE', ( #25, #263, #153, #311, #99 ) ) ;
#53 = AXIS2_PLACEMENT_3D ( 'NONE', #197, #150, #43 ) ;
#54 = ORIENTED_EDGE ( 'NONE', *, *, #159, .T. ) ;
#55 = AXIS2_PLACEMENT_3D ( 'NONE', #42, #226, #149 ) ;
#56 = FILL_AREA_STYLE ('',( #116 ) ) ;
#57 = PRODUCT ( 'GLM1-025B-125-SWIR', 'GLM1-025B-125-SWIR', '', ( #93 ) ) ;
#58 = DIRECTION ( 'NONE',  ( 0.000000000000000000, 0.000000000000000000, -1.000000000000000000 ) ) ;
#59 = CARTESIAN_POINT ( 'NONE',  ( 0.000000000000000000, 0.000000000000000000, 0.000000000000000000 ) ) ;
#60 = ADVANCED_FACE ( 'NONE', ( #332 ), #255, .F. ) ;
#61 = CARTESIAN_POINT ( 'NONE',  ( -12.69999999999999929, 0.000000000000000000, 5.799999999999999822 ) ) ;
#62 = UNCERTAINTY_MEASURE_WITH_UNIT (LENGTH_MEASURE( 1.000000000000000082E-05 ), #242, 'distance_accuracy_value', 'NONE');
#63 = PRESENTATION_LAYER_ASSIGNMENT (  '', '', ( #167 ) ) ;
#64 = AXIS2_PLACEMENT_3D ( 'NONE', #170, #249, #126 ) ;
#65 = SPHERICAL_SURFACE ( 'NONE', #268, 40.59999999999999432 ) ;
#66 = CARTESIAN_POINT ( 'NONE',  ( 0.000000000000000000, 0.000000000000000000, 42.56254659640620730 ) ) ;
#67 = EDGE_CURVE ( 'NONE', #188, #258, #200, .T. ) ;
#68 = CARTESIAN_POINT ( 'NONE',  ( 0.000000000000000000, 0.000000000000000000, 10.00000000000000000 ) ) ;
#69 = DIRECTION ( 'NONE',  ( 1.000000000000000000, 0.000000000000000000, 0.000000000000000000 ) ) ;
#70 = CARTESIAN_POINT ( 'NONE',  ( 12.69999999999999929, 1.555301434917138433E-15, 4.313967534857077624 ) ) ;
#71 = CARTESIAN_POINT ( 'NONE',  ( -12.52123640383887881, 0.000000000000000000, 5.978763596161118521 ) ) ;
#72 = EDGE_CURVE ( 'NONE', #47, #152, #267, .T. ) ;
#73 = LINE ( 'NONE', #179, #96 ) ;
#74 = MECHANICAL_DESIGN_GEOMETRIC_PRESENTATION_REPRESENTATION (  '', ( #167 ), #91 ) ;
#75 = MECHANICAL_DESIGN_GEOMETRIC_PRESENTATION_REPRESENTATION (  '', ( #274 ), #2 ) ;
#76 = VERTEX_POINT ( 'NONE', #310 ) ;
#77 = PRODUCT_DEFINITION ( 'Î´Öª', '', #36, #90 ) ;
#78 = ORIENTED_EDGE ( 'NONE', *, *, #159, .F. ) ;
#79 = CARTESIAN_POINT ( 'NONE',  ( 12.69999999999999929, 0.000000000000000000, 4.313967534857077624 ) ) ;
#80 = AXIS2_PLACEMENT_3D ( 'NONE', #289, #219, #324 ) ;
#81 = PRESENTATION_STYLE_ASSIGNMENT (( #321 ) ) ;
#82 = VERTEX_POINT ( 'NONE', #181 ) ;
#83 = VERTEX_POINT ( 'NONE', #302 ) ;
#84 = CARTESIAN_POINT ( 'NONE',  ( -12.51034897911231170, 1.543688659132881617E-15, 3.938057364562333351 ) ) ;
#85 = CIRCLE ( 'NONE', #182, 40.59999999999999432 ) ;
#86 = EDGE_LOOP ( 'NONE', ( #259, #127, #283, #253, #27 ) ) ;
#87 = FILL_AREA_STYLE ('',( #109 ) ) ;
#88 = EDGE_CURVE ( 'NONE', #160, #137, #49, .T. ) ;
#89 = FACE_OUTER_BOUND ( 'NONE', #105, .T. ) ;
#90 = PRODUCT_DEFINITION_CONTEXT ( 'detailed design', #308, 'design' ) ;
#91 =( GEOMETRIC_REPRESENTATION_CONTEXT ( 3 ) GLOBAL_UNCERTAINTY_ASSIGNED_CONTEXT ( ( #220 ) ) GLOBAL_UNIT_ASSIGNED_CONTEXT ( ( #293, #30, #221 ) ) REPRESENTATION_CONTEXT ( 'NONE', 'WORKASPACE' ) );
#92 = CARTESIAN_POINT ( 'NONE',  ( 0.000000000000000000, 0.000000000000000000, 5.978763596161104310 ) ) ;
#93 = PRODUCT_CONTEXT ( 'NONE', #40, 'mechanical' ) ;
#94 = FACE_OUTER_BOUND ( 'NONE', #100, .T. ) ;
#95 = CARTESIAN_POINT ( 'NONE',  ( 0.000000000000000000, 0.000000000000000000, 4.313967534857077624 ) ) ;
#96 = VECTOR ( 'NONE', #257, 1000.000000000000000 ) ;
#97 = VERTEX_POINT ( 'NONE', #124 ) ;
#98 = DIRECTION ( 'NONE',  ( -0.000000000000000000, -0.000000000000000000, -1.000000000000000000 ) ) ;
#99 = ORIENTED_EDGE ( 'NONE', *, *, #183, .F. ) ;
#100 = EDGE_LOOP ( 'NONE', ( #309, #210, #133, #315 ) ) ;
#101 = AXIS2_PLACEMENT_3D ( 'NONE', #175, #278, #38 ) ;
#102 = EDGE_CURVE ( 'NONE', #108, #45, #186, .T. ) ;
#103 = CIRCLE ( 'NONE', #306, 12.52123640383887704 ) ;
#104 = ORIENTED_EDGE ( 'NONE', *, *, #111, .F. ) ;
#105 = EDGE_LOOP ( 'NONE', ( #161, #138, #107, #287 ) ) ;
#106 = ORIENTED_EDGE ( 'NONE', *, *, #102, .T. ) ;
#107 = ORIENTED_EDGE ( 'NONE', *, *, #134, .T. ) ;
#108 = VERTEX_POINT ( 'NONE', #166 ) ;
#109 = FILL_AREA_STYLE_COLOUR ( '', #119 ) ;
#110 = CARTESIAN_POINT ( 'NONE',  ( 0.000000000000000000, 0.000000000000000000, 5.978763596161118521 ) ) ;
#111 = EDGE_CURVE ( 'NONE', #212, #76, #136, .T. ) ;
#112 = SHAPE_DEFINITION_REPRESENTATION ( #33, #241 ) ;
#113 = CIRCLE ( 'NONE', #215, 12.52123640383887704 ) ;
#114 = AXIS2_PLACEMENT_3D ( 'NONE', #120, #275, #44 ) ;
#115 = FACE_OUTER_BOUND ( 'NONE', #155, .T. ) ;
#116 = FILL_AREA_STYLE_COLOUR ( '', #14 ) ;
#117 = CARTESIAN_POINT ( 'NONE',  ( -12.52123640383887704, 0.000000000000000000, 5.978763596161104310 ) ) ;
#118 = EDGE_CURVE ( 'NONE', #137, #82, #178, .T. ) ;
#119 = COLOUR_RGB ( '',1.000000000000000000, 1.000000000000000000, 1.000000000000000000 ) ;
#120 = CARTESIAN_POINT ( 'NONE',  ( 0.000000000000000000, 0.000000000000000000, 42.56254659640620730 ) ) ;
#121 = LINE ( 'NONE', #247, #269 ) ;
#122 = DIRECTION ( 'NONE',  ( -0.000000000000000000, -0.000000000000000000, 1.000000000000000000 ) ) ;
#123 = ADVANCED_FACE ( 'NONE', ( #89 ), #65, .T. ) ;
#124 = CARTESIAN_POINT ( 'NONE',  ( 0.000000000000000000, 12.51034897911230992, 3.938057364562333351 ) ) ;
#125 = CIRCLE ( 'NONE', #208, 12.51034897911231170 ) ;
#126 = DIRECTION ( 'NONE',  ( -1.000000000000000000, 0.000000000000000000, 0.000000000000000000 ) ) ;
#127 = ORIENTED_EDGE ( 'NONE', *, *, #41, .T. ) ;
#128 = ORIENTED_EDGE ( 'NONE', *, *, #246, .F. ) ;
#129 = EDGE_CURVE ( 'NONE', #152, #97, #288, .T. ) ;
#130 = DIRECTION ( 'NONE',  ( 0.4504330560855231425, 0.000000000000000000, 0.8928102049066508616 ) ) ;
#131 = CIRCLE ( 'NONE', #172, 12.69999999999999929 ) ;
#132 = CARTESIAN_POINT ( 'NONE',  ( 0.000000000000000000, 0.000000000000000000, 112.1429225148808655 ) ) ;
#133 = ORIENTED_EDGE ( 'NONE', *, *, #7, .T. ) ;
#134 = EDGE_CURVE ( 'NONE', #97, #188, #125, .T. ) ;
#135 = ORIENTED_EDGE ( 'NONE', *, *, #277, .T. ) ;
#136 = CIRCLE ( 'NONE', #227, 12.52123640383887704 ) ;
#137 = VERTEX_POINT ( 'NONE', #61 ) ;
#138 = ORIENTED_EDGE ( 'NONE', *, *, #139, .T. ) ;
#139 = EDGE_CURVE ( 'NONE', #213, #97, #85, .T. ) ;
#140 = DIRECTION ( 'NONE',  ( 0.000000000000000000, 0.000000000000000000, -1.000000000000000000 ) ) ;
#141 =( NAMED_UNIT ( * ) SI_UNIT ( $, .STERADIAN. ) SOLID_ANGLE_UNIT ( ) );
#142 = DIRECTION ( 'NONE',  ( 0.000000000000000000, 0.000000000000000000, -1.000000000000000000 ) ) ;
#143 = APPLICATION_PROTOCOL_DEFINITION ( 'draft international standard', 'automotive_design', 1998, #40 ) ;
#144 = AXIS2_PLACEMENT_3D ( 'NONE', #17, #122, #326 ) ;
#145 = DIRECTION ( 'NONE',  ( 0.000000000000000000, 0.000000000000000000, -1.000000000000000000 ) ) ;
#146 = MANIFOLD_SOLID_BREP ( 'µ¹½Ç1', #156 ) ;
#147 = CARTESIAN_POINT ( 'NONE',  ( 0.000000000000000000, 0.000000000000000000, 3.938057364562333351 ) ) ;
#148 = DIRECTION ( 'NONE',  ( -0.000000000000000000, -0.000000000000000000, 1.000000000000000000 ) ) ;
#149 = DIRECTION ( 'NONE',  ( 1.000000000000000000, 0.000000000000000000, 0.000000000000000000 ) ) ;
#150 = DIRECTION ( 'NONE',  ( -1.000000000000000000, 0.000000000000000000, 0.000000000000000000 ) ) ;
#151 = DIRECTION ( 'NONE',  ( -1.000000000000000000, 0.000000000000000000, 0.000000000000000000 ) ) ;
#152 = VERTEX_POINT ( 'NONE', #84 ) ;
#153 = ORIENTED_EDGE ( 'NONE', *, *, #118, .F. ) ;
#154 = DIRECTION ( 'NONE',  ( -0.4504330560855231425, 5.516214003652961775E-17, 0.8928102049066508616 ) ) ;
#155 = EDGE_LOOP ( 'NONE', ( #281, #26, #3, #184 ) ) ;
#156 = CLOSED_SHELL ( 'NONE', ( #164, #234, #60, #205, #250, #224, #123, #191, #16, #176 ) ) ;
#157 = CIRCLE ( 'NONE', #20, 12.69999999999999929 ) ;
#158 = DIRECTION ( 'NONE',  ( -0.7071067811865510144, 0.000000000000000000, -0.7071067811865441310 ) ) ;
#159 = EDGE_CURVE ( 'NONE', #160, #212, #113, .T. ) ;
#160 = VERTEX_POINT ( 'NONE', #117 ) ;
#161 = ORIENTED_EDGE ( 'NONE', *, *, #290, .F. ) ;
#162 = CONICAL_SURFACE ( 'NONE', #13, 12.52123640383887881, 0.7853981633974531640 ) ;
#163 = AXIS2_PLACEMENT_3D ( 'NONE', #298, #272, #69 ) ;
#164 = ADVANCED_FACE ( 'NONE', ( #165 ), #299, .T. ) ;
#165 = FACE_OUTER_BOUND ( 'NONE', #52, .T. ) ;
#166 = CARTESIAN_POINT ( 'NONE',  ( 0.000000000000000000, 6.545737141442603608E-15, 5.242922514880857143 ) ) ;
#167 = STYLED_ITEM ( 'NONE', ( #245 ), #146 ) ;
#168 = VECTOR ( 'NONE', #225, 1000.000000000000000 ) ;
#169 = CARTESIAN_POINT ( 'NONE',  ( 0.000000000000000000, 0.000000000000000000, 3.938057364562333351 ) ) ;
#170 = CARTESIAN_POINT ( 'NONE',  ( 0.000000000000000000, 0.000000000000000000, 10.00000000000000000 ) ) ;
#171 = CARTESIAN_POINT ( 'NONE',  ( 0.000000000000000000, 2.486033002269126979E-15, 1.962546596406211652 ) ) ;
#172 = AXIS2_PLACEMENT_3D ( 'NONE', #95, #271, #276 ) ;
#173 = DIRECTION ( 'NONE',  ( -1.224646799147353207E-16, -1.000000000000000000, 0.000000000000000000 ) ) ;
#174 = CYLINDRICAL_SURFACE ( 'NONE', #312, 12.69999999999999929 ) ;
#175 = CARTESIAN_POINT ( 'NONE',  ( 0.000000000000000000, 0.000000000000000000, 112.1429225148808655 ) ) ;
#176 = ADVANCED_FACE ( 'NONE', ( #9 ), #162, .T. ) ;
#177 = ORIENTED_EDGE ( 'NONE', *, *, #111, .T. ) ;
#178 = CIRCLE ( 'NONE', #80, 12.69999999999999929 ) ;
#179 = CARTESIAN_POINT ( 'NONE',  ( -12.69999999999999929, 0.000000000000000000, 10.00000000000000000 ) ) ;
#180 = CARTESIAN_POINT ( 'NONE',  ( -1.532075883348624801E-15, -12.51034897911230992, 3.938057364562333351 ) ) ;
#181 = CARTESIAN_POINT ( 'NONE',  ( 12.69999999999999929, 1.555301434917138433E-15, 5.799999999999999822 ) ) ;
#182 = AXIS2_PLACEMENT_3D ( 'NONE', #291, #270, #142 ) ;
#183 = EDGE_CURVE ( 'NONE', #45, #160, #279, .T. ) ;
#184 = ORIENTED_EDGE ( 'NONE', *, *, #129, .T. ) ;
#185 = SURFACE_STYLE_USAGE ( .BOTH. , #316 ) ;
#186 = CIRCLE ( 'NONE', #101, 106.9000000000000057 ) ;
#187 = CIRCLE ( 'NONE', #114, 40.59999999999999432 ) ;
#188 = VERTEX_POINT ( 'NONE', #32 ) ;
#189 = CARTESIAN_POINT ( 'NONE',  ( 0.000000000000000000, 0.000000000000000000, 5.978763596161104310 ) ) ;
#190 = DIRECTION ( 'NONE',  ( 0.000000000000000000, 1.000000000000000000, 0.000000000000000000 ) ) ;
#191 = ADVANCED_FACE ( 'NONE', ( #243 ), #216, .F. ) ;
#192 = DIRECTION ( 'NONE',  ( 1.000000000000000000, 0.000000000000000000, 0.000000000000000000 ) ) ;
#193 = AXIS2_PLACEMENT_3D ( 'NONE', #24, #303, #199 ) ;
#194 = DIRECTION ( 'NONE',  ( -0.000000000000000000, -0.000000000000000000, 1.000000000000000000 ) ) ;
#195 = CARTESIAN_POINT ( 'NONE',  ( -1.533409208332850696E-15, -12.52123640383880421, 5.978763596161098093 ) ) ;
#196 = DIRECTION ( 'NONE',  ( 1.000000000000000000, 0.000000000000000000, 0.000000000000000000 ) ) ;
#197 = CARTESIAN_POINT ( 'NONE',  ( 0.000000000000000000, 0.000000000000000000, 42.56254659640620730 ) ) ;
#198 = DIRECTION ( 'NONE',  ( -1.000000000000000000, 1.224646799147353207E-16, 0.000000000000000000 ) ) ;
#199 = DIRECTION ( 'NONE',  ( 1.000000000000000000, 0.000000000000000000, 0.000000000000000000 ) ) ;
#200 = LINE ( 'NONE', #79, #261 ) ;
#201 = LINE ( 'NONE', #307, #319 ) ;
#202 = AXIS2_PLACEMENT_3D ( 'NONE', #11, #151, #327 ) ;
#203 = AXIS2_PLACEMENT_3D ( 'NONE', #59, #34, #196 ) ;
#204 = DIRECTION ( 'NONE',  ( -0.000000000000000000, -0.000000000000000000, 1.000000000000000000 ) ) ;
#205 = ADVANCED_FACE ( 'NONE', ( #115 ), #223, .T. ) ;
#206 = FACE_OUTER_BOUND ( 'NONE', #236, .T. ) ;
#207 = EDGE_LOOP ( 'NONE', ( #232, #104, #78, #230, #21 ) ) ;
#208 = AXIS2_PLACEMENT_3D ( 'NONE', #169, #266, #296 ) ;
#209 = CIRCLE ( 'NONE', #222, 106.9000000000000057 ) ;
#210 = ORIENTED_EDGE ( 'NONE', *, *, #305, .T. ) ;
#211 =( LENGTH_UNIT ( ) NAMED_UNIT ( * ) SI_UNIT ( .MILLI., .METRE. ) );
#212 = VERTEX_POINT ( 'NONE', #195 ) ;
#213 = VERTEX_POINT ( 'NONE', #171 ) ;
#214 = CARTESIAN_POINT ( 'NONE',  ( 0.000000000000000000, 0.000000000000000000, 5.978763596161118521 ) ) ;
#215 = AXIS2_PLACEMENT_3D ( 'NONE', #239, #322, #8 ) ;
#216 = SPHERICAL_SURFACE ( 'NONE', #202, 106.9000000000000057 ) ;
#217 =( NAMED_UNIT ( * ) PLANE_ANGLE_UNIT ( ) SI_UNIT ( $, .RADIAN. ) );
#218 = EDGE_CURVE ( 'NONE', #258, #83, #131, .T. ) ;
#219 = DIRECTION ( 'NONE',  ( 0.000000000000000000, 0.000000000000000000, -1.000000000000000000 ) ) ;
#220 = UNCERTAINTY_MEASURE_WITH_UNIT (LENGTH_MEASURE( 1.000000000000000082E-05 ), #293, 'distance_accuracy_value', 'NONE');
#221 =( NAMED_UNIT ( * ) SI_UNIT ( $, .STERADIAN. ) SOLID_ANGLE_UNIT ( ) );
#222 = AXIS2_PLACEMENT_3D ( 'NONE', #39, #198, #173 ) ;
#223 = SPHERICAL_SURFACE ( 'NONE', #53, 40.59999999999999432 ) ;
#224 = ADVANCED_FACE ( 'NONE', ( #94 ), #331, .T. ) ;
#225 = DIRECTION ( 'NONE',  ( 0.7071067811865510144, 8.659560562354975999E-17, -0.7071067811865441310 ) ) ;
#226 = DIRECTION ( 'NONE',  ( 0.000000000000000000, 0.000000000000000000, -1.000000000000000000 ) ) ;
#227 = AXIS2_PLACEMENT_3D ( 'NONE', #294, #194, #262 ) ;
#228 = ORIENTED_EDGE ( 'NONE', *, *, #218, .T. ) ;
#229 = DIRECTION ( 'NONE',  ( -1.000000000000000000, 0.000000000000000000, 0.000000000000000000 ) ) ;
#230 = ORIENTED_EDGE ( 'NONE', *, *, #88, .T. ) ;
#231 = ORIENTED_EDGE ( 'NONE', *, *, #282, .F. ) ;
#232 = ORIENTED_EDGE ( 'NONE', *, *, #256, .F. ) ;
#233 = AXIS2_PLACEMENT_3D ( 'NONE', #147, #58, #192 ) ;
#234 = ADVANCED_FACE ( 'NONE', ( #15 ), #300, .T. ) ;
#235 = DIRECTION ( 'NONE',  ( 1.000000000000000000, 0.000000000000000000, 0.000000000000000000 ) ) ;
#236 = EDGE_LOOP ( 'NONE', ( #5, #284, #231, #50, #318 ) ) ;
#237 = EDGE_CURVE ( 'NONE', #76, #45, #103, .T. ) ;
#238 = DIRECTION ( 'NONE',  ( -0.000000000000000000, -0.000000000000000000, 1.000000000000000000 ) ) ;
#239 = CARTESIAN_POINT ( 'NONE',  ( 0.000000000000000000, 0.000000000000000000, 5.978763596161104310 ) ) ;
#240 = DIRECTION ( 'NONE',  ( -1.000000000000000000, 0.000000000000000000, 0.000000000000000000 ) ) ;
#241 = ADVANCED_BREP_SHAPE_REPRESENTATION ( 'GLM1-025B-125-SWIR', ( #146, #203 ), #48 ) ;
#242 =( LENGTH_UNIT ( ) NAMED_UNIT ( * ) SI_UNIT ( .MILLI., .METRE. ) );
#243 = FACE_OUTER_BOUND ( 'NONE', #254, .T. ) ;
#244 = DIRECTION ( 'NONE',  ( -0.000000000000000000, -0.000000000000000000, 1.000000000000000000 ) ) ;
#245 = PRESENTATION_STYLE_ASSIGNMENT (( #185 ) ) ;
#246 = EDGE_CURVE ( 'NONE', #108, #212, #209, .T. ) ;
#247 = CARTESIAN_POINT ( 'NONE',  ( 12.69999999999999929, 1.555301434917138433E-15, 10.00000000000000000 ) ) ;
#248 = CARTESIAN_POINT ( 'NONE',  ( 12.52123640383887881, 1.533409208332859768E-15, 5.978763596161118521 ) ) ;
#249 = DIRECTION ( 'NONE',  ( -0.000000000000000000, -0.000000000000000000, -1.000000000000000000 ) ) ;
#250 = ADVANCED_FACE ( 'NONE', ( #19 ), #174, .T. ) ;
#251 = VECTOR ( 'NONE', #158, 1000.000000000000000 ) ;
#252 = CIRCLE ( 'NONE', #163, 12.51034897911231170 ) ;
#253 = ORIENTED_EDGE ( 'NONE', *, *, #67, .F. ) ;
#254 = EDGE_LOOP ( 'NONE', ( #128, #106, #260, #54 ) ) ;
#255 = SPHERICAL_SURFACE ( 'NONE', #329, 106.9000000000000057 ) ;
#256 = EDGE_CURVE ( 'NONE', #76, #82, #301, .T. ) ;
#257 = DIRECTION ( 'NONE',  ( -0.000000000000000000, -0.000000000000000000, -1.000000000000000000 ) ) ;
#258 = VERTEX_POINT ( 'NONE', #70 ) ;
#259 = ORIENTED_EDGE ( 'NONE', *, *, #129, .F. ) ;
#260 = ORIENTED_EDGE ( 'NONE', *, *, #183, .T. ) ;
#261 = VECTOR ( 'NONE', #130, 1000.000000000000114 ) ;
#262 = DIRECTION ( 'NONE',  ( 1.000000000000000000, 0.000000000000000000, 0.000000000000000000 ) ) ;
#263 = ORIENTED_EDGE ( 'NONE', *, *, #256, .T. ) ;
#264 = DIRECTION ( 'NONE',  ( -1.000000000000000000, 0.000000000000000000, 0.000000000000000000 ) ) ;
#265 = DIRECTION ( 'NONE',  ( 1.000000000000000000, 0.000000000000000000, 0.000000000000000000 ) ) ;
#266 = DIRECTION ( 'NONE',  ( 0.000000000000000000, 0.000000000000000000, -1.000000000000000000 ) ) ;
#267 = CIRCLE ( 'NONE', #193, 12.51034897911231170 ) ;
#268 = AXIS2_PLACEMENT_3D ( 'NONE', #66, #28, #190 ) ;
#269 = VECTOR ( 'NONE', #12, 1000.000000000000000 ) ;
#270 = DIRECTION ( 'NONE',  ( 1.000000000000000000, -0.000000000000000000, 0.000000000000000000 ) ) ;
#271 = DIRECTION ( 'NONE',  ( -0.000000000000000000, -0.000000000000000000, 1.000000000000000000 ) ) ;
#272 = DIRECTION ( 'NONE',  ( 0.000000000000000000, 0.000000000000000000, -1.000000000000000000 ) ) ;
#273 = AXIS2_PLACEMENT_3D ( 'NONE', #110, #140, #240 ) ;
#274 = STYLED_ITEM ( 'NONE', ( #81 ), #241 ) ;
#275 = DIRECTION ( 'NONE',  ( -1.000000000000000000, 1.224646799147353207E-16, 0.000000000000000000 ) ) ;
#276 = DIRECTION ( 'NONE',  ( -1.000000000000000000, 0.000000000000000000, 0.000000000000000000 ) ) ;
#277 = EDGE_CURVE ( 'NONE', #82, #258, #121, .T. ) ;
#278 = DIRECTION ( 'NONE',  ( 1.000000000000000000, 0.000000000000000000, 0.000000000000000000 ) ) ;
#279 = CIRCLE ( 'NONE', #325, 12.52123640383887704 ) ;
#280 = CIRCLE ( 'NONE', #55, 12.69999999999999929 ) ;
#281 = ORIENTED_EDGE ( 'NONE', *, *, #139, .F. ) ;
#282 = EDGE_CURVE ( 'NONE', #188, #47, #252, .T. ) ;
#283 = ORIENTED_EDGE ( 'NONE', *, *, #218, .F. ) ;
#284 = ORIENTED_EDGE ( 'NONE', *, *, #72, .F. ) ;
#285 = CARTESIAN_POINT ( 'NONE',  ( 0.000000000000000000, 12.52123640383880421, 5.978763596161098093 ) ) ;
#286 = CONICAL_SURFACE ( 'NONE', #10, 12.69999999999999929, 0.4672503280471582698 ) ;
#287 = ORIENTED_EDGE ( 'NONE', *, *, #282, .T. ) ;
#288 = CIRCLE ( 'NONE', #233, 12.51034897911231170 ) ;
#289 = CARTESIAN_POINT ( 'NONE',  ( 0.000000000000000000, 0.000000000000000000, 5.799999999999999822 ) ) ;
#290 = EDGE_CURVE ( 'NONE', #213, #47, #187, .T. ) ;
#291 = CARTESIAN_POINT ( 'NONE',  ( 0.000000000000000000, 0.000000000000000000, 42.56254659640620730 ) ) ;
#292 =( NAMED_UNIT ( * ) PLANE_ANGLE_UNIT ( ) SI_UNIT ( $, .RADIAN. ) );
#293 =( LENGTH_UNIT ( ) NAMED_UNIT ( * ) SI_UNIT ( .MILLI., .METRE. ) );
#294 = CARTESIAN_POINT ( 'NONE',  ( 0.000000000000000000, 0.000000000000000000, 5.978763596161104310 ) ) ;
#295 = PRESENTATION_LAYER_ASSIGNMENT (  '', '', ( #274 ) ) ;
#296 = DIRECTION ( 'NONE',  ( 1.000000000000000000, 0.000000000000000000, 0.000000000000000000 ) ) ;
#297 = DIRECTION ( 'NONE',  ( 1.000000000000000000, 0.000000000000000000, 0.000000000000000000 ) ) ;
#298 = CARTESIAN_POINT ( 'NONE',  ( 0.000000000000000000, 0.000000000000000000, 3.938057364562333351 ) ) ;
#299 = CONICAL_SURFACE ( 'NONE', #273, 12.52123640383887881, 0.7853981633974531640 ) ;
#300 = CONICAL_SURFACE ( 'NONE', #144, 12.69999999999999929, 0.4672503280471582698 ) ;
#301 = LINE ( 'NONE', #248, #168 ) ;
#302 = CARTESIAN_POINT ( 'NONE',  ( -12.69999999999999929, 0.000000000000000000, 4.313967534857077624 ) ) ;
#303 = DIRECTION ( 'NONE',  ( 0.000000000000000000, 0.000000000000000000, -1.000000000000000000 ) ) ;
#304 = UNCERTAINTY_MEASURE_WITH_UNIT (LENGTH_MEASURE( 1.000000000000000082E-05 ), #211, 'distance_accuracy_value', 'NONE');
#305 = EDGE_CURVE ( 'NONE', #82, #137, #280, .T. ) ;
#306 = AXIS2_PLACEMENT_3D ( 'NONE', #92, #148, #297 ) ;
#307 = CARTESIAN_POINT ( 'NONE',  ( -12.69999999999999929, 1.555301434917138433E-15, 4.313967534857077624 ) ) ;
#308 = APPLICATION_CONTEXT ( 'automotive_design' ) ;
#309 = ORIENTED_EDGE ( 'NONE', *, *, #277, .F. ) ;
#310 = CARTESIAN_POINT ( 'NONE',  ( 12.52123640383887704, 1.544355321624999001E-15, 5.978763596161104310 ) ) ;
#311 = ORIENTED_EDGE ( 'NONE', *, *, #88, .F. ) ;
#312 = AXIS2_PLACEMENT_3D ( 'NONE', #68, #98, #229 ) ;
#313 = ORIENTED_EDGE ( 'NONE', *, *, #237, .T. ) ;
#314 = APPLICATION_PROTOCOL_DEFINITION ( 'draft international standard', 'automotive_design', 1998, #308 ) ;
#315 = ORIENTED_EDGE ( 'NONE', *, *, #317, .T. ) ;
#316 = SURFACE_SIDE_STYLE ('',( #35 ) ) ;
#317 = EDGE_CURVE ( 'NONE', #83, #258, #157, .T. ) ;
#318 = ORIENTED_EDGE ( 'NONE', *, *, #317, .F. ) ;
#319 = VECTOR ( 'NONE', #154, 1000.000000000000114 ) ;
#320 = DIRECTION ( 'NONE',  ( -1.000000000000000000, 0.000000000000000000, 0.000000000000000000 ) ) ;
#321 = SURFACE_STYLE_USAGE ( .BOTH. , #31 ) ;
#322 = DIRECTION ( 'NONE',  ( -0.000000000000000000, -0.000000000000000000, 1.000000000000000000 ) ) ;
#323 = SURFACE_STYLE_FILL_AREA ( #56 ) ;
#324 = DIRECTION ( 'NONE',  ( 1.000000000000000000, 0.000000000000000000, 0.000000000000000000 ) ) ;
#325 = AXIS2_PLACEMENT_3D ( 'NONE', #189, #244, #265 ) ;
#326 = DIRECTION ( 'NONE',  ( 1.000000000000000000, 0.000000000000000000, 0.000000000000000000 ) ) ;
#327 = DIRECTION ( 'NONE',  ( 0.000000000000000000, 1.000000000000000000, 0.000000000000000000 ) ) ;
#328 = CARTESIAN_POINT ( 'NONE',  ( 0.000000000000000000, 0.000000000000000000, 4.313967534857077624 ) ) ;
#329 = AXIS2_PLACEMENT_3D ( 'NONE', #132, #23, #4 ) ;
#330 = ORIENTED_EDGE ( 'NONE', *, *, #7, .F. ) ;
#331 = CYLINDRICAL_SURFACE ( 'NONE', #64, 12.69999999999999929 ) ;
#332 = FACE_OUTER_BOUND ( 'NONE', #22, .T. ) ;
ENDSEC;
END-ISO-10303-21;
