ISO-10303-21;
HEADER;
FILE_DESCRIPTION (( 'STEP AP214' ),
    '1' );
FILE_NAME ('GLM2-025B-100.STEP',
    '2024-08-09T02:41:46',
    ( 'Windows User' ),
    ( 'P R C' ),
    'SwSTEP 2.0',
    'SolidWorks 2022',
    '' );
FILE_SCHEMA (( 'AUTOMOTIVE_DESIGN' ));
ENDSEC;

DATA;
#1 = VERTEX_POINT ( 'NONE', #261 ) ;
#2 = DIRECTION ( 'NONE',  ( 0.000000000000000000, -1.000000000000000000, -2.390366994456233028E-15 ) ) ;
#3 = VERTEX_POINT ( 'NONE', #49 ) ;
#4 = CYLINDRICAL_SURFACE ( 'NONE', #221, 12.69999999999999929 ) ;
#5 = ORIENTED_EDGE ( 'NONE', *, *, #38, .F. ) ;
#6 = CARTESIAN_POINT ( 'NONE',  ( 0.000000000000000000, 7.571488035583153132E-14, 1.279144258622820551 ) ) ;
#7 = PRODUCT_DEFINITION ( 'Î´Öª', '', #177, #63 ) ;
#8 = DIRECTION ( 'NONE',  ( -0.000000000000000000, -0.000000000000000000, 1.000000000000000000 ) ) ;
#9 = AXIS2_PLACEMENT_3D ( 'NONE', #273, #35, #83 ) ;
#10 = DIRECTION ( 'NONE',  ( 1.224646799147353454E-16, 1.000000000000000000, 0.000000000000000000 ) ) ;
#11 = EDGE_CURVE ( 'NONE', #52, #234, #248, .T. ) ;
#12 = DIRECTION ( 'NONE',  ( -0.000000000000000000, -0.000000000000000000, 1.000000000000000000 ) ) ;
#13 = UNCERTAINTY_MEASURE_WITH_UNIT (LENGTH_MEASURE( 1.000000000000000082E-05 ), #107, 'distance_accuracy_value', 'NONE');
#14 = DIRECTION ( 'NONE',  ( 0.000000000000000000, -1.000000000000000000, -2.435500766974128453E-15 ) ) ;
#15 = MECHANICAL_DESIGN_GEOMETRIC_PRESENTATION_REPRESENTATION (  '', ( #91 ), #55 ) ;
#16 = CIRCLE ( 'NONE', #178, 12.69999999999998508 ) ;
#17 = CIRCLE ( 'NONE', #258, 31.00000000000000000 ) ;
#18 = ADVANCED_BREP_SHAPE_REPRESENTATION ( 'GLM2-025B-100', ( #243, #150 ), #22 ) ;
#19 = EDGE_LOOP ( 'NONE', ( #200, #70, #155, #89 ) ) ;
#20 = VERTEX_POINT ( 'NONE', #48 ) ;
#21 = CARTESIAN_POINT ( 'NONE',  ( 0.000000000000000000, 1.428709893235229326E-14, 3.999999999999969802 ) ) ;
#22 =( GEOMETRIC_REPRESENTATION_CONTEXT ( 3 ) GLOBAL_UNCERTAINTY_ASSIGNED_CONTEXT ( ( #37 ) ) GLOBAL_UNIT_ASSIGNED_CONTEXT ( ( #84, #69, #242 ) ) REPRESENTATION_CONTEXT ( 'NONE', 'WORKASPACE' ) );
#23 = ORIENTED_EDGE ( 'NONE', *, *, #181, .F. ) ;
#24 = CIRCLE ( 'NONE', #255, 12.69999999999998508 ) ;
#25 = EDGE_CURVE ( 'NONE', #1, #276, #24, .T. ) ;
#26 =( NAMED_UNIT ( * ) PLANE_ANGLE_UNIT ( ) SI_UNIT ( $, .RADIAN. ) );
#27 = CARTESIAN_POINT ( 'NONE',  ( 0.000000000000000000, 0.000000000000000000, 10.00000000000000000 ) ) ;
#28 = EDGE_CURVE ( 'NONE', #88, #1, #72, .T. ) ;
#29 = FACE_OUTER_BOUND ( 'NONE', #133, .T. ) ;
#30 = FACE_OUTER_BOUND ( 'NONE', #241, .T. ) ;
#31 = DIRECTION ( 'NONE',  ( 1.000000000000000000, -0.000000000000000000, 0.000000000000000000 ) ) ;
#32 = CARTESIAN_POINT ( 'NONE',  ( 0.000000000000000000, 0.000000000000000000, 6.175487722036146820 ) ) ;
#33 = APPLICATION_PROTOCOL_DEFINITION ( 'draft international standard', 'automotive_design', 1998, #192 ) ;
#34 = CARTESIAN_POINT ( 'NONE',  ( 0.000000000000000000, 2.115099158431787833E-13, 5.311110427375670184 ) ) ;
#35 = DIRECTION ( 'NONE',  ( -0.000000000000000000, -0.000000000000000000, -1.000000000000000000 ) ) ;
#36 = CARTESIAN_POINT ( 'NONE',  ( 0.000000000000000000, 0.000000000000000000, 0.000000000000000000 ) ) ;
#37 = UNCERTAINTY_MEASURE_WITH_UNIT (LENGTH_MEASURE( 1.000000000000000082E-05 ), #84, 'distance_accuracy_value', 'NONE');
#38 = EDGE_CURVE ( 'NONE', #20, #88, #225, .T. ) ;
#39 = ORIENTED_EDGE ( 'NONE', *, *, #257, .F. ) ;
#40 = SURFACE_STYLE_USAGE ( .BOTH. , #235 ) ;
#41 = CIRCLE ( 'NONE', #203, 12.69999999999998508 ) ;
#42 = CARTESIAN_POINT ( 'NONE',  ( -1.555301434917136658E-15, -12.69999999999991580, 3.999999999999936939 ) ) ;
#43 = ORIENTED_EDGE ( 'NONE', *, *, #230, .T. ) ;
#44 = CARTESIAN_POINT ( 'NONE',  ( 12.69999999999999929, 1.555301434917138433E-15, 10.00000000000000000 ) ) ;
#45 = ORIENTED_EDGE ( 'NONE', *, *, #175, .T. ) ;
#46 = DIRECTION ( 'NONE',  ( 0.000000000000000000, 0.000000000000000000, -1.000000000000000000 ) ) ;
#47 = VERTEX_POINT ( 'NONE', #6 ) ;
#48 = CARTESIAN_POINT ( 'NONE',  ( -12.52451227796384359, 0.000000000000000000, 6.175487722036146820 ) ) ;
#49 = CARTESIAN_POINT ( 'NONE',  ( 0.000000000000000000, 12.69999999999999751, 3.999999999999998224 ) ) ;
#50 = EDGE_CURVE ( 'NONE', #112, #88, #147, .T. ) ;
#51 = ORIENTED_EDGE ( 'NONE', *, *, #254, .T. ) ;
#52 = VERTEX_POINT ( 'NONE', #110 ) ;
#53 = DIRECTION ( 'NONE',  ( -1.224646799147353207E-16, -1.000000000000000000, 0.000000000000000000 ) ) ;
#54 = CARTESIAN_POINT ( 'NONE',  ( 0.000000000000000000, 0.000000000000000000, 6.000000000000005329 ) ) ;
#55 =( GEOMETRIC_REPRESENTATION_CONTEXT ( 3 ) GLOBAL_UNCERTAINTY_ASSIGNED_CONTEXT ( ( #168 ) ) GLOBAL_UNIT_ASSIGNED_CONTEXT ( ( #267, #26, #94 ) ) REPRESENTATION_CONTEXT ( 'NONE', 'WORKASPACE' ) );
#56 = CARTESIAN_POINT ( 'NONE',  ( 0.000000000000000000, 0.000000000000000000, 32.27914425862282144 ) ) ;
#57 = AXIS2_PLACEMENT_3D ( 'NONE', #114, #8, #93 ) ;
#58 = CARTESIAN_POINT ( 'NONE',  ( 0.000000000000000000, 0.000000000000000000, 32.27914425862282144 ) ) ;
#59 = ADVANCED_FACE ( 'NONE', ( #30 ), #176, .T. ) ;
#60 = DIRECTION ( 'NONE',  ( -1.000000000000000000, 0.000000000000000000, -0.000000000000000000 ) ) ;
#61 = PRODUCT_CONTEXT ( 'NONE', #192, 'mechanical' ) ;
#62 = APPLICATION_CONTEXT ( 'automotive_design' ) ;
#63 = PRODUCT_DEFINITION_CONTEXT ( 'detailed design', #62, 'design' ) ;
#64 = CARTESIAN_POINT ( 'NONE',  ( 0.000000000000000000, 1.428709893235229326E-14, 3.999999999999969802 ) ) ;
#65 = DIRECTION ( 'NONE',  ( 0.000000000000000000, -1.000000000000000000, -2.390366994456233028E-15 ) ) ;
#66 = AXIS2_PLACEMENT_3D ( 'NONE', #205, #164, #53 ) ;
#67 = ORIENTED_EDGE ( 'NONE', *, *, #11, .F. ) ;
#68 = CARTESIAN_POINT ( 'NONE',  ( 0.000000000000000000, 0.000000000000000000, 6.000000000000005329 ) ) ;
#69 =( NAMED_UNIT ( * ) PLANE_ANGLE_UNIT ( ) SI_UNIT ( $, .RADIAN. ) );
#70 = ORIENTED_EDGE ( 'NONE', *, *, #149, .T. ) ;
#71 = ORIENTED_EDGE ( 'NONE', *, *, #282, .F. ) ;
#72 = LINE ( 'NONE', #87, #75 ) ;
#73 = STYLED_ITEM ( 'NONE', ( #105 ), #243 ) ;
#74 = DIRECTION ( 'NONE',  ( -1.000000000000000000, 0.000000000000000000, 0.000000000000000000 ) ) ;
#75 = VECTOR ( 'NONE', #247, 1000.000000000000000 ) ;
#76 = CARTESIAN_POINT ( 'NONE',  ( -12.52451227796384359, 0.000000000000000000, 6.175487722036146820 ) ) ;
#77 = LINE ( 'NONE', #144, #179 ) ;
#78 = CARTESIAN_POINT ( 'NONE',  ( 1.533810387208990295E-15, 12.52451227796385957, 6.175487722036146820 ) ) ;
#79 = ADVANCED_FACE ( 'NONE', ( #29 ), #4, .T. ) ;
#80 = DIRECTION ( 'NONE',  ( 1.000000000000000000, 0.000000000000000000, 0.000000000000000000 ) ) ;
#81 = AXIS2_PLACEMENT_3D ( 'NONE', #204, #182, #10 ) ;
#82 = ADVANCED_FACE ( 'NONE', ( #220 ), #202, .F. ) ;
#83 = DIRECTION ( 'NONE',  ( -1.000000000000000000, 0.000000000000000000, 0.000000000000000000 ) ) ;
#84 =( LENGTH_UNIT ( ) NAMED_UNIT ( * ) SI_UNIT ( .MILLI., .METRE. ) );
#85 = EDGE_CURVE ( 'NONE', #20, #52, #160, .T. ) ;
#86 = ORIENTED_EDGE ( 'NONE', *, *, #50, .F. ) ;
#87 = CARTESIAN_POINT ( 'NONE',  ( -12.69999999999999929, 0.000000000000000000, 10.00000000000000000 ) ) ;
#88 = VERTEX_POINT ( 'NONE', #180 ) ;
#89 = ORIENTED_EDGE ( 'NONE', *, *, #162, .T. ) ;
#90 = CARTESIAN_POINT ( 'NONE',  ( 0.000000000000000000, 0.000000000000000000, 96.48111042737566834 ) ) ;
#91 = STYLED_ITEM ( 'NONE', ( #210 ), #18 ) ;
#92 = CIRCLE ( 'NONE', #116, 91.17000000000000171 ) ;
#93 = DIRECTION ( 'NONE',  ( 1.000000000000000000, 0.000000000000000000, 0.000000000000000000 ) ) ;
#94 =( NAMED_UNIT ( * ) SI_UNIT ( $, .STERADIAN. ) SOLID_ANGLE_UNIT ( ) );
#95 = DIRECTION ( 'NONE',  ( 1.000000000000000000, 0.000000000000000000, 0.000000000000000000 ) ) ;
#96 = DIRECTION ( 'NONE',  ( -1.000000000000000000, 0.000000000000000000, 0.000000000000000000 ) ) ;
#97 = DIRECTION ( 'NONE',  ( 0.000000000000000000, 0.000000000000000000, -1.000000000000000000 ) ) ;
#98 = PRESENTATION_LAYER_ASSIGNMENT (  '', '', ( #73 ) ) ;
#99 = FACE_OUTER_BOUND ( 'NONE', #193, .T. ) ;
#100 = EDGE_CURVE ( 'NONE', #276, #108, #41, .T. ) ;
#101 = SURFACE_STYLE_FILL_AREA ( #231 ) ;
#102 = AXIS2_PLACEMENT_3D ( 'NONE', #188, #270, #206 ) ;
#103 = ORIENTED_EDGE ( 'NONE', *, *, #100, .F. ) ;
#104 = PRESENTATION_LAYER_ASSIGNMENT (  '', '', ( #91 ) ) ;
#105 = PRESENTATION_STYLE_ASSIGNMENT (( #259 ) ) ;
#106 = EDGE_CURVE ( 'NONE', #216, #215, #211, .T. ) ;
#107 =( LENGTH_UNIT ( ) NAMED_UNIT ( * ) SI_UNIT ( .MILLI., .METRE. ) );
#108 = VERTEX_POINT ( 'NONE', #269 ) ;
#109 = ORIENTED_EDGE ( 'NONE', *, *, #149, .F. ) ;
#110 = CARTESIAN_POINT ( 'NONE',  ( 0.000000000000000000, -12.52451227796385957, 6.175487722036146820 ) ) ;
#111 = DIRECTION ( 'NONE',  ( -0.000000000000000000, -2.381183155392036649E-15, 1.000000000000000000 ) ) ;
#112 = VERTEX_POINT ( 'NONE', #163 ) ;
#113 = CLOSED_SHELL ( 'NONE', ( #238, #228, #157, #79, #136, #59, #82, #278 ) ) ;
#114 = CARTESIAN_POINT ( 'NONE',  ( 0.000000000000000000, 0.000000000000000000, 6.175487722036146820 ) ) ;
#115 = DIRECTION ( 'NONE',  ( -0.000000000000000000, -0.000000000000000000, -1.000000000000000000 ) ) ;
#116 = AXIS2_PLACEMENT_3D ( 'NONE', #118, #60, #183 ) ;
#117 = DIRECTION ( 'NONE',  ( -0.000000000000000000, -0.000000000000000000, 1.000000000000000000 ) ) ;
#118 = CARTESIAN_POINT ( 'NONE',  ( 0.000000000000000000, 0.000000000000000000, 96.48111042737566834 ) ) ;
#119 = CIRCLE ( 'NONE', #140, 12.69999999999998508 ) ;
#120 = CARTESIAN_POINT ( 'NONE',  ( 0.000000000000000000, 0.000000000000000000, 96.48111042737566834 ) ) ;
#121 = VECTOR ( 'NONE', #171, 1000.000000000000114 ) ;
#122 = DIRECTION ( 'NONE',  ( 0.000000000000000000, 0.000000000000000000, -1.000000000000000000 ) ) ;
#123 = VECTOR ( 'NONE', #195, 1000.000000000000000 ) ;
#124 = FILL_AREA_STYLE_COLOUR ( '', #237 ) ;
#125 = DIRECTION ( 'NONE',  ( -1.000000000000000000, 0.000000000000000000, 0.000000000000000000 ) ) ;
#126 = ORIENTED_EDGE ( 'NONE', *, *, #50, .T. ) ;
#127 = ORIENTED_EDGE ( 'NONE', *, *, #209, .T. ) ;
#128 = ORIENTED_EDGE ( 'NONE', *, *, #25, .F. ) ;
#129 = FACE_OUTER_BOUND ( 'NONE', #239, .T. ) ;
#130 = ORIENTED_EDGE ( 'NONE', *, *, #282, .T. ) ;
#131 = DIRECTION ( 'NONE',  ( 1.000000000000000000, 0.000000000000000000, 0.000000000000000000 ) ) ;
#132 = AXIS2_PLACEMENT_3D ( 'NONE', #90, #95, #265 ) ;
#133 = EDGE_LOOP ( 'NONE', ( #43, #130, #173, #51, #219 ) ) ;
#134 = CARTESIAN_POINT ( 'NONE',  ( 0.000000000000000000, 0.000000000000000000, 6.175487722036146820 ) ) ;
#135 = AXIS2_PLACEMENT_3D ( 'NONE', #120, #165, #14 ) ;
#136 = ADVANCED_FACE ( 'NONE', ( #137 ), #138, .T. ) ;
#137 = FACE_OUTER_BOUND ( 'NONE', #190, .T. ) ;
#138 = CYLINDRICAL_SURFACE ( 'NONE', #9, 12.69999999999999929 ) ;
#139 = DIRECTION ( 'NONE',  ( 1.000000000000000000, 0.000000000000000000, 0.000000000000000000 ) ) ;
#140 = AXIS2_PLACEMENT_3D ( 'NONE', #21, #256, #172 ) ;
#141 = CIRCLE ( 'NONE', #166, 12.69999999999999929 ) ;
#142 = DIRECTION ( 'NONE',  ( 1.000000000000000000, 0.000000000000000000, 0.000000000000000000 ) ) ;
#143 = FILL_AREA_STYLE_COLOUR ( '', #159 ) ;
#144 = CARTESIAN_POINT ( 'NONE',  ( 12.52451227796384359, 1.533810387209014553E-15, 6.175487722036146820 ) ) ;
#145 = APPLICATION_PROTOCOL_DEFINITION ( 'draft international standard', 'automotive_design', 1998, #62 ) ;
#146 = EDGE_LOOP ( 'NONE', ( #109, #153, #156, #263 ) ) ;
#147 = CIRCLE ( 'NONE', #281, 12.69999999999999929 ) ;
#148 = PRODUCT_DEFINITION_SHAPE ( 'NONE', 'NONE',  #7 ) ;
#149 = EDGE_CURVE ( 'NONE', #216, #52, #92, .T. ) ;
#150 = AXIS2_PLACEMENT_3D ( 'NONE', #36, #186, #80 ) ;
#151 = AXIS2_PLACEMENT_3D ( 'NONE', #185, #12, #142 ) ;
#152 = CARTESIAN_POINT ( 'NONE',  ( 0.000000000000000000, 0.000000000000000000, 6.175487722036146820 ) ) ;
#153 = ORIENTED_EDGE ( 'NONE', *, *, #106, .T. ) ;
#154 = CARTESIAN_POINT ( 'NONE',  ( 0.000000000000000000, 1.428709893235229326E-14, 3.999999999999969802 ) ) ;
#155 = ORIENTED_EDGE ( 'NONE', *, *, #11, .T. ) ;
#156 = ORIENTED_EDGE ( 'NONE', *, *, #181, .T. ) ;
#157 = ADVANCED_FACE ( 'NONE', ( #99 ), #275, .T. ) ;
#158 = CARTESIAN_POINT ( 'NONE',  ( 0.000000000000000000, 0.000000000000000000, 32.27914425862282144 ) ) ;
#159 = COLOUR_RGB ( '',1.000000000000000000, 1.000000000000000000, 1.000000000000000000 ) ;
#160 = CIRCLE ( 'NONE', #57, 12.52451227796384359 ) ;
#161 = DIRECTION ( 'NONE',  ( 0.000000000000000000, 1.000000000000000000, 2.462188159450951840E-15 ) ) ;
#162 = EDGE_CURVE ( 'NONE', #234, #215, #266, .T. ) ;
#163 = CARTESIAN_POINT ( 'NONE',  ( 12.69999999999999929, 1.555301434917138433E-15, 6.000000000000005329 ) ) ;
#164 = DIRECTION ( 'NONE',  ( -1.000000000000000000, 1.224646799147353207E-16, 2.916108329434452248E-31 ) ) ;
#165 = DIRECTION ( 'NONE',  ( 1.000000000000000000, 0.000000000000000000, 0.000000000000000000 ) ) ;
#166 = AXIS2_PLACEMENT_3D ( 'NONE', #54, #122, #139 ) ;
#167 = SURFACE_STYLE_FILL_AREA ( #277 ) ;
#168 = UNCERTAINTY_MEASURE_WITH_UNIT (LENGTH_MEASURE( 1.000000000000000082E-05 ), #267, 'distance_accuracy_value', 'NONE');
#169 = AXIS2_PLACEMENT_3D ( 'NONE', #152, #262, #125 ) ;
#170 = ORIENTED_EDGE ( 'NONE', *, *, #162, .F. ) ;
#171 = DIRECTION ( 'NONE',  ( -0.7071067811865789920, 0.000000000000000000, -0.7071067811865160424 ) ) ;
#172 = DIRECTION ( 'NONE',  ( 0.000000000000000000, -1.000000000000000000, -2.390366994456233028E-15 ) ) ;
#173 = ORIENTED_EDGE ( 'NONE', *, *, #257, .T. ) ;
#174 = ORIENTED_EDGE ( 'NONE', *, *, #100, .T. ) ;
#175 = EDGE_CURVE ( 'NONE', #234, #112, #77, .T. ) ;
#176 = SPHERICAL_SURFACE ( 'NONE', #232, 31.00000000000000000 ) ;
#177 = PRODUCT_DEFINITION_FORMATION_WITH_SPECIFIED_SOURCE ( 'ÈÎºÎ', '', #191, .NOT_KNOWN. ) ;
#178 = AXIS2_PLACEMENT_3D ( 'NONE', #64, #111, #65 ) ;
#179 = VECTOR ( 'NONE', #226, 1000.000000000000114 ) ;
#180 = CARTESIAN_POINT ( 'NONE',  ( -12.69999999999999929, 0.000000000000000000, 6.000000000000005329 ) ) ;
#181 = EDGE_CURVE ( 'NONE', #215, #20, #274, .T. ) ;
#182 = DIRECTION ( 'NONE',  ( 1.000000000000000000, -1.224646799147353207E-16, -2.916108329434452248E-31 ) ) ;
#183 = DIRECTION ( 'NONE',  ( 0.000000000000000000, 0.000000000000000000, 1.000000000000000000 ) ) ;
#184 = FACE_OUTER_BOUND ( 'NONE', #146, .T. ) ;
#185 = CARTESIAN_POINT ( 'NONE',  ( 0.000000000000000000, 0.000000000000000000, 6.175487722036146820 ) ) ;
#186 = DIRECTION ( 'NONE',  ( 0.000000000000000000, 0.000000000000000000, 1.000000000000000000 ) ) ;
#187 = CIRCLE ( 'NONE', #66, 31.00000000000000000 ) ;
#188 = CARTESIAN_POINT ( 'NONE',  ( 0.000000000000000000, 0.000000000000000000, 6.175487722036146820 ) ) ;
#189 = EDGE_CURVE ( 'NONE', #47, #276, #187, .T. ) ;
#190 = EDGE_LOOP ( 'NONE', ( #71, #126, #264, #240, #174 ) ) ;
#191 = PRODUCT ( 'GLM2-025B-100', 'GLM2-025B-100', '', ( #61 ) ) ;
#192 = APPLICATION_CONTEXT ( 'automotive_design' ) ;
#193 = EDGE_LOOP ( 'NONE', ( #213, #244, #128, #196 ) ) ;
#194 =( NAMED_UNIT ( * ) SI_UNIT ( $, .STERADIAN. ) SOLID_ANGLE_UNIT ( ) );
#195 = DIRECTION ( 'NONE',  ( -0.000000000000000000, -0.000000000000000000, -1.000000000000000000 ) ) ;
#196 = ORIENTED_EDGE ( 'NONE', *, *, #254, .F. ) ;
#197 = ORIENTED_EDGE ( 'NONE', *, *, #189, .F. ) ;
#198 = EDGE_LOOP ( 'NONE', ( #170, #45, #250, #5, #23 ) ) ;
#199 = DIRECTION ( 'NONE',  ( -1.000000000000000000, 0.000000000000000000, 0.000000000000000000 ) ) ;
#200 = ORIENTED_EDGE ( 'NONE', *, *, #106, .F. ) ;
#201 = ORIENTED_EDGE ( 'NONE', *, *, #85, .F. ) ;
#202 = SPHERICAL_SURFACE ( 'NONE', #132, 91.17000000000000171 ) ;
#203 = AXIS2_PLACEMENT_3D ( 'NONE', #268, #249, #223 ) ;
#204 = CARTESIAN_POINT ( 'NONE',  ( 0.000000000000000000, 0.000000000000000000, 96.48111042737566834 ) ) ;
#205 = CARTESIAN_POINT ( 'NONE',  ( 0.000000000000000000, 0.000000000000000000, 32.27914425862282144 ) ) ;
#206 = DIRECTION ( 'NONE',  ( 1.000000000000000000, 0.000000000000000000, 0.000000000000000000 ) ) ;
#207 = SPHERICAL_SURFACE ( 'NONE', #135, 91.17000000000000171 ) ;
#208 = FACE_OUTER_BOUND ( 'NONE', #198, .T. ) ;
#209 = EDGE_CURVE ( 'NONE', #47, #3, #17, .T. ) ;
#210 = PRESENTATION_STYLE_ASSIGNMENT (( #40 ) ) ;
#211 = CIRCLE ( 'NONE', #81, 91.17000000000000171 ) ;
#212 = AXIS2_PLACEMENT_3D ( 'NONE', #32, #252, #272 ) ;
#213 = ORIENTED_EDGE ( 'NONE', *, *, #209, .F. ) ;
#214 =( NAMED_UNIT ( * ) PLANE_ANGLE_UNIT ( ) SI_UNIT ( $, .RADIAN. ) );
#215 = VERTEX_POINT ( 'NONE', #78 ) ;
#216 = VERTEX_POINT ( 'NONE', #34 ) ;
#217 = LINE ( 'NONE', #44, #123 ) ;
#218 =( GEOMETRIC_REPRESENTATION_CONTEXT ( 3 ) GLOBAL_UNCERTAINTY_ASSIGNED_CONTEXT ( ( #13 ) ) GLOBAL_UNIT_ASSIGNED_CONTEXT ( ( #107, #214, #194 ) ) REPRESENTATION_CONTEXT ( 'NONE', 'WORKASPACE' ) );
#219 = ORIENTED_EDGE ( 'NONE', *, *, #28, .F. ) ;
#220 = FACE_OUTER_BOUND ( 'NONE', #19, .T. ) ;
#221 = AXIS2_PLACEMENT_3D ( 'NONE', #27, #115, #74 ) ;
#222 = DIRECTION ( 'NONE',  ( 1.000000000000000000, 0.000000000000000000, 0.000000000000000000 ) ) ;
#223 = DIRECTION ( 'NONE',  ( 0.000000000000000000, -1.000000000000000000, -2.390366994456233028E-15 ) ) ;
#224 = AXIS2_PLACEMENT_3D ( 'NONE', #56, #96, #253 ) ;
#225 = LINE ( 'NONE', #76, #121 ) ;
#226 = DIRECTION ( 'NONE',  ( 0.7071067811865789920, 8.659560562355319893E-17, -0.7071067811865160424 ) ) ;
#227 = CARTESIAN_POINT ( 'NONE',  ( 12.52451227796384359, 1.544555911063076789E-15, 6.175487722036146820 ) ) ;
#228 = ADVANCED_FACE ( 'NONE', ( #184 ), #207, .F. ) ;
#229 = MECHANICAL_DESIGN_GEOMETRIC_PRESENTATION_REPRESENTATION (  '', ( #73 ), #218 ) ;
#230 = EDGE_CURVE ( 'NONE', #88, #112, #141, .T. ) ;
#231 = FILL_AREA_STYLE ('',( #143 ) ) ;
#232 = AXIS2_PLACEMENT_3D ( 'NONE', #158, #199, #161 ) ;
#233 = SHAPE_DEFINITION_REPRESENTATION ( #148, #18 ) ;
#234 = VERTEX_POINT ( 'NONE', #227 ) ;
#235 = SURFACE_SIDE_STYLE ('',( #167 ) ) ;
#236 = SURFACE_SIDE_STYLE ('',( #101 ) ) ;
#237 = COLOUR_RGB ( '',1.000000000000000000, 1.000000000000000000, 1.000000000000000000 ) ;
#238 = ADVANCED_FACE ( 'NONE', ( #208 ), #279, .T. ) ;
#239 = EDGE_LOOP ( 'NONE', ( #280, #67, #201, #260, #86 ) ) ;
#240 = ORIENTED_EDGE ( 'NONE', *, *, #25, .T. ) ;
#241 = EDGE_LOOP ( 'NONE', ( #197, #127, #39, #103 ) ) ;
#242 =( NAMED_UNIT ( * ) SI_UNIT ( $, .STERADIAN. ) SOLID_ANGLE_UNIT ( ) );
#243 = MANIFOLD_SOLID_BREP ( 'µ¹½Ç1', #113 ) ;
#244 = ORIENTED_EDGE ( 'NONE', *, *, #189, .T. ) ;
#245 = PRODUCT_RELATED_PRODUCT_CATEGORY ( 'part', '', ( #191 ) ) ;
#246 = DIRECTION ( 'NONE',  ( -0.000000000000000000, -2.381183155392036649E-15, 1.000000000000000000 ) ) ;
#247 = DIRECTION ( 'NONE',  ( -0.000000000000000000, -0.000000000000000000, -1.000000000000000000 ) ) ;
#248 = CIRCLE ( 'NONE', #271, 12.52451227796384359 ) ;
#249 = DIRECTION ( 'NONE',  ( -0.000000000000000000, -2.381183155392036649E-15, 1.000000000000000000 ) ) ;
#250 = ORIENTED_EDGE ( 'NONE', *, *, #230, .F. ) ;
#251 = CONICAL_SURFACE ( 'NONE', #169, 12.52451227796384359, 0.7853981633974926879 ) ;
#252 = DIRECTION ( 'NONE',  ( 0.000000000000000000, 0.000000000000000000, -1.000000000000000000 ) ) ;
#253 = DIRECTION ( 'NONE',  ( 0.000000000000000000, 1.000000000000000000, 2.462188159450951840E-15 ) ) ;
#254 = EDGE_CURVE ( 'NONE', #3, #1, #119, .T. ) ;
#255 = AXIS2_PLACEMENT_3D ( 'NONE', #154, #246, #2 ) ;
#256 = DIRECTION ( 'NONE',  ( -0.000000000000000000, -2.381183155392036649E-15, 1.000000000000000000 ) ) ;
#257 = EDGE_CURVE ( 'NONE', #108, #3, #16, .T. ) ;
#258 = AXIS2_PLACEMENT_3D ( 'NONE', #58, #31, #97 ) ;
#259 = SURFACE_STYLE_USAGE ( .BOTH. , #236 ) ;
#260 = ORIENTED_EDGE ( 'NONE', *, *, #38, .T. ) ;
#261 = CARTESIAN_POINT ( 'NONE',  ( -12.69999999999998508, -6.162975822039154730E-29, 3.999999999999969802 ) ) ;
#262 = DIRECTION ( 'NONE',  ( 0.000000000000000000, 0.000000000000000000, -1.000000000000000000 ) ) ;
#263 = ORIENTED_EDGE ( 'NONE', *, *, #85, .T. ) ;
#264 = ORIENTED_EDGE ( 'NONE', *, *, #28, .T. ) ;
#265 = DIRECTION ( 'NONE',  ( 0.000000000000000000, -1.000000000000000000, -2.435500766974128453E-15 ) ) ;
#266 = CIRCLE ( 'NONE', #102, 12.52451227796384359 ) ;
#267 =( LENGTH_UNIT ( ) NAMED_UNIT ( * ) SI_UNIT ( .MILLI., .METRE. ) );
#268 = CARTESIAN_POINT ( 'NONE',  ( 0.000000000000000000, 1.428709893235229326E-14, 3.999999999999969802 ) ) ;
#269 = CARTESIAN_POINT ( 'NONE',  ( 12.69999999999998508, 1.555301434917073746E-15, 3.999999999999969802 ) ) ;
#270 = DIRECTION ( 'NONE',  ( -0.000000000000000000, -0.000000000000000000, 1.000000000000000000 ) ) ;
#271 = AXIS2_PLACEMENT_3D ( 'NONE', #134, #117, #222 ) ;
#272 = DIRECTION ( 'NONE',  ( -1.000000000000000000, 0.000000000000000000, 0.000000000000000000 ) ) ;
#273 = CARTESIAN_POINT ( 'NONE',  ( 0.000000000000000000, 0.000000000000000000, 10.00000000000000000 ) ) ;
#274 = CIRCLE ( 'NONE', #151, 12.52451227796384359 ) ;
#275 = SPHERICAL_SURFACE ( 'NONE', #224, 31.00000000000000000 ) ;
#276 = VERTEX_POINT ( 'NONE', #42 ) ;
#277 = FILL_AREA_STYLE ('',( #124 ) ) ;
#278 = ADVANCED_FACE ( 'NONE', ( #129 ), #251, .T. ) ;
#279 = CONICAL_SURFACE ( 'NONE', #212, 12.52451227796384359, 0.7853981633974926879 ) ;
#280 = ORIENTED_EDGE ( 'NONE', *, *, #175, .F. ) ;
#281 = AXIS2_PLACEMENT_3D ( 'NONE', #68, #46, #131 ) ;
#282 = EDGE_CURVE ( 'NONE', #112, #108, #217, .T. ) ;
ENDSEC;
END-ISO-10303-21;
