ISO-10303-21;
HEADER;
FILE_DESCRIPTION (( 'STEP AP214' ),
    '1' );
FILE_NAME ('GLM2-050B-300.STEP',
    '2024-08-09T02:55:57',
    ( 'Windows User' ),
    ( 'P R C' ),
    'SwSTEP 2.0',
    'SolidWorks 2022',
    '' );
FILE_SCHEMA (( 'AUTOMOTIVE_DESIGN' ));
ENDSEC;

DATA;
#1 = FILL_AREA_STYLE ('',( #113 ) ) ;
#2 = DIRECTION ( 'NONE',  ( -1.000000000000000000, 0.000000000000000000, 0.000000000000000000 ) ) ;
#3 = EDGE_CURVE ( 'NONE', #34, #116, #231, .T. ) ;
#4 = CIRCLE ( 'NONE', #102, 25.39999999999999858 ) ;
#5 = CYLINDRICAL_SURFACE ( 'NONE', #277, 25.39999999999999858 ) ;
#6 = CARTESIAN_POINT ( 'NONE',  ( 25.20703431346279899, 0.000000000000000000, 13.94820679539513009 ) ) ;
#7 = DIRECTION ( 'NONE',  ( -1.000000000000000000, 0.000000000000000000, 0.000000000000000000 ) ) ;
#8 = ADVANCED_FACE ( 'NONE', ( #254 ), #230, .T. ) ;
#9 =( NAMED_UNIT ( * ) PLANE_ANGLE_UNIT ( ) SI_UNIT ( $, .RADIAN. ) );
#10 = DIRECTION ( 'NONE',  ( -1.000000000000000000, 0.000000000000000000, 0.000000000000000000 ) ) ;
#11 = COLOUR_RGB ( '',1.000000000000000000, 1.000000000000000000, 1.000000000000000000 ) ;
#12 = AXIS2_PLACEMENT_3D ( 'NONE', #222, #195, #68 ) ;
#13 = CARTESIAN_POINT ( 'NONE',  ( 0.000000000000000000, 0.000000000000000000, 108.2472922687967838 ) ) ;
#14 = ORIENTED_EDGE ( 'NONE', *, *, #77, .F. ) ;
#15 = DIRECTION ( 'NONE',  ( 0.000000000000000000, 1.000000000000000000, 0.000000000000000000 ) ) ;
#16 = EDGE_CURVE ( 'NONE', #22, #176, #115, .T. ) ;
#17 = ORIENTED_EDGE ( 'NONE', *, *, #59, .T. ) ;
#18 = DIRECTION ( 'NONE',  ( -0.000000000000000000, -0.000000000000000000, 1.000000000000000000 ) ) ;
#19 = ORIENTED_EDGE ( 'NONE', *, *, #21, .F. ) ;
#20 = DIRECTION ( 'NONE',  ( 0.7071067811865805464, 8.659560562355338382E-17, -0.7071067811865144881 ) ) ;
#21 = EDGE_CURVE ( 'NONE', #167, #244, #145, .T. ) ;
#22 = VERTEX_POINT ( 'NONE', #109 ) ;
#23 = CLOSED_SHELL ( 'NONE', ( #210, #265, #50, #187, #153, #8, #178, #157, #276, #307 ) ) ;
#24 = DIRECTION ( 'NONE',  ( 0.000000000000000000, 0.000000000000000000, -1.000000000000000000 ) ) ;
#25 = DIRECTION ( 'NONE',  ( 0.000000000000000000, 0.000000000000000000, 1.000000000000000000 ) ) ;
#26 = DIRECTION ( 'NONE',  ( 1.000000000000000000, 0.000000000000000000, 0.000000000000000000 ) ) ;
#27 = DIRECTION ( 'NONE',  ( 1.000000000000000000, 0.000000000000000000, 0.000000000000000000 ) ) ;
#28 = ADVANCED_BREP_SHAPE_REPRESENTATION ( 'GLM2-050B-300', ( #293, #208 ), #119 ) ;
#29 =( LENGTH_UNIT ( ) NAMED_UNIT ( * ) SI_UNIT ( .MILLI., .METRE. ) );
#30 = EDGE_CURVE ( 'NONE', #35, #116, #39, .T. ) ;
#31 = DIRECTION ( 'NONE',  ( 1.000000000000000000, 0.000000000000000000, 0.000000000000000000 ) ) ;
#32 = CARTESIAN_POINT ( 'NONE',  ( 0.000000000000000000, 0.000000000000000000, 13.94820679539513009 ) ) ;
#33 = FACE_OUTER_BOUND ( 'NONE', #38, .T. ) ;
#34 = VERTEX_POINT ( 'NONE', #6 ) ;
#35 = VERTEX_POINT ( 'NONE', #82 ) ;
#36 = AXIS2_PLACEMENT_3D ( 'NONE', #159, #260, #15 ) ;
#37 = CIRCLE ( 'NONE', #173, 25.20703431346279544 ) ;
#38 = EDGE_LOOP ( 'NONE', ( #196, #295, #275, #250 ) ) ;
#39 = CIRCLE ( 'NONE', #83, 25.39999999999999858 ) ;
#40 = EDGE_CURVE ( 'NONE', #141, #41, #105, .T. ) ;
#41 = VERTEX_POINT ( 'NONE', #188 ) ;
#42 = ORIENTED_EDGE ( 'NONE', *, *, #241, .T. ) ;
#43 = CARTESIAN_POINT ( 'NONE',  ( 0.000000000000000000, 0.000000000000000000, 16.79999999999998295 ) ) ;
#44 = LINE ( 'NONE', #283, #287 ) ;
#45 = DIRECTION ( 'NONE',  ( -1.000000000000000000, 0.000000000000000000, 0.000000000000000000 ) ) ;
#46 = DIRECTION ( 'NONE',  ( -1.000000000000000000, 0.000000000000000000, 0.000000000000000000 ) ) ;
#47 = SURFACE_STYLE_USAGE ( .BOTH. , #177 ) ;
#48 = EDGE_LOOP ( 'NONE', ( #223, #238, #42, #286 ) ) ;
#49 =( NAMED_UNIT ( * ) SI_UNIT ( $, .STERADIAN. ) SOLID_ANGLE_UNIT ( ) );
#50 = ADVANCED_FACE ( 'NONE', ( #235 ), #291, .F. ) ;
#51 = APPLICATION_CONTEXT ( 'automotive_design' ) ;
#52 = PRESENTATION_STYLE_ASSIGNMENT (( #86 ) ) ;
#53 = DIRECTION ( 'NONE',  ( -1.224646799147353207E-16, -1.000000000000000000, 0.000000000000000000 ) ) ;
#54 = DIRECTION ( 'NONE',  ( 0.000000000000000000, 0.000000000000000000, -1.000000000000000000 ) ) ;
#55 = AXIS2_PLACEMENT_3D ( 'NONE', #191, #315, #89 ) ;
#56 = DIRECTION ( 'NONE',  ( -0.000000000000000000, -0.000000000000000000, 1.000000000000000000 ) ) ;
#57 = DIRECTION ( 'NONE',  ( 1.000000000000000000, 0.000000000000000000, 0.000000000000000000 ) ) ;
#58 = DIRECTION ( 'NONE',  ( -1.000000000000000000, 0.000000000000000000, 0.000000000000000000 ) ) ;
#59 = EDGE_CURVE ( 'NONE', #152, #34, #272, .T. ) ;
#60 = SURFACE_SIDE_STYLE ('',( #85 ) ) ;
#61 = ORIENTED_EDGE ( 'NONE', *, *, #71, .T. ) ;
#62 = AXIS2_PLACEMENT_3D ( 'NONE', #75, #281, #45 ) ;
#63 = ORIENTED_EDGE ( 'NONE', *, *, #192, .F. ) ;
#64 =( GEOMETRIC_REPRESENTATION_CONTEXT ( 3 ) GLOBAL_UNCERTAINTY_ASSIGNED_CONTEXT ( ( #219 ) ) GLOBAL_UNIT_ASSIGNED_CONTEXT ( ( #29, #9, #49 ) ) REPRESENTATION_CONTEXT ( 'NONE', 'WORKASPACE' ) );
#65 = CIRCLE ( 'NONE', #126, 97.61000000000001364 ) ;
#66 = ORIENTED_EDGE ( 'NONE', *, *, #289, .T. ) ;
#67 = AXIS2_PLACEMENT_3D ( 'NONE', #161, #140, #57 ) ;
#68 = DIRECTION ( 'NONE',  ( 1.000000000000000000, 0.000000000000000000, 0.000000000000000000 ) ) ;
#69 = EDGE_LOOP ( 'NONE', ( #229, #220, #88, #79 ) ) ;
#70 = AXIS2_PLACEMENT_3D ( 'NONE', #73, #18, #151 ) ;
#71 = EDGE_CURVE ( 'NONE', #167, #116, #158, .T. ) ;
#72 = ORIENTED_EDGE ( 'NONE', *, *, #316, .F. ) ;
#73 = CARTESIAN_POINT ( 'NONE',  ( 0.000000000000000000, 0.000000000000000000, 16.98561757145522577 ) ) ;
#74 = STYLED_ITEM ( 'NONE', ( #301 ), #293 ) ;
#75 = CARTESIAN_POINT ( 'NONE',  ( 0.000000000000000000, 0.000000000000000000, 16.98561757145522577 ) ) ;
#76 = DIRECTION ( 'NONE',  ( 0.000000000000000000, 0.000000000000000000, -1.000000000000000000 ) ) ;
#77 = EDGE_CURVE ( 'NONE', #302, #176, #245, .T. ) ;
#78 = FACE_OUTER_BOUND ( 'NONE', #296, .T. ) ;
#79 = ORIENTED_EDGE ( 'NONE', *, *, #182, .T. ) ;
#80 = CARTESIAN_POINT ( 'NONE',  ( -25.20703431346279899, 3.098787129316124781E-15, 13.94820679539513009 ) ) ;
#81 = CARTESIAN_POINT ( 'NONE',  ( 0.000000000000000000, 0.000000000000000000, 108.2472922687967838 ) ) ;
#82 = CARTESIAN_POINT ( 'NONE',  ( -25.39999999999999858, 0.000000000000000000, 14.28355508774084548 ) ) ;
#83 = AXIS2_PLACEMENT_3D ( 'NONE', #212, #56, #10 ) ;
#84 = DIRECTION ( 'NONE',  ( 0.000000000000000000, 0.000000000000000000, -1.000000000000000000 ) ) ;
#85 = SURFACE_STYLE_FILL_AREA ( #1 ) ;
#86 = SURFACE_STYLE_USAGE ( .BOTH. , #60 ) ;
#87 = SPHERICAL_SURFACE ( 'NONE', #55, 97.61000000000001364 ) ;
#88 = ORIENTED_EDGE ( 'NONE', *, *, #170, .T. ) ;
#89 = DIRECTION ( 'NONE',  ( 0.000000000000000000, 1.000000000000000000, 0.000000000000000000 ) ) ;
#90 = ORIENTED_EDGE ( 'NONE', *, *, #139, .T. ) ;
#91 = ORIENTED_EDGE ( 'NONE', *, *, #30, .F. ) ;
#92 = EDGE_CURVE ( 'NONE', #22, #256, #253, .T. ) ;
#93 = ORIENTED_EDGE ( 'NONE', *, *, #204, .T. ) ;
#94 =( NAMED_UNIT ( * ) SI_UNIT ( $, .STERADIAN. ) SOLID_ANGLE_UNIT ( ) );
#95 =( LENGTH_UNIT ( ) NAMED_UNIT ( * ) SI_UNIT ( .MILLI., .METRE. ) );
#96 = ORIENTED_EDGE ( 'NONE', *, *, #320, .F. ) ;
#97 = FILL_AREA_STYLE ('',( #325 ) ) ;
#98 = AXIS2_PLACEMENT_3D ( 'NONE', #13, #58, #216 ) ;
#99 = CIRCLE ( 'NONE', #70, 25.21438242854474154 ) ;
#100 = CARTESIAN_POINT ( 'NONE',  ( -25.21438242854474154, 0.000000000000000000, 16.98561757145522577 ) ) ;
#101 = DIRECTION ( 'NONE',  ( -0.000000000000000000, -0.000000000000000000, -1.000000000000000000 ) ) ;
#102 = AXIS2_PLACEMENT_3D ( 'NONE', #117, #221, #252 ) ;
#103 = APPLICATION_PROTOCOL_DEFINITION ( 'draft international standard', 'automotive_design', 1998, #326 ) ;
#104 = CARTESIAN_POINT ( 'NONE',  ( 0.000000000000000000, 0.000000000000000000, 343.6038090714803843 ) ) ;
#105 = CIRCLE ( 'NONE', #206, 97.61000000000001364 ) ;
#106 = DIRECTION ( 'NONE',  ( -0.000000000000000000, -0.000000000000000000, -1.000000000000000000 ) ) ;
#107 = PRODUCT ( 'GLM2-050B-300', 'GLM2-050B-300', '', ( #312 ) ) ;
#108 = DIRECTION ( 'NONE',  ( -0.000000000000000000, -0.000000000000000000, -1.000000000000000000 ) ) ;
#109 = CARTESIAN_POINT ( 'NONE',  ( 0.000000000000000000, 2.005910224663407022E-14, 16.01380907148036670 ) ) ;
#110 = DIRECTION ( 'NONE',  ( 1.000000000000000000, 0.000000000000000000, 0.000000000000000000 ) ) ;
#111 = EDGE_CURVE ( 'NONE', #141, #152, #65, .T. ) ;
#112 = CARTESIAN_POINT ( 'NONE',  ( 25.39999999999999858, 3.110602869834276865E-15, 20.00000000000000000 ) ) ;
#113 = FILL_AREA_STYLE_COLOUR ( '', #11 ) ;
#114 = LINE ( 'NONE', #294, #310 ) ;
#115 = CIRCLE ( 'NONE', #239, 327.5899999999999750 ) ;
#116 = VERTEX_POINT ( 'NONE', #233 ) ;
#117 = CARTESIAN_POINT ( 'NONE',  ( 0.000000000000000000, 0.000000000000000000, 14.28355508774084548 ) ) ;
#118 = ORIENTED_EDGE ( 'NONE', *, *, #304, .T. ) ;
#119 =( GEOMETRIC_REPRESENTATION_CONTEXT ( 3 ) GLOBAL_UNCERTAINTY_ASSIGNED_CONTEXT ( ( #150 ) ) GLOBAL_UNIT_ASSIGNED_CONTEXT ( ( #321, #274, #94 ) ) REPRESENTATION_CONTEXT ( 'NONE', 'WORKASPACE' ) );
#120 = AXIS2_PLACEMENT_3D ( 'NONE', #288, #207, #26 ) ;
#121 = ORIENTED_EDGE ( 'NONE', *, *, #132, .F. ) ;
#122 = PRODUCT_DEFINITION ( 'Î´Öª', '', #263, #270 ) ;
#123 = AXIS2_PLACEMENT_3D ( 'NONE', #228, #131, #174 ) ;
#124 = FACE_OUTER_BOUND ( 'NONE', #319, .T. ) ;
#125 = DIRECTION ( 'NONE',  ( 1.000000000000000000, 0.000000000000000000, 0.000000000000000000 ) ) ;
#126 = AXIS2_PLACEMENT_3D ( 'NONE', #232, #264, #54 ) ;
#127 = CARTESIAN_POINT ( 'NONE',  ( 25.21438242854473799, 3.087871273359458030E-15, 16.98561757145522577 ) ) ;
#128 = CARTESIAN_POINT ( 'NONE',  ( -25.39999999999999858, 0.000000000000000000, 16.79999999999998295 ) ) ;
#129 = DIRECTION ( 'NONE',  ( 0.4987438503185733785, 0.000000000000000000, 0.8667494284794218240 ) ) ;
#130 = LINE ( 'NONE', #127, #249 ) ;
#131 = DIRECTION ( 'NONE',  ( -0.000000000000000000, -0.000000000000000000, 1.000000000000000000 ) ) ;
#132 = EDGE_CURVE ( 'NONE', #41, #147, #183, .T. ) ;
#133 = ORIENTED_EDGE ( 'NONE', *, *, #30, .T. ) ;
#134 = CARTESIAN_POINT ( 'NONE',  ( 0.000000000000000000, 0.000000000000000000, 20.00000000000000000 ) ) ;
#135 = PRESENTATION_LAYER_ASSIGNMENT (  '', '', ( #197 ) ) ;
#136 = FACE_OUTER_BOUND ( 'NONE', #48, .T. ) ;
#137 = MECHANICAL_DESIGN_GEOMETRIC_PRESENTATION_REPRESENTATION (  '', ( #197 ), #64 ) ;
#138 = CARTESIAN_POINT ( 'NONE',  ( 0.000000000000000000, 0.000000000000000000, 16.79999999999998295 ) ) ;
#139 = EDGE_CURVE ( 'NONE', #244, #167, #311, .T. ) ;
#140 = DIRECTION ( 'NONE',  ( -0.000000000000000000, -0.000000000000000000, 1.000000000000000000 ) ) ;
#141 = VERTEX_POINT ( 'NONE', #237 ) ;
#142 = AXIS2_PLACEMENT_3D ( 'NONE', #138, #259, #27 ) ;
#143 = ORIENTED_EDGE ( 'NONE', *, *, #320, .T. ) ;
#144 = CONICAL_SURFACE ( 'NONE', #123, 25.39999999999999858, 0.5221489052077682436 ) ;
#145 = CIRCLE ( 'NONE', #185, 25.39999999999999858 ) ;
#146 = ORIENTED_EDGE ( 'NONE', *, *, #59, .F. ) ;
#147 = VERTEX_POINT ( 'NONE', #80 ) ;
#148 = CARTESIAN_POINT ( 'NONE',  ( 0.000000000000000000, 0.000000000000000000, 16.98561757145522577 ) ) ;
#149 = ORIENTED_EDGE ( 'NONE', *, *, #204, .F. ) ;
#150 = UNCERTAINTY_MEASURE_WITH_UNIT (LENGTH_MEASURE( 1.000000000000000082E-05 ), #321, 'distance_accuracy_value', 'NONE');
#151 = DIRECTION ( 'NONE',  ( 1.000000000000000000, 0.000000000000000000, 0.000000000000000000 ) ) ;
#152 = VERTEX_POINT ( 'NONE', #156 ) ;
#153 = ADVANCED_FACE ( 'NONE', ( #236 ), #5, .T. ) ;
#154 = EDGE_LOOP ( 'NONE', ( #90, #61, #118, #96 ) ) ;
#155 = DIRECTION ( 'NONE',  ( 0.000000000000000000, 0.000000000000000000, -1.000000000000000000 ) ) ;
#156 = CARTESIAN_POINT ( 'NONE',  ( 0.000000000000000000, 25.20703431346280965, 13.94820679539513009 ) ) ;
#157 = ADVANCED_FACE ( 'NONE', ( #136 ), #290, .F. ) ;
#158 = LINE ( 'NONE', #112, #211 ) ;
#159 = CARTESIAN_POINT ( 'NONE',  ( 0.000000000000000000, 0.000000000000000000, 343.6038090714803843 ) ) ;
#160 = DIRECTION ( 'NONE',  ( 1.000000000000000000, 0.000000000000000000, 0.000000000000000000 ) ) ;
#161 = CARTESIAN_POINT ( 'NONE',  ( 0.000000000000000000, 0.000000000000000000, 16.98561757145522577 ) ) ;
#162 = AXIS2_PLACEMENT_3D ( 'NONE', #213, #110, #84 ) ;
#163 = FACE_OUTER_BOUND ( 'NONE', #324, .T. ) ;
#164 = COLOUR_RGB ( '',1.000000000000000000, 1.000000000000000000, 1.000000000000000000 ) ;
#165 = CONICAL_SURFACE ( 'NONE', #62, 25.21438242854473799, 0.7853981633974950194 ) ;
#166 = ORIENTED_EDGE ( 'NONE', *, *, #192, .T. ) ;
#167 = VERTEX_POINT ( 'NONE', #309 ) ;
#168 = AXIS2_PLACEMENT_3D ( 'NONE', #257, #308, #209 ) ;
#169 = ORIENTED_EDGE ( 'NONE', *, *, #40, .F. ) ;
#170 = EDGE_CURVE ( 'NONE', #176, #268, #199, .T. ) ;
#171 = ORIENTED_EDGE ( 'NONE', *, *, #71, .F. ) ;
#172 =( NAMED_UNIT ( * ) SI_UNIT ( $, .STERADIAN. ) SOLID_ANGLE_UNIT ( ) );
#173 = AXIS2_PLACEMENT_3D ( 'NONE', #251, #155, #125 ) ;
#174 = DIRECTION ( 'NONE',  ( 1.000000000000000000, 0.000000000000000000, 0.000000000000000000 ) ) ;
#175 = AXIS2_PLACEMENT_3D ( 'NONE', #134, #101, #2 ) ;
#176 = VERTEX_POINT ( 'NONE', #243 ) ;
#177 = SURFACE_SIDE_STYLE ('',( #202 ) ) ;
#178 = ADVANCED_FACE ( 'NONE', ( #163 ), #292, .T. ) ;
#179 = CARTESIAN_POINT ( 'NONE',  ( 25.21438242854474154, 3.099237071596867842E-15, 16.98561757145522577 ) ) ;
#180 = CARTESIAN_POINT ( 'NONE',  ( 25.39999999999999858, 0.000000000000000000, 14.28355508774084548 ) ) ;
#181 =( GEOMETRIC_REPRESENTATION_CONTEXT ( 3 ) GLOBAL_UNCERTAINTY_ASSIGNED_CONTEXT ( ( #193 ) ) GLOBAL_UNIT_ASSIGNED_CONTEXT ( ( #95, #332, #172 ) ) REPRESENTATION_CONTEXT ( 'NONE', 'WORKASPACE' ) );
#182 = EDGE_CURVE ( 'NONE', #268, #256, #201, .T. ) ;
#183 = CIRCLE ( 'NONE', #300, 25.20703431346279544 ) ;
#184 = CARTESIAN_POINT ( 'NONE',  ( 0.000000000000000000, 0.000000000000000000, 20.00000000000000000 ) ) ;
#185 = AXIS2_PLACEMENT_3D ( 'NONE', #43, #247, #31 ) ;
#186 = DIRECTION ( 'NONE',  ( 0.000000000000000000, 0.000000000000000000, -1.000000000000000000 ) ) ;
#187 = ADVANCED_FACE ( 'NONE', ( #33 ), #87, .T. ) ;
#188 = CARTESIAN_POINT ( 'NONE',  ( -3.086971388797973485E-15, -25.20703431346280965, 13.94820679539513009 ) ) ;
#189 = DIRECTION ( 'NONE',  ( -0.000000000000000000, -0.000000000000000000, 1.000000000000000000 ) ) ;
#190 = CARTESIAN_POINT ( 'NONE',  ( 0.000000000000000000, 0.000000000000000000, 0.000000000000000000 ) ) ;
#191 = CARTESIAN_POINT ( 'NONE',  ( 0.000000000000000000, 0.000000000000000000, 108.2472922687967838 ) ) ;
#192 = EDGE_CURVE ( 'NONE', #302, #244, #114, .T. ) ;
#193 = UNCERTAINTY_MEASURE_WITH_UNIT (LENGTH_MEASURE( 1.000000000000000082E-05 ), #95, 'distance_accuracy_value', 'NONE');
#194 = ORIENTED_EDGE ( 'NONE', *, *, #170, .F. ) ;
#195 = DIRECTION ( 'NONE',  ( -0.000000000000000000, -0.000000000000000000, 1.000000000000000000 ) ) ;
#196 = ORIENTED_EDGE ( 'NONE', *, *, #111, .F. ) ;
#197 = STYLED_ITEM ( 'NONE', ( #52 ), #28 ) ;
#198 = ORIENTED_EDGE ( 'NONE', *, *, #21, .T. ) ;
#199 = CIRCLE ( 'NONE', #12, 25.21438242854474154 ) ;
#200 = ORIENTED_EDGE ( 'NONE', *, *, #304, .F. ) ;
#201 = CIRCLE ( 'NONE', #269, 25.21438242854474154 ) ;
#202 = SURFACE_STYLE_FILL_AREA ( #97 ) ;
#203 = CARTESIAN_POINT ( 'NONE',  ( 0.000000000000000000, 0.000000000000000000, 13.94820679539513009 ) ) ;
#204 = EDGE_CURVE ( 'NONE', #34, #41, #314, .T. ) ;
#205 = DIRECTION ( 'NONE',  ( -1.000000000000000000, 1.224646799147353207E-16, 0.000000000000000000 ) ) ;
#206 = AXIS2_PLACEMENT_3D ( 'NONE', #81, #313, #53 ) ;
#207 = DIRECTION ( 'NONE',  ( 0.000000000000000000, 0.000000000000000000, -1.000000000000000000 ) ) ;
#208 = AXIS2_PLACEMENT_3D ( 'NONE', #190, #25, #262 ) ;
#209 = DIRECTION ( 'NONE',  ( 0.000000000000000000, 1.000000000000000000, 0.000000000000000000 ) ) ;
#210 = ADVANCED_FACE ( 'NONE', ( #78 ), #258, .T. ) ;
#211 = VECTOR ( 'NONE', #106, 1000.000000000000000 ) ;
#212 = CARTESIAN_POINT ( 'NONE',  ( 0.000000000000000000, 0.000000000000000000, 14.28355508774084548 ) ) ;
#213 = CARTESIAN_POINT ( 'NONE',  ( 0.000000000000000000, 0.000000000000000000, 343.6038090714803843 ) ) ;
#214 = CARTESIAN_POINT ( 'NONE',  ( 0.000000000000000000, 0.000000000000000000, 16.98561757145522577 ) ) ;
#215 = AXIS2_PLACEMENT_3D ( 'NONE', #148, #24, #46 ) ;
#216 = DIRECTION ( 'NONE',  ( 0.000000000000000000, 1.000000000000000000, 0.000000000000000000 ) ) ;
#217 = ORIENTED_EDGE ( 'NONE', *, *, #316, .T. ) ;
#218 = AXIS2_PLACEMENT_3D ( 'NONE', #327, #224, #255 ) ;
#219 = UNCERTAINTY_MEASURE_WITH_UNIT (LENGTH_MEASURE( 1.000000000000000082E-05 ), #29, 'distance_accuracy_value', 'NONE');
#220 = ORIENTED_EDGE ( 'NONE', *, *, #16, .T. ) ;
#221 = DIRECTION ( 'NONE',  ( -0.000000000000000000, -0.000000000000000000, 1.000000000000000000 ) ) ;
#222 = CARTESIAN_POINT ( 'NONE',  ( 0.000000000000000000, 0.000000000000000000, 16.98561757145522577 ) ) ;
#223 = ORIENTED_EDGE ( 'NONE', *, *, #16, .F. ) ;
#224 = DIRECTION ( 'NONE',  ( -0.000000000000000000, -0.000000000000000000, 1.000000000000000000 ) ) ;
#225 = DIRECTION ( 'NONE',  ( -0.4987438503185733785, 6.107850598870675731E-17, 0.8667494284794218240 ) ) ;
#226 = ORIENTED_EDGE ( 'NONE', *, *, #234, .F. ) ;
#227 = LINE ( 'NONE', #329, #318 ) ;
#228 = CARTESIAN_POINT ( 'NONE',  ( 0.000000000000000000, 0.000000000000000000, 14.28355508774084548 ) ) ;
#229 = ORIENTED_EDGE ( 'NONE', *, *, #92, .F. ) ;
#230 = CYLINDRICAL_SURFACE ( 'NONE', #175, 25.39999999999999858 ) ;
#231 = LINE ( 'NONE', #180, #330 ) ;
#232 = CARTESIAN_POINT ( 'NONE',  ( 0.000000000000000000, 0.000000000000000000, 108.2472922687967838 ) ) ;
#233 = CARTESIAN_POINT ( 'NONE',  ( 25.39999999999999858, 3.110602869834276865E-15, 14.28355508774084548 ) ) ;
#234 = EDGE_CURVE ( 'NONE', #147, #152, #37, .T. ) ;
#235 = FACE_OUTER_BOUND ( 'NONE', #69, .T. ) ;
#236 = FACE_OUTER_BOUND ( 'NONE', #154, .T. ) ;
#237 = CARTESIAN_POINT ( 'NONE',  ( 0.000000000000000000, 5.976888703238658404E-15, 10.63729226879676837 ) ) ;
#238 = ORIENTED_EDGE ( 'NONE', *, *, #92, .T. ) ;
#239 = AXIS2_PLACEMENT_3D ( 'NONE', #104, #205, #278 ) ;
#240 = ORIENTED_EDGE ( 'NONE', *, *, #241, .F. ) ;
#241 = EDGE_CURVE ( 'NONE', #256, #302, #99, .T. ) ;
#242 = EDGE_LOOP ( 'NONE', ( #284, #121, #149, #299, #91 ) ) ;
#243 = CARTESIAN_POINT ( 'NONE',  ( -3.087871273359455663E-15, -25.21438242854472023, 16.98561757145519735 ) ) ;
#244 = VERTEX_POINT ( 'NONE', #128 ) ;
#245 = CIRCLE ( 'NONE', #67, 25.21438242854474154 ) ;
#246 = DIRECTION ( 'NONE',  ( -0.7071067811865805464, 0.000000000000000000, -0.7071067811865144881 ) ) ;
#247 = DIRECTION ( 'NONE',  ( 0.000000000000000000, 0.000000000000000000, -1.000000000000000000 ) ) ;
#248 = FACE_OUTER_BOUND ( 'NONE', #267, .T. ) ;
#249 = VECTOR ( 'NONE', #20, 1000.000000000000000 ) ;
#250 = ORIENTED_EDGE ( 'NONE', *, *, #234, .T. ) ;
#251 = CARTESIAN_POINT ( 'NONE',  ( 0.000000000000000000, 0.000000000000000000, 13.94820679539513009 ) ) ;
#252 = DIRECTION ( 'NONE',  ( -1.000000000000000000, 0.000000000000000000, 0.000000000000000000 ) ) ;
#253 = CIRCLE ( 'NONE', #162, 327.5899999999999750 ) ;
#254 = FACE_OUTER_BOUND ( 'NONE', #273, .T. ) ;
#255 = DIRECTION ( 'NONE',  ( 1.000000000000000000, 0.000000000000000000, 0.000000000000000000 ) ) ;
#256 = VERTEX_POINT ( 'NONE', #298 ) ;
#257 = CARTESIAN_POINT ( 'NONE',  ( 0.000000000000000000, 0.000000000000000000, 343.6038090714803843 ) ) ;
#258 = CONICAL_SURFACE ( 'NONE', #215, 25.21438242854473799, 0.7853981633974950194 ) ;
#259 = DIRECTION ( 'NONE',  ( 0.000000000000000000, 0.000000000000000000, -1.000000000000000000 ) ) ;
#260 = DIRECTION ( 'NONE',  ( -1.000000000000000000, 0.000000000000000000, 0.000000000000000000 ) ) ;
#261 = APPLICATION_PROTOCOL_DEFINITION ( 'draft international standard', 'automotive_design', 1998, #51 ) ;
#262 = DIRECTION ( 'NONE',  ( 1.000000000000000000, 0.000000000000000000, 0.000000000000000000 ) ) ;
#263 = PRODUCT_DEFINITION_FORMATION_WITH_SPECIFIED_SOURCE ( 'ÈÎºÎ', '', #107, .NOT_KNOWN. ) ;
#264 = DIRECTION ( 'NONE',  ( 1.000000000000000000, -0.000000000000000000, 0.000000000000000000 ) ) ;
#265 = ADVANCED_FACE ( 'NONE', ( #124 ), #144, .T. ) ;
#266 = DIRECTION ( 'NONE',  ( 1.000000000000000000, 0.000000000000000000, 0.000000000000000000 ) ) ;
#267 = EDGE_LOOP ( 'NONE', ( #72, #194, #14, #166, #19 ) ) ;
#268 = VERTEX_POINT ( 'NONE', #179 ) ;
#269 = AXIS2_PLACEMENT_3D ( 'NONE', #214, #189, #266 ) ;
#270 = PRODUCT_DEFINITION_CONTEXT ( 'detailed design', #326, 'design' ) ;
#271 = PRODUCT_RELATED_PRODUCT_CATEGORY ( 'part', '', ( #107 ) ) ;
#272 = CIRCLE ( 'NONE', #120, 25.20703431346279544 ) ;
#273 = EDGE_LOOP ( 'NONE', ( #171, #198, #143, #133 ) ) ;
#274 =( NAMED_UNIT ( * ) PLANE_ANGLE_UNIT ( ) SI_UNIT ( $, .RADIAN. ) );
#275 = ORIENTED_EDGE ( 'NONE', *, *, #132, .T. ) ;
#276 = ADVANCED_FACE ( 'NONE', ( #322 ), #306, .T. ) ;
#277 = AXIS2_PLACEMENT_3D ( 'NONE', #184, #108, #7 ) ;
#278 = DIRECTION ( 'NONE',  ( -1.224646799147353207E-16, -1.000000000000000000, 0.000000000000000000 ) ) ;
#279 = DIRECTION ( 'NONE',  ( 1.000000000000000000, 0.000000000000000000, 0.000000000000000000 ) ) ;
#280 = PRESENTATION_LAYER_ASSIGNMENT (  '', '', ( #74 ) ) ;
#281 = DIRECTION ( 'NONE',  ( 0.000000000000000000, 0.000000000000000000, -1.000000000000000000 ) ) ;
#282 = ORIENTED_EDGE ( 'NONE', *, *, #111, .T. ) ;
#283 = CARTESIAN_POINT ( 'NONE',  ( -25.39999999999999858, 3.110602869834276865E-15, 14.28355508774084548 ) ) ;
#284 = ORIENTED_EDGE ( 'NONE', *, *, #289, .F. ) ;
#285 = SHAPE_DEFINITION_REPRESENTATION ( #331, #28 ) ;
#286 = ORIENTED_EDGE ( 'NONE', *, *, #77, .T. ) ;
#287 = VECTOR ( 'NONE', #225, 1000.000000000000227 ) ;
#288 = CARTESIAN_POINT ( 'NONE',  ( 0.000000000000000000, 0.000000000000000000, 13.94820679539513009 ) ) ;
#289 = EDGE_CURVE ( 'NONE', #147, #35, #44, .T. ) ;
#290 = SPHERICAL_SURFACE ( 'NONE', #36, 327.5899999999999750 ) ;
#291 = SPHERICAL_SURFACE ( 'NONE', #168, 327.5899999999999750 ) ;
#292 = SPHERICAL_SURFACE ( 'NONE', #98, 97.61000000000001364 ) ;
#293 = MANIFOLD_SOLID_BREP ( 'µ¹½Ç1', #23 ) ;
#294 = CARTESIAN_POINT ( 'NONE',  ( -25.21438242854473799, 0.000000000000000000, 16.98561757145522577 ) ) ;
#295 = ORIENTED_EDGE ( 'NONE', *, *, #40, .T. ) ;
#296 = EDGE_LOOP ( 'NONE', ( #317, #217, #297, #63, #240 ) ) ;
#297 = ORIENTED_EDGE ( 'NONE', *, *, #139, .F. ) ;
#298 = CARTESIAN_POINT ( 'NONE',  ( 0.000000000000000000, 25.21438242854472023, 16.98561757145519735 ) ) ;
#299 = ORIENTED_EDGE ( 'NONE', *, *, #3, .T. ) ;
#300 = AXIS2_PLACEMENT_3D ( 'NONE', #32, #186, #160 ) ;
#301 = PRESENTATION_STYLE_ASSIGNMENT (( #47 ) ) ;
#302 = VERTEX_POINT ( 'NONE', #100 ) ;
#303 = DIRECTION ( 'NONE',  ( -0.000000000000000000, -0.000000000000000000, -1.000000000000000000 ) ) ;
#304 = EDGE_CURVE ( 'NONE', #116, #35, #4, .T. ) ;
#305 = ORIENTED_EDGE ( 'NONE', *, *, #3, .F. ) ;
#306 = CONICAL_SURFACE ( 'NONE', #218, 25.39999999999999858, 0.5221489052077682436 ) ;
#307 = ADVANCED_FACE ( 'NONE', ( #248 ), #165, .T. ) ;
#308 = DIRECTION ( 'NONE',  ( -1.000000000000000000, 0.000000000000000000, 0.000000000000000000 ) ) ;
#309 = CARTESIAN_POINT ( 'NONE',  ( 25.39999999999999858, 3.110602869834276865E-15, 16.79999999999998295 ) ) ;
#310 = VECTOR ( 'NONE', #246, 1000.000000000000000 ) ;
#311 = CIRCLE ( 'NONE', #142, 25.39999999999999858 ) ;
#312 = PRODUCT_CONTEXT ( 'NONE', #51, 'mechanical' ) ;
#313 = DIRECTION ( 'NONE',  ( -1.000000000000000000, 1.224646799147353207E-16, 0.000000000000000000 ) ) ;
#314 = CIRCLE ( 'NONE', #328, 25.20703431346279544 ) ;
#315 = DIRECTION ( 'NONE',  ( -1.000000000000000000, 0.000000000000000000, 0.000000000000000000 ) ) ;
#316 = EDGE_CURVE ( 'NONE', #268, #167, #130, .T. ) ;
#317 = ORIENTED_EDGE ( 'NONE', *, *, #182, .F. ) ;
#318 = VECTOR ( 'NONE', #303, 1000.000000000000000 ) ;
#319 = EDGE_LOOP ( 'NONE', ( #226, #66, #200, #305, #146 ) ) ;
#320 = EDGE_CURVE ( 'NONE', #244, #35, #227, .T. ) ;
#321 =( LENGTH_UNIT ( ) NAMED_UNIT ( * ) SI_UNIT ( .MILLI., .METRE. ) );
#322 = FACE_OUTER_BOUND ( 'NONE', #242, .T. ) ;
#323 = MECHANICAL_DESIGN_GEOMETRIC_PRESENTATION_REPRESENTATION (  '', ( #74 ), #181 ) ;
#324 = EDGE_LOOP ( 'NONE', ( #169, #282, #17, #93 ) ) ;
#325 = FILL_AREA_STYLE_COLOUR ( '', #164 ) ;
#326 = APPLICATION_CONTEXT ( 'automotive_design' ) ;
#327 = CARTESIAN_POINT ( 'NONE',  ( 0.000000000000000000, 0.000000000000000000, 14.28355508774084548 ) ) ;
#328 = AXIS2_PLACEMENT_3D ( 'NONE', #203, #76, #279 ) ;
#329 = CARTESIAN_POINT ( 'NONE',  ( -25.39999999999999858, 0.000000000000000000, 20.00000000000000000 ) ) ;
#330 = VECTOR ( 'NONE', #129, 1000.000000000000227 ) ;
#331 = PRODUCT_DEFINITION_SHAPE ( 'NONE', 'NONE',  #122 ) ;
#332 =( NAMED_UNIT ( * ) PLANE_ANGLE_UNIT ( ) SI_UNIT ( $, .RADIAN. ) );
ENDSEC;
END-ISO-10303-21;
