ISO-10303-21;
HEADER;
FILE_DESCRIPTION (( 'STEP AP214' ),
    '1' );
FILE_NAME ('GLM2-025B-100-UV.STEP',
    '2024-08-09T02:41:59',
    ( 'Windows User' ),
    ( 'P R C' ),
    'SwSTEP 2.0',
    'SolidWorks 2022',
    '' );
FILE_SCHEMA (( 'AUTOMOTIVE_DESIGN' ));
ENDSEC;

DATA;
#1 = ORIENTED_EDGE ( 'NONE', *, *, #133, .F. ) ;
#2 = DIRECTION ( 'NONE',  ( 1.000000000000000000, -0.000000000000000000, 0.000000000000000000 ) ) ;
#3 = DIRECTION ( 'NONE',  ( -1.000000000000000000, 0.000000000000000000, 0.000000000000000000 ) ) ;
#4 = DIRECTION ( 'NONE',  ( 1.000000000000000000, -1.224646799147353207E-16, -2.916108329434452248E-31 ) ) ;
#5 = FACE_OUTER_BOUND ( 'NONE', #59, .T. ) ;
#6 = DIRECTION ( 'NONE',  ( -0.7071067811865789920, 0.000000000000000000, -0.7071067811865160424 ) ) ;
#7 = LINE ( 'NONE', #49, #120 ) ;
#8 = CARTESIAN_POINT ( 'NONE',  ( 0.000000000000000000, 12.69999999999999751, 3.999999999999998224 ) ) ;
#9 = DIRECTION ( 'NONE',  ( -0.000000000000000000, -0.000000000000000000, -1.000000000000000000 ) ) ;
#10 = PRODUCT_RELATED_PRODUCT_CATEGORY ( 'part', '', ( #195 ) ) ;
#11 =( NAMED_UNIT ( * ) PLANE_ANGLE_UNIT ( ) SI_UNIT ( $, .RADIAN. ) );
#12 = DIRECTION ( 'NONE',  ( 0.000000000000000000, 0.000000000000000000, -1.000000000000000000 ) ) ;
#13 = STYLED_ITEM ( 'NONE', ( #228 ), #123 ) ;
#14 = COLOUR_RGB ( '',1.000000000000000000, 1.000000000000000000, 1.000000000000000000 ) ;
#15 = ADVANCED_FACE ( 'NONE', ( #124 ), #112, .T. ) ;
#16 = ORIENTED_EDGE ( 'NONE', *, *, #237, .F. ) ;
#17 = CONICAL_SURFACE ( 'NONE', #184, 12.52451227796384359, 0.7853981633974926879 ) ;
#18 = CIRCLE ( 'NONE', #280, 12.69999999999999929 ) ;
#19 = VERTEX_POINT ( 'NONE', #88 ) ;
#20 = VERTEX_POINT ( 'NONE', #8 ) ;
#21 = DIRECTION ( 'NONE',  ( -0.000000000000000000, -0.000000000000000000, 1.000000000000000000 ) ) ;
#22 = CARTESIAN_POINT ( 'NONE',  ( 12.69999999999998508, 1.555301434917073746E-15, 3.999999999999969802 ) ) ;
#23 = APPLICATION_PROTOCOL_DEFINITION ( 'draft international standard', 'automotive_design', 1998, #33 ) ;
#24 = FACE_OUTER_BOUND ( 'NONE', #172, .T. ) ;
#25 = DIRECTION ( 'NONE',  ( 1.000000000000000000, 0.000000000000000000, 0.000000000000000000 ) ) ;
#26 = EDGE_CURVE ( 'NONE', #20, #194, #108, .T. ) ;
#27 = DIRECTION ( 'NONE',  ( -0.000000000000000000, -0.000000000000000000, 1.000000000000000000 ) ) ;
#28 = SURFACE_STYLE_FILL_AREA ( #75 ) ;
#29 = AXIS2_PLACEMENT_3D ( 'NONE', #243, #262, #223 ) ;
#30 = CARTESIAN_POINT ( 'NONE',  ( 12.52451227796384359, 1.533810387209014553E-15, 6.175487722036146820 ) ) ;
#31 = DIRECTION ( 'NONE',  ( 0.000000000000000000, 0.000000000000000000, -1.000000000000000000 ) ) ;
#32 = DIRECTION ( 'NONE',  ( -1.000000000000000000, 0.000000000000000000, 0.000000000000000000 ) ) ;
#33 = APPLICATION_CONTEXT ( 'automotive_design' ) ;
#34 = SHAPE_DEFINITION_REPRESENTATION ( #150, #57 ) ;
#35 = ORIENTED_EDGE ( 'NONE', *, *, #169, .T. ) ;
#36 = ORIENTED_EDGE ( 'NONE', *, *, #237, .T. ) ;
#37 = ORIENTED_EDGE ( 'NONE', *, *, #155, .T. ) ;
#38 = ORIENTED_EDGE ( 'NONE', *, *, #139, .F. ) ;
#39 = MECHANICAL_DESIGN_GEOMETRIC_PRESENTATION_REPRESENTATION (  '', ( #13 ), #210 ) ;
#40 = VERTEX_POINT ( 'NONE', #22 ) ;
#41 = ADVANCED_FACE ( 'NONE', ( #5 ), #201, .F. ) ;
#42 = DIRECTION ( 'NONE',  ( 1.000000000000000000, 0.000000000000000000, 0.000000000000000000 ) ) ;
#43 = FACE_OUTER_BOUND ( 'NONE', #281, .T. ) ;
#44 = CARTESIAN_POINT ( 'NONE',  ( 0.000000000000000000, 0.000000000000000000, 96.48111042737566834 ) ) ;
#45 = DIRECTION ( 'NONE',  ( -1.000000000000000000, 0.000000000000000000, 0.000000000000000000 ) ) ;
#46 = DIRECTION ( 'NONE',  ( -1.000000000000000000, 0.000000000000000000, 0.000000000000000000 ) ) ;
#47 = DIRECTION ( 'NONE',  ( 0.000000000000000000, -1.000000000000000000, -2.435500766974128453E-15 ) ) ;
#48 = FILL_AREA_STYLE ('',( #162 ) ) ;
#49 = CARTESIAN_POINT ( 'NONE',  ( -12.69999999999999929, 0.000000000000000000, 10.00000000000000000 ) ) ;
#50 = CIRCLE ( 'NONE', #29, 12.69999999999998508 ) ;
#51 = CARTESIAN_POINT ( 'NONE',  ( 0.000000000000000000, -12.52451227796385957, 6.175487722036146820 ) ) ;
#52 = CYLINDRICAL_SURFACE ( 'NONE', #99, 12.69999999999999929 ) ;
#53 = DIRECTION ( 'NONE',  ( 0.000000000000000000, 0.000000000000000000, 1.000000000000000000 ) ) ;
#54 = EDGE_CURVE ( 'NONE', #129, #146, #173, .T. ) ;
#55 = UNCERTAINTY_MEASURE_WITH_UNIT (LENGTH_MEASURE( 1.000000000000000082E-05 ), #264, 'distance_accuracy_value', 'NONE');
#56 = CIRCLE ( 'NONE', #226, 12.52451227796384359 ) ;
#57 = ADVANCED_BREP_SHAPE_REPRESENTATION ( 'GLM2-025B-100-UV', ( #123, #174 ), #125 ) ;
#58 =( GEOMETRIC_REPRESENTATION_CONTEXT ( 3 ) GLOBAL_UNCERTAINTY_ASSIGNED_CONTEXT ( ( #55 ) ) GLOBAL_UNIT_ASSIGNED_CONTEXT ( ( #264, #11, #71 ) ) REPRESENTATION_CONTEXT ( 'NONE', 'WORKASPACE' ) );
#59 = EDGE_LOOP ( 'NONE', ( #175, #193, #259, #106 ) ) ;
#60 = DIRECTION ( 'NONE',  ( 0.000000000000000000, 0.000000000000000000, -1.000000000000000000 ) ) ;
#61 = ORIENTED_EDGE ( 'NONE', *, *, #145, .T. ) ;
#62 = VECTOR ( 'NONE', #251, 1000.000000000000114 ) ;
#63 = ORIENTED_EDGE ( 'NONE', *, *, #122, .T. ) ;
#64 = EDGE_CURVE ( 'NONE', #170, #40, #50, .T. ) ;
#65 = ORIENTED_EDGE ( 'NONE', *, *, #54, .F. ) ;
#66 = CIRCLE ( 'NONE', #101, 12.69999999999998508 ) ;
#67 = ORIENTED_EDGE ( 'NONE', *, *, #198, .F. ) ;
#68 = CARTESIAN_POINT ( 'NONE',  ( 0.000000000000000000, 7.571488035583153132E-14, 1.279144258622820551 ) ) ;
#69 = DIRECTION ( 'NONE',  ( -1.000000000000000000, 0.000000000000000000, -0.000000000000000000 ) ) ;
#70 = DIRECTION ( 'NONE',  ( -0.000000000000000000, -0.000000000000000000, 1.000000000000000000 ) ) ;
#71 =( NAMED_UNIT ( * ) SI_UNIT ( $, .STERADIAN. ) SOLID_ANGLE_UNIT ( ) );
#72 = CARTESIAN_POINT ( 'NONE',  ( 0.000000000000000000, 0.000000000000000000, 96.48111042737566834 ) ) ;
#73 = DIRECTION ( 'NONE',  ( -0.000000000000000000, -2.381183155392036649E-15, 1.000000000000000000 ) ) ;
#74 = DIRECTION ( 'NONE',  ( 0.000000000000000000, -1.000000000000000000, -2.390366994456233028E-15 ) ) ;
#75 = FILL_AREA_STYLE ('',( #225 ) ) ;
#76 = AXIS2_PLACEMENT_3D ( 'NONE', #202, #70, #113 ) ;
#77 = CARTESIAN_POINT ( 'NONE',  ( 0.000000000000000000, 0.000000000000000000, 32.27914425862282144 ) ) ;
#78 = AXIS2_PLACEMENT_3D ( 'NONE', #179, #3, #114 ) ;
#79 = DIRECTION ( 'NONE',  ( -0.000000000000000000, -0.000000000000000000, -1.000000000000000000 ) ) ;
#80 = ADVANCED_FACE ( 'NONE', ( #24 ), #90, .F. ) ;
#81 = CIRCLE ( 'NONE', #241, 12.69999999999999929 ) ;
#82 = EDGE_LOOP ( 'NONE', ( #154, #240, #197, #279, #126 ) ) ;
#83 = EDGE_LOOP ( 'NONE', ( #217, #177, #38, #151 ) ) ;
#84 = EDGE_CURVE ( 'NONE', #219, #146, #149, .T. ) ;
#85 = STYLED_ITEM ( 'NONE', ( #116 ), #57 ) ;
#86 = ORIENTED_EDGE ( 'NONE', *, *, #275, .T. ) ;
#87 = ORIENTED_EDGE ( 'NONE', *, *, #118, .T. ) ;
#88 = CARTESIAN_POINT ( 'NONE',  ( -12.69999999999999929, 0.000000000000000000, 6.000000000000005329 ) ) ;
#89 = CARTESIAN_POINT ( 'NONE',  ( -12.52451227796384359, 0.000000000000000000, 6.175487722036146820 ) ) ;
#90 = SPHERICAL_SURFACE ( 'NONE', #165, 91.17000000000000171 ) ;
#91 = LINE ( 'NONE', #30, #62 ) ;
#92 = DIRECTION ( 'NONE',  ( 0.000000000000000000, 0.000000000000000000, -1.000000000000000000 ) ) ;
#93 = CIRCLE ( 'NONE', #252, 31.00000000000000000 ) ;
#94 = PRESENTATION_LAYER_ASSIGNMENT (  '', '', ( #13 ) ) ;
#95 = DIRECTION ( 'NONE',  ( -0.000000000000000000, -0.000000000000000000, -1.000000000000000000 ) ) ;
#96 = ADVANCED_FACE ( 'NONE', ( #265 ), #132, .T. ) ;
#97 = CARTESIAN_POINT ( 'NONE',  ( -1.555301434917136658E-15, -12.69999999999991580, 3.999999999999936939 ) ) ;
#98 = MECHANICAL_DESIGN_GEOMETRIC_PRESENTATION_REPRESENTATION (  '', ( #85 ), #58 ) ;
#99 = AXIS2_PLACEMENT_3D ( 'NONE', #273, #79, #32 ) ;
#100 = APPLICATION_PROTOCOL_DEFINITION ( 'draft international standard', 'automotive_design', 1998, #111 ) ;
#101 = AXIS2_PLACEMENT_3D ( 'NONE', #224, #73, #74 ) ;
#102 = ORIENTED_EDGE ( 'NONE', *, *, #84, .T. ) ;
#103 = CARTESIAN_POINT ( 'NONE',  ( 12.69999999999999929, 1.555301434917138433E-15, 6.000000000000005329 ) ) ;
#104 = EDGE_LOOP ( 'NONE', ( #260, #86, #152, #148 ) ) ;
#105 = ADVANCED_FACE ( 'NONE', ( #182 ), #188, .T. ) ;
#106 = ORIENTED_EDGE ( 'NONE', *, *, #189, .T. ) ;
#107 = AXIS2_PLACEMENT_3D ( 'NONE', #247, #4, #157 ) ;
#108 = CIRCLE ( 'NONE', #258, 12.69999999999998508 ) ;
#109 = PRESENTATION_LAYER_ASSIGNMENT (  '', '', ( #85 ) ) ;
#110 = EDGE_LOOP ( 'NONE', ( #1, #37, #36, #215, #200 ) ) ;
#111 = APPLICATION_CONTEXT ( 'automotive_design' ) ;
#112 = SPHERICAL_SURFACE ( 'NONE', #78, 31.00000000000000000 ) ;
#113 = DIRECTION ( 'NONE',  ( 1.000000000000000000, 0.000000000000000000, 0.000000000000000000 ) ) ;
#114 = DIRECTION ( 'NONE',  ( 0.000000000000000000, 1.000000000000000000, 2.462188159450951840E-15 ) ) ;
#115 = AXIS2_PLACEMENT_3D ( 'NONE', #249, #92, #267 ) ;
#116 = PRESENTATION_STYLE_ASSIGNMENT (( #131 ) ) ;
#117 = DIRECTION ( 'NONE',  ( 1.000000000000000000, 0.000000000000000000, 0.000000000000000000 ) ) ;
#118 = EDGE_CURVE ( 'NONE', #171, #255, #91, .T. ) ;
#119 = DIRECTION ( 'NONE',  ( 0.000000000000000000, -1.000000000000000000, -2.390366994456233028E-15 ) ) ;
#120 = VECTOR ( 'NONE', #160, 1000.000000000000000 ) ;
#121 = CIRCLE ( 'NONE', #282, 12.69999999999998508 ) ;
#122 = EDGE_CURVE ( 'NONE', #40, #20, #121, .T. ) ;
#123 = MANIFOLD_SOLID_BREP ( 'µ¹½Ç1', #140 ) ;
#124 = FACE_OUTER_BOUND ( 'NONE', #83, .T. ) ;
#125 =( GEOMETRIC_REPRESENTATION_CONTEXT ( 3 ) GLOBAL_UNCERTAINTY_ASSIGNED_CONTEXT ( ( #196 ) ) GLOBAL_UNIT_ASSIGNED_CONTEXT ( ( #203, #222, #269 ) ) REPRESENTATION_CONTEXT ( 'NONE', 'WORKASPACE' ) );
#126 = ORIENTED_EDGE ( 'NONE', *, *, #155, .F. ) ;
#127 = ORIENTED_EDGE ( 'NONE', *, *, #169, .F. ) ;
#128 = PRODUCT_DEFINITION_CONTEXT ( 'detailed design', #111, 'design' ) ;
#129 = VERTEX_POINT ( 'NONE', #141 ) ;
#130 = ORIENTED_EDGE ( 'NONE', *, *, #212, .T. ) ;
#131 = SURFACE_STYLE_USAGE ( .BOTH. , #208 ) ;
#132 = CYLINDRICAL_SURFACE ( 'NONE', #274, 12.69999999999999929 ) ;
#133 = EDGE_CURVE ( 'NONE', #255, #40, #211, .T. ) ;
#134 = DIRECTION ( 'NONE',  ( 1.000000000000000000, 0.000000000000000000, 0.000000000000000000 ) ) ;
#135 =( LENGTH_UNIT ( ) NAMED_UNIT ( * ) SI_UNIT ( .MILLI., .METRE. ) );
#136 = DIRECTION ( 'NONE',  ( 0.000000000000000000, 0.000000000000000000, -1.000000000000000000 ) ) ;
#137 = DIRECTION ( 'NONE',  ( 0.000000000000000000, -1.000000000000000000, -2.435500766974128453E-15 ) ) ;
#138 = CARTESIAN_POINT ( 'NONE',  ( 0.000000000000000000, 1.428709893235229326E-14, 3.999999999999969802 ) ) ;
#139 = EDGE_CURVE ( 'NONE', #194, #170, #66, .T. ) ;
#140 = CLOSED_SHELL ( 'NONE', ( #235, #80, #15, #96, #176, #256, #41, #105 ) ) ;
#141 = CARTESIAN_POINT ( 'NONE',  ( 0.000000000000000000, 2.115099158431787833E-13, 5.311110427375670184 ) ) ;
#142 = DIRECTION ( 'NONE',  ( -1.224646799147353207E-16, -1.000000000000000000, 0.000000000000000000 ) ) ;
#143 = DIRECTION ( 'NONE',  ( 1.000000000000000000, 0.000000000000000000, 0.000000000000000000 ) ) ;
#144 = SURFACE_SIDE_STYLE ('',( #250 ) ) ;
#145 = EDGE_CURVE ( 'NONE', #276, #219, #185, .T. ) ;
#146 = VERTEX_POINT ( 'NONE', #51 ) ;
#147 = CARTESIAN_POINT ( 'NONE',  ( -12.52451227796384359, 0.000000000000000000, 6.175487722036146820 ) ) ;
#148 = ORIENTED_EDGE ( 'NONE', *, *, #64, .F. ) ;
#149 = CIRCLE ( 'NONE', #214, 12.52451227796384359 ) ;
#150 = PRODUCT_DEFINITION_SHAPE ( 'NONE', 'NONE',  #213 ) ;
#151 = ORIENTED_EDGE ( 'NONE', *, *, #26, .F. ) ;
#152 = ORIENTED_EDGE ( 'NONE', *, *, #122, .F. ) ;
#153 = CIRCLE ( 'NONE', #261, 31.00000000000000000 ) ;
#154 = ORIENTED_EDGE ( 'NONE', *, *, #118, .F. ) ;
#155 = EDGE_CURVE ( 'NONE', #255, #19, #81, .T. ) ;
#156 =( NAMED_UNIT ( * ) SI_UNIT ( $, .STERADIAN. ) SOLID_ANGLE_UNIT ( ) );
#157 = DIRECTION ( 'NONE',  ( 1.224646799147353454E-16, 1.000000000000000000, 0.000000000000000000 ) ) ;
#158 = CARTESIAN_POINT ( 'NONE',  ( 0.000000000000000000, 1.428709893235229326E-14, 3.999999999999969802 ) ) ;
#159 = DIRECTION ( 'NONE',  ( -0.000000000000000000, -2.381183155392036649E-15, 1.000000000000000000 ) ) ;
#160 = DIRECTION ( 'NONE',  ( -0.000000000000000000, -0.000000000000000000, -1.000000000000000000 ) ) ;
#161 = EDGE_CURVE ( 'NONE', #253, #170, #153, .T. ) ;
#162 = FILL_AREA_STYLE_COLOUR ( '', #232 ) ;
#163 = CIRCLE ( 'NONE', #76, 12.52451227796384359 ) ;
#164 = SPHERICAL_SURFACE ( 'NONE', #216, 31.00000000000000000 ) ;
#165 = AXIS2_PLACEMENT_3D ( 'NONE', #204, #248, #137 ) ;
#166 = DIRECTION ( 'NONE',  ( -1.000000000000000000, 1.224646799147353207E-16, 2.916108329434452248E-31 ) ) ;
#167 = CARTESIAN_POINT ( 'NONE',  ( 12.52451227796384359, 1.544555911063076789E-15, 6.175487722036146820 ) ) ;
#168 = UNCERTAINTY_MEASURE_WITH_UNIT (LENGTH_MEASURE( 1.000000000000000082E-05 ), #135, 'distance_accuracy_value', 'NONE');
#169 = EDGE_CURVE ( 'NONE', #19, #255, #18, .T. ) ;
#170 = VERTEX_POINT ( 'NONE', #97 ) ;
#171 = VERTEX_POINT ( 'NONE', #167 ) ;
#172 = EDGE_LOOP ( 'NONE', ( #65, #130, #61, #102 ) ) ;
#173 = CIRCLE ( 'NONE', #199, 91.17000000000000171 ) ;
#174 = AXIS2_PLACEMENT_3D ( 'NONE', #178, #53, #143 ) ;
#175 = ORIENTED_EDGE ( 'NONE', *, *, #212, .F. ) ;
#176 = ADVANCED_FACE ( 'NONE', ( #187 ), #52, .T. ) ;
#177 = ORIENTED_EDGE ( 'NONE', *, *, #161, .T. ) ;
#178 = CARTESIAN_POINT ( 'NONE',  ( 0.000000000000000000, 0.000000000000000000, 0.000000000000000000 ) ) ;
#179 = CARTESIAN_POINT ( 'NONE',  ( 0.000000000000000000, 0.000000000000000000, 32.27914425862282144 ) ) ;
#180 = DIRECTION ( 'NONE',  ( 0.000000000000000000, -1.000000000000000000, -2.390366994456233028E-15 ) ) ;
#181 =( NAMED_UNIT ( * ) PLANE_ANGLE_UNIT ( ) SI_UNIT ( $, .RADIAN. ) );
#182 = FACE_OUTER_BOUND ( 'NONE', #82, .T. ) ;
#183 = CARTESIAN_POINT ( 'NONE',  ( 0.000000000000000000, 0.000000000000000000, 32.27914425862282144 ) ) ;
#184 = AXIS2_PLACEMENT_3D ( 'NONE', #254, #60, #46 ) ;
#185 = CIRCLE ( 'NONE', #268, 12.52451227796384359 ) ;
#186 = DIRECTION ( 'NONE',  ( -0.000000000000000000, -0.000000000000000000, 1.000000000000000000 ) ) ;
#187 = FACE_OUTER_BOUND ( 'NONE', #110, .T. ) ;
#188 = CONICAL_SURFACE ( 'NONE', #115, 12.52451227796384359, 0.7853981633974926879 ) ;
#189 = EDGE_CURVE ( 'NONE', #171, #276, #163, .T. ) ;
#190 = VECTOR ( 'NONE', #9, 1000.000000000000000 ) ;
#191 = ORIENTED_EDGE ( 'NONE', *, *, #145, .F. ) ;
#192 = DIRECTION ( 'NONE',  ( 0.000000000000000000, 1.000000000000000000, 2.462188159450951840E-15 ) ) ;
#193 = ORIENTED_EDGE ( 'NONE', *, *, #54, .T. ) ;
#194 = VERTEX_POINT ( 'NONE', #246 ) ;
#195 = PRODUCT ( 'GLM2-025B-100-UV', 'GLM2-025B-100-UV', '', ( #234 ) ) ;
#196 = UNCERTAINTY_MEASURE_WITH_UNIT (LENGTH_MEASURE( 1.000000000000000082E-05 ), #203, 'distance_accuracy_value', 'NONE');
#197 = ORIENTED_EDGE ( 'NONE', *, *, #84, .F. ) ;
#198 = EDGE_CURVE ( 'NONE', #219, #19, #205, .T. ) ;
#199 = AXIS2_PLACEMENT_3D ( 'NONE', #72, #69, #207 ) ;
#200 = ORIENTED_EDGE ( 'NONE', *, *, #64, .T. ) ;
#201 = SPHERICAL_SURFACE ( 'NONE', #271, 91.17000000000000171 ) ;
#202 = CARTESIAN_POINT ( 'NONE',  ( 0.000000000000000000, 0.000000000000000000, 6.175487722036146820 ) ) ;
#203 =( LENGTH_UNIT ( ) NAMED_UNIT ( * ) SI_UNIT ( .MILLI., .METRE. ) );
#204 = CARTESIAN_POINT ( 'NONE',  ( 0.000000000000000000, 0.000000000000000000, 96.48111042737566834 ) ) ;
#205 = LINE ( 'NONE', #89, #236 ) ;
#206 = DIRECTION ( 'NONE',  ( 1.000000000000000000, 0.000000000000000000, 0.000000000000000000 ) ) ;
#207 = DIRECTION ( 'NONE',  ( 0.000000000000000000, 0.000000000000000000, 1.000000000000000000 ) ) ;
#208 = SURFACE_SIDE_STYLE ('',( #28 ) ) ;
#209 = CARTESIAN_POINT ( 'NONE',  ( 0.000000000000000000, 0.000000000000000000, 6.000000000000005329 ) ) ;
#210 =( GEOMETRIC_REPRESENTATION_CONTEXT ( 3 ) GLOBAL_UNCERTAINTY_ASSIGNED_CONTEXT ( ( #168 ) ) GLOBAL_UNIT_ASSIGNED_CONTEXT ( ( #135, #181, #156 ) ) REPRESENTATION_CONTEXT ( 'NONE', 'WORKASPACE' ) );
#211 = LINE ( 'NONE', #230, #190 ) ;
#212 = EDGE_CURVE ( 'NONE', #129, #276, #218, .T. ) ;
#213 = PRODUCT_DEFINITION ( 'Î´Öª', '', #272, #128 ) ;
#214 = AXIS2_PLACEMENT_3D ( 'NONE', #227, #27, #42 ) ;
#215 = ORIENTED_EDGE ( 'NONE', *, *, #139, .T. ) ;
#216 = AXIS2_PLACEMENT_3D ( 'NONE', #183, #242, #192 ) ;
#217 = ORIENTED_EDGE ( 'NONE', *, *, #275, .F. ) ;
#218 = CIRCLE ( 'NONE', #107, 91.17000000000000171 ) ;
#219 = VERTEX_POINT ( 'NONE', #147 ) ;
#220 = CARTESIAN_POINT ( 'NONE',  ( 0.000000000000000000, 0.000000000000000000, 32.27914425862282144 ) ) ;
#221 = CARTESIAN_POINT ( 'NONE',  ( 0.000000000000000000, 0.000000000000000000, 10.00000000000000000 ) ) ;
#222 =( NAMED_UNIT ( * ) PLANE_ANGLE_UNIT ( ) SI_UNIT ( $, .RADIAN. ) );
#223 = DIRECTION ( 'NONE',  ( 0.000000000000000000, -1.000000000000000000, -2.390366994456233028E-15 ) ) ;
#224 = CARTESIAN_POINT ( 'NONE',  ( 0.000000000000000000, 1.428709893235229326E-14, 3.999999999999969802 ) ) ;
#225 = FILL_AREA_STYLE_COLOUR ( '', #14 ) ;
#226 = AXIS2_PLACEMENT_3D ( 'NONE', #266, #21, #206 ) ;
#227 = CARTESIAN_POINT ( 'NONE',  ( 0.000000000000000000, 0.000000000000000000, 6.175487722036146820 ) ) ;
#228 = PRESENTATION_STYLE_ASSIGNMENT (( #233 ) ) ;
#229 = CARTESIAN_POINT ( 'NONE',  ( 0.000000000000000000, 0.000000000000000000, 6.175487722036146820 ) ) ;
#230 = CARTESIAN_POINT ( 'NONE',  ( 12.69999999999999929, 1.555301434917138433E-15, 10.00000000000000000 ) ) ;
#231 = EDGE_CURVE ( 'NONE', #146, #171, #56, .T. ) ;
#232 = COLOUR_RGB ( '',1.000000000000000000, 1.000000000000000000, 1.000000000000000000 ) ;
#233 = SURFACE_STYLE_USAGE ( .BOTH. , #144 ) ;
#234 = PRODUCT_CONTEXT ( 'NONE', #33, 'mechanical' ) ;
#235 = ADVANCED_FACE ( 'NONE', ( #43 ), #17, .T. ) ;
#236 = VECTOR ( 'NONE', #6, 1000.000000000000114 ) ;
#237 = EDGE_CURVE ( 'NONE', #19, #194, #7, .T. ) ;
#238 = ORIENTED_EDGE ( 'NONE', *, *, #26, .T. ) ;
#239 = EDGE_LOOP ( 'NONE', ( #35, #257, #63, #238, #16 ) ) ;
#240 = ORIENTED_EDGE ( 'NONE', *, *, #231, .F. ) ;
#241 = AXIS2_PLACEMENT_3D ( 'NONE', #209, #12, #270 ) ;
#242 = DIRECTION ( 'NONE',  ( -1.000000000000000000, 0.000000000000000000, 0.000000000000000000 ) ) ;
#243 = CARTESIAN_POINT ( 'NONE',  ( 0.000000000000000000, 1.428709893235229326E-14, 3.999999999999969802 ) ) ;
#244 = CARTESIAN_POINT ( 'NONE',  ( 1.533810387208990295E-15, 12.52451227796385957, 6.175487722036146820 ) ) ;
#245 = DIRECTION ( 'NONE',  ( -0.000000000000000000, -2.381183155392036649E-15, 1.000000000000000000 ) ) ;
#246 = CARTESIAN_POINT ( 'NONE',  ( -12.69999999999998508, -6.162975822039154730E-29, 3.999999999999969802 ) ) ;
#247 = CARTESIAN_POINT ( 'NONE',  ( 0.000000000000000000, 0.000000000000000000, 96.48111042737566834 ) ) ;
#248 = DIRECTION ( 'NONE',  ( 1.000000000000000000, 0.000000000000000000, 0.000000000000000000 ) ) ;
#249 = CARTESIAN_POINT ( 'NONE',  ( 0.000000000000000000, 0.000000000000000000, 6.175487722036146820 ) ) ;
#250 = SURFACE_STYLE_FILL_AREA ( #48 ) ;
#251 = DIRECTION ( 'NONE',  ( 0.7071067811865789920, 8.659560562355319893E-17, -0.7071067811865160424 ) ) ;
#252 = AXIS2_PLACEMENT_3D ( 'NONE', #220, #2, #136 ) ;
#253 = VERTEX_POINT ( 'NONE', #68 ) ;
#254 = CARTESIAN_POINT ( 'NONE',  ( 0.000000000000000000, 0.000000000000000000, 6.175487722036146820 ) ) ;
#255 = VERTEX_POINT ( 'NONE', #103 ) ;
#256 = ADVANCED_FACE ( 'NONE', ( #277 ), #164, .T. ) ;
#257 = ORIENTED_EDGE ( 'NONE', *, *, #133, .T. ) ;
#258 = AXIS2_PLACEMENT_3D ( 'NONE', #158, #245, #180 ) ;
#259 = ORIENTED_EDGE ( 'NONE', *, *, #231, .T. ) ;
#260 = ORIENTED_EDGE ( 'NONE', *, *, #161, .F. ) ;
#261 = AXIS2_PLACEMENT_3D ( 'NONE', #77, #166, #142 ) ;
#262 = DIRECTION ( 'NONE',  ( -0.000000000000000000, -2.381183155392036649E-15, 1.000000000000000000 ) ) ;
#263 = CARTESIAN_POINT ( 'NONE',  ( 0.000000000000000000, 0.000000000000000000, 6.000000000000005329 ) ) ;
#264 =( LENGTH_UNIT ( ) NAMED_UNIT ( * ) SI_UNIT ( .MILLI., .METRE. ) );
#265 = FACE_OUTER_BOUND ( 'NONE', #239, .T. ) ;
#266 = CARTESIAN_POINT ( 'NONE',  ( 0.000000000000000000, 0.000000000000000000, 6.175487722036146820 ) ) ;
#267 = DIRECTION ( 'NONE',  ( -1.000000000000000000, 0.000000000000000000, 0.000000000000000000 ) ) ;
#268 = AXIS2_PLACEMENT_3D ( 'NONE', #229, #186, #117 ) ;
#269 =( NAMED_UNIT ( * ) SI_UNIT ( $, .STERADIAN. ) SOLID_ANGLE_UNIT ( ) );
#270 = DIRECTION ( 'NONE',  ( 1.000000000000000000, 0.000000000000000000, 0.000000000000000000 ) ) ;
#271 = AXIS2_PLACEMENT_3D ( 'NONE', #44, #134, #47 ) ;
#272 = PRODUCT_DEFINITION_FORMATION_WITH_SPECIFIED_SOURCE ( 'ÈÎºÎ', '', #195, .NOT_KNOWN. ) ;
#273 = CARTESIAN_POINT ( 'NONE',  ( 0.000000000000000000, 0.000000000000000000, 10.00000000000000000 ) ) ;
#274 = AXIS2_PLACEMENT_3D ( 'NONE', #221, #95, #45 ) ;
#275 = EDGE_CURVE ( 'NONE', #253, #20, #93, .T. ) ;
#276 = VERTEX_POINT ( 'NONE', #244 ) ;
#277 = FACE_OUTER_BOUND ( 'NONE', #104, .T. ) ;
#278 = ORIENTED_EDGE ( 'NONE', *, *, #189, .F. ) ;
#279 = ORIENTED_EDGE ( 'NONE', *, *, #198, .T. ) ;
#280 = AXIS2_PLACEMENT_3D ( 'NONE', #263, #31, #25 ) ;
#281 = EDGE_LOOP ( 'NONE', ( #278, #87, #127, #67, #191 ) ) ;
#282 = AXIS2_PLACEMENT_3D ( 'NONE', #138, #159, #119 ) ;
ENDSEC;
END-ISO-10303-21;
