ISO-10303-21;
HEADER;
FILE_DESCRIPTION (( 'STEP AP214' ),
    '1' );
FILE_NAME ('GLM5-012B-080.STEP',
    '2024-08-09T03:05:43',
    ( 'Windows User' ),
    ( 'P R C' ),
    'SwSTEP 2.0',
    'SolidWorks 2022',
    '' );
FILE_SCHEMA (( 'AUTOMOTIVE_DESIGN' ));
ENDSEC;

DATA;
#1 = CARTESIAN_POINT ( 'NONE',  ( 0.000000000000000000, 6.350000000000006750, 4.000000000000001776 ) ) ;
#2 = FACE_OUTER_BOUND ( 'NONE', #200, .T. ) ;
#3 = SPHERICAL_SURFACE ( 'NONE', #257, 20.00000000000000355 ) ;
#4 = EDGE_LOOP ( 'NONE', ( #74, #250, #30, #121, #157 ) ) ;
#5 = EDGE_CURVE ( 'NONE', #69, #33, #212, .T. ) ;
#6 = ORIENTED_EDGE ( 'NONE', *, *, #237, .F. ) ;
#7 = ADVANCED_FACE ( 'NONE', ( #162 ), #125, .F. ) ;
#8 = ORIENTED_EDGE ( 'NONE', *, *, #141, .T. ) ;
#9 = VECTOR ( 'NONE', #35, 1000.000000000000000 ) ;
#10 = AXIS2_PLACEMENT_3D ( 'NONE', #54, #100, #183 ) ;
#11 = CIRCLE ( 'NONE', #169, 6.349999999999998757 ) ;
#12 = CARTESIAN_POINT ( 'NONE',  ( 0.000000000000000000, 0.000000000000000000, 22.96516543560851886 ) ) ;
#13 = UNCERTAINTY_MEASURE_WITH_UNIT (LENGTH_MEASURE( 1.000000000000000082E-05 ), #230, 'distance_accuracy_value', 'NONE');
#14 = DIRECTION ( 'NONE',  ( 0.000000000000000000, 0.000000000000000000, -1.000000000000000000 ) ) ;
#15 = DIRECTION ( 'NONE',  ( -1.000000000000000000, 0.000000000000000000, 0.000000000000000000 ) ) ;
#16 = DIRECTION ( 'NONE',  ( 1.000000000000000000, 0.000000000000000000, 0.000000000000000000 ) ) ;
#17 = DIRECTION ( 'NONE',  ( 1.000000000000000000, 0.000000000000000000, 0.000000000000000000 ) ) ;
#18 = CARTESIAN_POINT ( 'NONE',  ( 0.000000000000000000, 0.000000000000000000, 55.08765243878576001 ) ) ;
#19 = AXIS2_PLACEMENT_3D ( 'NONE', #209, #122, #233 ) ;
#20 = VERTEX_POINT ( 'NONE', #52 ) ;
#21 = LINE ( 'NONE', #42, #159 ) ;
#22 = DIRECTION ( 'NONE',  ( -0.000000000000000000, -0.000000000000000000, 1.000000000000000000 ) ) ;
#23 = ORIENTED_EDGE ( 'NONE', *, *, #5, .T. ) ;
#24 = AXIS2_PLACEMENT_3D ( 'NONE', #261, #196, #239 ) ;
#25 = DIRECTION ( 'NONE',  ( -0.7071067811865648922, 0.000000000000000000, -0.7071067811865301422 ) ) ;
#26 = VERTEX_POINT ( 'NONE', #189 ) ;
#27 = DIRECTION ( 'NONE',  ( -0.000000000000000000, -0.000000000000000000, 1.000000000000000000 ) ) ;
#28 = PRESENTATION_STYLE_ASSIGNMENT (( #119 ) ) ;
#29 = ORIENTED_EDGE ( 'NONE', *, *, #5, .F. ) ;
#30 = ORIENTED_EDGE ( 'NONE', *, *, #260, .T. ) ;
#31 = MECHANICAL_DESIGN_GEOMETRIC_PRESENTATION_REPRESENTATION (  '', ( #111 ), #214 ) ;
#32 = SURFACE_SIDE_STYLE ('',( #90 ) ) ;
#33 = VERTEX_POINT ( 'NONE', #38 ) ;
#34 = AXIS2_PLACEMENT_3D ( 'NONE', #195, #156, #17 ) ;
#35 = DIRECTION ( 'NONE',  ( -0.000000000000000000, -0.000000000000000000, -1.000000000000000000 ) ) ;
#36 = ADVANCED_FACE ( 'NONE', ( #234 ), #48, .T. ) ;
#37 =( NAMED_UNIT ( * ) PLANE_ANGLE_UNIT ( ) SI_UNIT ( $, .RADIAN. ) );
#38 = CARTESIAN_POINT ( 'NONE',  ( -7.776507174585701038E-16, -6.350000000000006750, 4.000000000000001776 ) ) ;
#39 = APPLICATION_CONTEXT ( 'automotive_design' ) ;
#40 = LINE ( 'NONE', #252, #191 ) ;
#41 = DIRECTION ( 'NONE',  ( -0.000000000000000000, -0.000000000000000000, 1.000000000000000000 ) ) ;
#42 = CARTESIAN_POINT ( 'NONE',  ( -6.172785089880967746, 0.000000000000000000, 6.377214910119027635 ) ) ;
#43 = DIRECTION ( 'NONE',  ( 0.000000000000000000, 1.000000000000000000, 0.000000000000000000 ) ) ;
#44 = CIRCLE ( 'NONE', #95, 6.172785089880961529 ) ;
#45 = SPHERICAL_SURFACE ( 'NONE', #24, 49.10000000000000142 ) ;
#46 = ORIENTED_EDGE ( 'NONE', *, *, #270, .F. ) ;
#47 = ORIENTED_EDGE ( 'NONE', *, *, #175, .T. ) ;
#48 = CONICAL_SURFACE ( 'NONE', #81, 6.172785089880967746, 0.7853981633974728149 ) ;
#49 = CIRCLE ( 'NONE', #124, 20.00000000000000355 ) ;
#50 = ORIENTED_EDGE ( 'NONE', *, *, #236, .F. ) ;
#51 =( NAMED_UNIT ( * ) PLANE_ANGLE_UNIT ( ) SI_UNIT ( $, .RADIAN. ) );
#52 = CARTESIAN_POINT ( 'NONE',  ( 6.349999999999999645, 7.776507174585692163E-16, 6.200000000000003730 ) ) ;
#53 = ORIENTED_EDGE ( 'NONE', *, *, #171, .F. ) ;
#54 = CARTESIAN_POINT ( 'NONE',  ( 0.000000000000000000, 0.000000000000000000, 55.08765243878576001 ) ) ;
#55 = DIRECTION ( 'NONE',  ( -1.000000000000000000, 0.000000000000000000, 0.000000000000000000 ) ) ;
#56 = EDGE_CURVE ( 'NONE', #179, #268, #243, .T. ) ;
#57 = DIRECTION ( 'NONE',  ( -0.000000000000000000, -0.000000000000000000, -1.000000000000000000 ) ) ;
#58 = DIRECTION ( 'NONE',  ( -1.000000000000000000, 0.000000000000000000, 0.000000000000000000 ) ) ;
#59 = SURFACE_SIDE_STYLE ('',( #228 ) ) ;
#60 = AXIS2_PLACEMENT_3D ( 'NONE', #114, #22, #131 ) ;
#61 = CARTESIAN_POINT ( 'NONE',  ( 0.000000000000000000, 0.000000000000000000, 6.200000000000003730 ) ) ;
#62 = STYLED_ITEM ( 'NONE', ( #28 ), #164 ) ;
#63 = CARTESIAN_POINT ( 'NONE',  ( 0.000000000000000000, 0.000000000000000000, 6.200000000000003730 ) ) ;
#64 = ORIENTED_EDGE ( 'NONE', *, *, #171, .T. ) ;
#65 = DIRECTION ( 'NONE',  ( -0.000000000000000000, -0.000000000000000000, -1.000000000000000000 ) ) ;
#66 = PRODUCT_DEFINITION_CONTEXT ( 'detailed design', #39, 'design' ) ;
#67 = CIRCLE ( 'NONE', #19, 6.172785089880961529 ) ;
#68 = DIRECTION ( 'NONE',  ( -0.000000000000000000, -0.000000000000000000, 1.000000000000000000 ) ) ;
#69 = VERTEX_POINT ( 'NONE', #232 ) ;
#70 = CIRCLE ( 'NONE', #60, 6.349999999999998757 ) ;
#71 = DIRECTION ( 'NONE',  ( 0.000000000000000000, 0.000000000000000000, 1.000000000000000000 ) ) ;
#72 = DIRECTION ( 'NONE',  ( 1.000000000000000000, 0.000000000000000000, 0.000000000000000000 ) ) ;
#73 = DIRECTION ( 'NONE',  ( 1.000000000000000000, 0.000000000000000000, 0.000000000000000000 ) ) ;
#74 = ORIENTED_EDGE ( 'NONE', *, *, #237, .T. ) ;
#75 = SHAPE_DEFINITION_REPRESENTATION ( #219, #164 ) ;
#76 = ORIENTED_EDGE ( 'NONE', *, *, #141, .F. ) ;
#77 = CARTESIAN_POINT ( 'NONE',  ( 6.172785089880961529, 7.667994338366458779E-16, 6.377214910119027635 ) ) ;
#78 = FACE_OUTER_BOUND ( 'NONE', #116, .T. ) ;
#79 = CIRCLE ( 'NONE', #279, 6.172785089880961529 ) ;
#80 = DIRECTION ( 'NONE',  ( 0.000000000000000000, 0.000000000000000000, -1.000000000000000000 ) ) ;
#81 = AXIS2_PLACEMENT_3D ( 'NONE', #128, #14, #15 ) ;
#82 = ADVANCED_FACE ( 'NONE', ( #78 ), #145, .T. ) ;
#83 = ORIENTED_EDGE ( 'NONE', *, *, #107, .T. ) ;
#84 = DIRECTION ( 'NONE',  ( 1.000000000000000000, 0.000000000000000000, 0.000000000000000000 ) ) ;
#85 = DIRECTION ( 'NONE',  ( -1.000000000000000000, 0.000000000000000000, 0.000000000000000000 ) ) ;
#86 = CYLINDRICAL_SURFACE ( 'NONE', #109, 6.349999999999999645 ) ;
#87 =( LENGTH_UNIT ( ) NAMED_UNIT ( * ) SI_UNIT ( .MILLI., .METRE. ) );
#88 = DIRECTION ( 'NONE',  ( -1.000000000000000000, 1.224646799147353207E-16, 0.000000000000000000 ) ) ;
#89 = COLOUR_RGB ( '',1.000000000000000000, 1.000000000000000000, 1.000000000000000000 ) ;
#90 = SURFACE_STYLE_FILL_AREA ( #244 ) ;
#91 = ORIENTED_EDGE ( 'NONE', *, *, #161, .F. ) ;
#92 = VERTEX_POINT ( 'NONE', #210 ) ;
#93 = AXIS2_PLACEMENT_3D ( 'NONE', #220, #27, #72 ) ;
#94 = ORIENTED_EDGE ( 'NONE', *, *, #213, .T. ) ;
#95 = AXIS2_PLACEMENT_3D ( 'NONE', #148, #208, #84 ) ;
#96 = ORIENTED_EDGE ( 'NONE', *, *, #213, .F. ) ;
#97 = DIRECTION ( 'NONE',  ( 0.000000000000000000, 0.000000000000000000, -1.000000000000000000 ) ) ;
#98 = AXIS2_PLACEMENT_3D ( 'NONE', #18, #88, #113 ) ;
#99 = ADVANCED_FACE ( 'NONE', ( #278 ), #240, .T. ) ;
#100 = DIRECTION ( 'NONE',  ( -1.000000000000000000, 0.000000000000000000, 0.000000000000000000 ) ) ;
#101 = FILL_AREA_STYLE_COLOUR ( '', #154 ) ;
#102 =( GEOMETRIC_REPRESENTATION_CONTEXT ( 3 ) GLOBAL_UNCERTAINTY_ASSIGNED_CONTEXT ( ( #103 ) ) GLOBAL_UNIT_ASSIGNED_CONTEXT ( ( #87, #51, #248 ) ) REPRESENTATION_CONTEXT ( 'NONE', 'WORKASPACE' ) );
#103 = UNCERTAINTY_MEASURE_WITH_UNIT (LENGTH_MEASURE( 1.000000000000000082E-05 ), #87, 'distance_accuracy_value', 'NONE');
#104 = DIRECTION ( 'NONE',  ( 0.000000000000000000, 1.000000000000000000, 0.000000000000000000 ) ) ;
#105 = AXIS2_PLACEMENT_3D ( 'NONE', #186, #97, #127 ) ;
#106 = MANIFOLD_SOLID_BREP ( 'µ¹½Ç1', #146 ) ;
#107 = EDGE_CURVE ( 'NONE', #225, #26, #67, .T. ) ;
#108 = DIRECTION ( 'NONE',  ( 1.000000000000000000, 0.000000000000000000, 0.000000000000000000 ) ) ;
#109 = AXIS2_PLACEMENT_3D ( 'NONE', #281, #65, #85 ) ;
#110 = ADVANCED_FACE ( 'NONE', ( #149 ), #276, .T. ) ;
#111 = STYLED_ITEM ( 'NONE', ( #205 ), #106 ) ;
#112 = DIRECTION ( 'NONE',  ( 0.000000000000000000, 0.000000000000000000, -1.000000000000000000 ) ) ;
#113 = DIRECTION ( 'NONE',  ( -1.224646799147353454E-16, -1.000000000000000000, 0.000000000000000000 ) ) ;
#114 = CARTESIAN_POINT ( 'NONE',  ( 0.000000000000000000, 0.000000000000000000, 4.000000000000000000 ) ) ;
#115 = CARTESIAN_POINT ( 'NONE',  ( 0.000000000000000000, 3.006507891906752541E-15, 5.987652438785754150 ) ) ;
#116 = EDGE_LOOP ( 'NONE', ( #204, #138, #274, #23, #140 ) ) ;
#117 = PRODUCT ( 'GLM5-012B-080', 'GLM5-012B-080', '', ( #202 ) ) ;
#118 = VERTEX_POINT ( 'NONE', #77 ) ;
#119 = SURFACE_STYLE_USAGE ( .BOTH. , #32 ) ;
#120 = ORIENTED_EDGE ( 'NONE', *, *, #187, .F. ) ;
#121 = ORIENTED_EDGE ( 'NONE', *, *, #270, .T. ) ;
#122 = DIRECTION ( 'NONE',  ( -0.000000000000000000, -0.000000000000000000, 1.000000000000000000 ) ) ;
#123 = AXIS2_PLACEMENT_3D ( 'NONE', #12, #144, #80 ) ;
#124 = AXIS2_PLACEMENT_3D ( 'NONE', #282, #130, #238 ) ;
#125 = SPHERICAL_SURFACE ( 'NONE', #10, 49.10000000000000142 ) ;
#126 = DIRECTION ( 'NONE',  ( 0.000000000000000000, 0.000000000000000000, -1.000000000000000000 ) ) ;
#127 = DIRECTION ( 'NONE',  ( -1.000000000000000000, 0.000000000000000000, 0.000000000000000000 ) ) ;
#128 = CARTESIAN_POINT ( 'NONE',  ( 0.000000000000000000, 0.000000000000000000, 6.377214910119027635 ) ) ;
#129 = EDGE_CURVE ( 'NONE', #174, #69, #254, .T. ) ;
#130 = DIRECTION ( 'NONE',  ( -1.000000000000000000, 1.224646799147353207E-16, 0.000000000000000000 ) ) ;
#131 = DIRECTION ( 'NONE',  ( 1.000000000000000000, 0.000000000000000000, 0.000000000000000000 ) ) ;
#132 = EDGE_LOOP ( 'NONE', ( #76, #198, #177, #47 ) ) ;
#133 = AXIS2_PLACEMENT_3D ( 'NONE', #259, #218, #215 ) ;
#134 = CARTESIAN_POINT ( 'NONE',  ( 0.000000000000000000, 1.224646799147353454E-15, 2.965165435608513533 ) ) ;
#135 = DIRECTION ( 'NONE',  ( 0.7071067811865648922, 8.659560562355146097E-17, -0.7071067811865301422 ) ) ;
#136 = DIRECTION ( 'NONE',  ( 1.000000000000000000, 0.000000000000000000, 0.000000000000000000 ) ) ;
#137 = CIRCLE ( 'NONE', #147, 6.349999999999999645 ) ;
#138 = ORIENTED_EDGE ( 'NONE', *, *, #187, .T. ) ;
#139 = APPLICATION_PROTOCOL_DEFINITION ( 'draft international standard', 'automotive_design', 1998, #39 ) ;
#140 = ORIENTED_EDGE ( 'NONE', *, *, #206, .T. ) ;
#141 = EDGE_CURVE ( 'NONE', #182, #165, #264, .T. ) ;
#142 = AXIS2_PLACEMENT_3D ( 'NONE', #272, #71, #73 ) ;
#143 = ORIENTED_EDGE ( 'NONE', *, *, #161, .T. ) ;
#144 = DIRECTION ( 'NONE',  ( 1.000000000000000000, -0.000000000000000000, 0.000000000000000000 ) ) ;
#145 = CYLINDRICAL_SURFACE ( 'NONE', #158, 6.349999999999999645 ) ;
#146 = CLOSED_SHELL ( 'NONE', ( #36, #7, #110, #280, #82, #229, #223, #99 ) ) ;
#147 = AXIS2_PLACEMENT_3D ( 'NONE', #61, #235, #197 ) ;
#148 = CARTESIAN_POINT ( 'NONE',  ( 0.000000000000000000, 0.000000000000000000, 6.377214910119027635 ) ) ;
#149 = FACE_OUTER_BOUND ( 'NONE', #245, .T. ) ;
#150 = EDGE_CURVE ( 'NONE', #20, #92, #40, .T. ) ;
#151 = CARTESIAN_POINT ( 'NONE',  ( 0.000000000000000000, 6.172785089880957088, 6.377214910119027635 ) ) ;
#152 = PRESENTATION_LAYER_ASSIGNMENT (  '', '', ( #62 ) ) ;
#153 = ORIENTED_EDGE ( 'NONE', *, *, #175, .F. ) ;
#154 = COLOUR_RGB ( '',1.000000000000000000, 1.000000000000000000, 1.000000000000000000 ) ;
#155 = CARTESIAN_POINT ( 'NONE',  ( -6.172785089880961529, 0.000000000000000000, 6.377214910119027635 ) ) ;
#156 = DIRECTION ( 'NONE',  ( -0.000000000000000000, -0.000000000000000000, 1.000000000000000000 ) ) ;
#157 = ORIENTED_EDGE ( 'NONE', *, *, #129, .F. ) ;
#158 = AXIS2_PLACEMENT_3D ( 'NONE', #190, #168, #58 ) ;
#159 = VECTOR ( 'NONE', #25, 1000.000000000000114 ) ;
#160 = ORIENTED_EDGE ( 'NONE', *, *, #236, .T. ) ;
#161 = EDGE_CURVE ( 'NONE', #165, #225, #44, .T. ) ;
#162 = FACE_OUTER_BOUND ( 'NONE', #132, .T. ) ;
#163 = EDGE_LOOP ( 'NONE', ( #203, #8, #143, #83 ) ) ;
#164 = ADVANCED_BREP_SHAPE_REPRESENTATION ( 'GLM5-012B-080', ( #106, #142 ), #102 ) ;
#165 = VERTEX_POINT ( 'NONE', #151 ) ;
#166 = CARTESIAN_POINT ( 'NONE',  ( -6.349999999999999645, 0.000000000000000000, 10.00000000000000000 ) ) ;
#167 = CARTESIAN_POINT ( 'NONE',  ( 0.000000000000000000, 0.000000000000000000, 22.96516543560851886 ) ) ;
#168 = DIRECTION ( 'NONE',  ( -0.000000000000000000, -0.000000000000000000, -1.000000000000000000 ) ) ;
#169 = AXIS2_PLACEMENT_3D ( 'NONE', #170, #68, #108 ) ;
#170 = CARTESIAN_POINT ( 'NONE',  ( 0.000000000000000000, 0.000000000000000000, 4.000000000000000000 ) ) ;
#171 = EDGE_CURVE ( 'NONE', #118, #20, #265, .T. ) ;
#172 = CARTESIAN_POINT ( 'NONE',  ( -6.349999999999999645, 0.000000000000000000, 6.200000000000003730 ) ) ;
#173 = CARTESIAN_POINT ( 'NONE',  ( 0.000000000000000000, 0.000000000000000000, 22.96516543560851886 ) ) ;
#174 = VERTEX_POINT ( 'NONE', #172 ) ;
#175 = EDGE_CURVE ( 'NONE', #118, #165, #253, .T. ) ;
#176 =( LENGTH_UNIT ( ) NAMED_UNIT ( * ) SI_UNIT ( .MILLI., .METRE. ) );
#177 = ORIENTED_EDGE ( 'NONE', *, *, #185, .T. ) ;
#178 = CIRCLE ( 'NONE', #217, 6.349999999999999645 ) ;
#179 = VERTEX_POINT ( 'NONE', #134 ) ;
#180 = AXIS2_PLACEMENT_3D ( 'NONE', #207, #16, #126 ) ;
#181 = EDGE_LOOP ( 'NONE', ( #153, #64, #6, #96, #91 ) ) ;
#182 = VERTEX_POINT ( 'NONE', #115 ) ;
#183 = DIRECTION ( 'NONE',  ( 0.000000000000000000, 1.000000000000000000, 0.000000000000000000 ) ) ;
#184 = SURFACE_STYLE_USAGE ( .BOTH. , #59 ) ;
#185 = EDGE_CURVE ( 'NONE', #26, #118, #79, .T. ) ;
#186 = CARTESIAN_POINT ( 'NONE',  ( 0.000000000000000000, 0.000000000000000000, 6.377214910119027635 ) ) ;
#187 = EDGE_CURVE ( 'NONE', #20, #174, #178, .T. ) ;
#188 = APPLICATION_CONTEXT ( 'automotive_design' ) ;
#189 = CARTESIAN_POINT ( 'NONE',  ( -7.559481502147219479E-16, -6.172785089880957088, 6.377214910119027635 ) ) ;
#190 = CARTESIAN_POINT ( 'NONE',  ( 0.000000000000000000, 0.000000000000000000, 10.00000000000000000 ) ) ;
#191 = VECTOR ( 'NONE', #57, 1000.000000000000000 ) ;
#192 = CIRCLE ( 'NONE', #34, 6.349999999999998757 ) ;
#193 = PRODUCT_DEFINITION ( 'Î´Öª', '', #251, #66 ) ;
#194 = DIRECTION ( 'NONE',  ( 1.000000000000000000, 0.000000000000000000, 0.000000000000000000 ) ) ;
#195 = CARTESIAN_POINT ( 'NONE',  ( 0.000000000000000000, 0.000000000000000000, 4.000000000000000000 ) ) ;
#196 = DIRECTION ( 'NONE',  ( -1.000000000000000000, 0.000000000000000000, 0.000000000000000000 ) ) ;
#197 = DIRECTION ( 'NONE',  ( 1.000000000000000000, 0.000000000000000000, 0.000000000000000000 ) ) ;
#198 = ORIENTED_EDGE ( 'NONE', *, *, #246, .T. ) ;
#199 = APPLICATION_PROTOCOL_DEFINITION ( 'draft international standard', 'automotive_design', 1998, #188 ) ;
#200 = EDGE_LOOP ( 'NONE', ( #50, #273, #266, #227 ) ) ;
#201 = VECTOR ( 'NONE', #135, 1000.000000000000114 ) ;
#202 = PRODUCT_CONTEXT ( 'NONE', #188, 'mechanical' ) ;
#203 = ORIENTED_EDGE ( 'NONE', *, *, #246, .F. ) ;
#204 = ORIENTED_EDGE ( 'NONE', *, *, #150, .F. ) ;
#205 = PRESENTATION_STYLE_ASSIGNMENT (( #184 ) ) ;
#206 = EDGE_CURVE ( 'NONE', #33, #92, #70, .T. ) ;
#207 = CARTESIAN_POINT ( 'NONE',  ( 0.000000000000000000, 0.000000000000000000, 55.08765243878576001 ) ) ;
#208 = DIRECTION ( 'NONE',  ( -0.000000000000000000, -0.000000000000000000, 1.000000000000000000 ) ) ;
#209 = CARTESIAN_POINT ( 'NONE',  ( 0.000000000000000000, 0.000000000000000000, 6.377214910119027635 ) ) ;
#210 = CARTESIAN_POINT ( 'NONE',  ( 6.349999999999998757, 7.776507174585691177E-16, 4.000000000000000000 ) ) ;
#211 = DIRECTION ( 'NONE',  ( -1.000000000000000000, 0.000000000000000000, 0.000000000000000000 ) ) ;
#212 = CIRCLE ( 'NONE', #93, 6.349999999999998757 ) ;
#213 = EDGE_CURVE ( 'NONE', #225, #174, #21, .T. ) ;
#214 =( GEOMETRIC_REPRESENTATION_CONTEXT ( 3 ) GLOBAL_UNCERTAINTY_ASSIGNED_CONTEXT ( ( #13 ) ) GLOBAL_UNIT_ASSIGNED_CONTEXT ( ( #230, #37, #255 ) ) REPRESENTATION_CONTEXT ( 'NONE', 'WORKASPACE' ) );
#215 = DIRECTION ( 'NONE',  ( 1.000000000000000000, 0.000000000000000000, 0.000000000000000000 ) ) ;
#216 = FACE_OUTER_BOUND ( 'NONE', #163, .T. ) ;
#217 = AXIS2_PLACEMENT_3D ( 'NONE', #63, #112, #194 ) ;
#218 = DIRECTION ( 'NONE',  ( -0.000000000000000000, -0.000000000000000000, 1.000000000000000000 ) ) ;
#219 = PRODUCT_DEFINITION_SHAPE ( 'NONE', 'NONE',  #193 ) ;
#220 = CARTESIAN_POINT ( 'NONE',  ( 0.000000000000000000, 0.000000000000000000, 4.000000000000000000 ) ) ;
#221 = MECHANICAL_DESIGN_GEOMETRIC_PRESENTATION_REPRESENTATION (  '', ( #62 ), #277 ) ;
#222 = FILL_AREA_STYLE_COLOUR ( '', #89 ) ;
#223 = ADVANCED_FACE ( 'NONE', ( #216 ), #45, .F. ) ;
#224 = EDGE_LOOP ( 'NONE', ( #53, #269, #249, #94, #120 ) ) ;
#225 = VERTEX_POINT ( 'NONE', #155 ) ;
#226 = AXIS2_PLACEMENT_3D ( 'NONE', #167, #55, #104 ) ;
#227 = ORIENTED_EDGE ( 'NONE', *, *, #206, .F. ) ;
#228 = SURFACE_STYLE_FILL_AREA ( #275 ) ;
#229 = ADVANCED_FACE ( 'NONE', ( #2 ), #3, .T. ) ;
#230 =( LENGTH_UNIT ( ) NAMED_UNIT ( * ) SI_UNIT ( .MILLI., .METRE. ) );
#231 = CIRCLE ( 'NONE', #98, 49.10000000000000142 ) ;
#232 = CARTESIAN_POINT ( 'NONE',  ( -6.349999999999998757, 0.000000000000000000, 4.000000000000000000 ) ) ;
#233 = DIRECTION ( 'NONE',  ( 1.000000000000000000, 0.000000000000000000, 0.000000000000000000 ) ) ;
#234 = FACE_OUTER_BOUND ( 'NONE', #181, .T. ) ;
#235 = DIRECTION ( 'NONE',  ( 0.000000000000000000, 0.000000000000000000, -1.000000000000000000 ) ) ;
#236 = EDGE_CURVE ( 'NONE', #179, #33, #49, .T. ) ;
#237 = EDGE_CURVE ( 'NONE', #174, #20, #137, .T. ) ;
#238 = DIRECTION ( 'NONE',  ( -1.224646799147353207E-16, -1.000000000000000000, 0.000000000000000000 ) ) ;
#239 = DIRECTION ( 'NONE',  ( 0.000000000000000000, 1.000000000000000000, 0.000000000000000000 ) ) ;
#240 = CONICAL_SURFACE ( 'NONE', #105, 6.172785089880967746, 0.7853981633974728149 ) ;
#241 = FACE_OUTER_BOUND ( 'NONE', #4, .T. ) ;
#242 = ORIENTED_EDGE ( 'NONE', *, *, #56, .F. ) ;
#243 = CIRCLE ( 'NONE', #123, 20.00000000000000355 ) ;
#244 = FILL_AREA_STYLE ('',( #222 ) ) ;
#245 = EDGE_LOOP ( 'NONE', ( #242, #160, #29, #46 ) ) ;
#246 = EDGE_CURVE ( 'NONE', #182, #26, #231, .T. ) ;
#247 =( NAMED_UNIT ( * ) SI_UNIT ( $, .STERADIAN. ) SOLID_ANGLE_UNIT ( ) );
#248 =( NAMED_UNIT ( * ) SI_UNIT ( $, .STERADIAN. ) SOLID_ANGLE_UNIT ( ) );
#249 = ORIENTED_EDGE ( 'NONE', *, *, #107, .F. ) ;
#250 = ORIENTED_EDGE ( 'NONE', *, *, #150, .T. ) ;
#251 = PRODUCT_DEFINITION_FORMATION_WITH_SPECIFIED_SOURCE ( 'ÈÎºÎ', '', #117, .NOT_KNOWN. ) ;
#252 = CARTESIAN_POINT ( 'NONE',  ( 6.349999999999999645, 7.776507174585692163E-16, 10.00000000000000000 ) ) ;
#253 = CIRCLE ( 'NONE', #133, 6.172785089880961529 ) ;
#254 = LINE ( 'NONE', #166, #9 ) ;
#255 =( NAMED_UNIT ( * ) SI_UNIT ( $, .STERADIAN. ) SOLID_ANGLE_UNIT ( ) );
#256 = PRODUCT_RELATED_PRODUCT_CATEGORY ( 'part', '', ( #117 ) ) ;
#257 = AXIS2_PLACEMENT_3D ( 'NONE', #173, #211, #43 ) ;
#258 = UNCERTAINTY_MEASURE_WITH_UNIT (LENGTH_MEASURE( 1.000000000000000082E-05 ), #176, 'distance_accuracy_value', 'NONE');
#259 = CARTESIAN_POINT ( 'NONE',  ( 0.000000000000000000, 0.000000000000000000, 6.377214910119027635 ) ) ;
#260 = EDGE_CURVE ( 'NONE', #92, #268, #11, .T. ) ;
#261 = CARTESIAN_POINT ( 'NONE',  ( 0.000000000000000000, 0.000000000000000000, 55.08765243878576001 ) ) ;
#262 = CARTESIAN_POINT ( 'NONE',  ( 0.000000000000000000, 0.000000000000000000, 6.377214910119027635 ) ) ;
#263 = CARTESIAN_POINT ( 'NONE',  ( 6.172785089880967746, 7.559481502147233284E-16, 6.377214910119027635 ) ) ;
#264 = CIRCLE ( 'NONE', #180, 49.10000000000000142 ) ;
#265 = LINE ( 'NONE', #263, #201 ) ;
#266 = ORIENTED_EDGE ( 'NONE', *, *, #260, .F. ) ;
#267 =( NAMED_UNIT ( * ) PLANE_ANGLE_UNIT ( ) SI_UNIT ( $, .RADIAN. ) );
#268 = VERTEX_POINT ( 'NONE', #1 ) ;
#269 = ORIENTED_EDGE ( 'NONE', *, *, #185, .F. ) ;
#270 = EDGE_CURVE ( 'NONE', #268, #69, #192, .T. ) ;
#271 = PRESENTATION_LAYER_ASSIGNMENT (  '', '', ( #111 ) ) ;
#272 = CARTESIAN_POINT ( 'NONE',  ( 0.000000000000000000, 0.000000000000000000, 0.000000000000000000 ) ) ;
#273 = ORIENTED_EDGE ( 'NONE', *, *, #56, .T. ) ;
#274 = ORIENTED_EDGE ( 'NONE', *, *, #129, .T. ) ;
#275 = FILL_AREA_STYLE ('',( #101 ) ) ;
#276 = SPHERICAL_SURFACE ( 'NONE', #226, 20.00000000000000355 ) ;
#277 =( GEOMETRIC_REPRESENTATION_CONTEXT ( 3 ) GLOBAL_UNCERTAINTY_ASSIGNED_CONTEXT ( ( #258 ) ) GLOBAL_UNIT_ASSIGNED_CONTEXT ( ( #176, #267, #247 ) ) REPRESENTATION_CONTEXT ( 'NONE', 'WORKASPACE' ) );
#278 = FACE_OUTER_BOUND ( 'NONE', #224, .T. ) ;
#279 = AXIS2_PLACEMENT_3D ( 'NONE', #262, #41, #136 ) ;
#280 = ADVANCED_FACE ( 'NONE', ( #241 ), #86, .T. ) ;
#281 = CARTESIAN_POINT ( 'NONE',  ( 0.000000000000000000, 0.000000000000000000, 10.00000000000000000 ) ) ;
#282 = CARTESIAN_POINT ( 'NONE',  ( 0.000000000000000000, 0.000000000000000000, 22.96516543560851886 ) ) ;
ENDSEC;
END-ISO-10303-21;
